ISO-10303-21;
HEADER;
FILE_DESCRIPTION (( 'STEP AP203' ),
    '1' );
FILE_NAME ('716d.STEP',
    '2022-07-10T09:02:33',
    ( '' ),
    ( '' ),
    'SwSTEP 2.0',
    'SolidWorks 2019',
    '' );
FILE_SCHEMA (( 'CONFIG_CONTROL_DESIGN' ));
ENDSEC;

DATA;
#1 = DIRECTION ( 'NONE',  ( -0.000000000000000000, -0.000000000000000000, -1.000000000000000000 ) ) ;
#2 = AXIS2_PLACEMENT_3D ( 'NONE', #18, #47, #131 ) ;
#3 = APPROVAL_DATE_TIME ( #265, #285 ) ;
#4 = DIRECTION ( 'NONE',  ( 1.000000000000000000, 0.000000000000000000, 0.000000000000000000 ) ) ;
#5 = VECTOR ( 'NONE', #356, 1000.000000000000000 ) ;
#6 = VERTEX_POINT ( 'NONE', #116 ) ;
#7 = DIRECTION ( 'NONE',  ( 0.000000000000000000, 0.000000000000000000, 1.000000000000000000 ) ) ;
#8 = CARTESIAN_POINT ( 'NONE',  ( -4.099999999999999645, 0.000000000000000000, 132.0000000000000000 ) ) ;
#9 = ADVANCED_FACE ( 'NONE', ( #151 ), #143, .T. ) ;
#10 = EDGE_LOOP ( 'NONE', ( #200, #171 ) ) ;
#11 = CARTESIAN_POINT ( 'NONE',  ( 4.099999999999999645, 5.021051876504147385E-16, 0.000000000000000000 ) ) ;
#12 = FACE_OUTER_BOUND ( 'NONE', #215, .T. ) ;
#13 = EDGE_CURVE ( 'NONE', #115, #310, #29, .T. ) ;
#14 = DIRECTION ( 'NONE',  ( 0.000000000000000000, 0.000000000000000000, 1.000000000000000000 ) ) ;
#15 = APPROVAL ( #228, 'NEURÈENÝ' ) ;
#16 = DIRECTION ( 'NONE',  ( 1.000000000000000000, 0.000000000000000000, 0.000000000000000000 ) ) ;
#17 = AXIS2_PLACEMENT_3D ( 'NONE', #150, #326, #209 ) ;
#18 = CARTESIAN_POINT ( 'NONE',  ( 0.000000000000000000, 0.000000000000000000, 7.000000000000000000 ) ) ;
#19 = ORIENTED_EDGE ( 'NONE', *, *, #173, .T. ) ;
#20 = PERSON_AND_ORGANIZATION_ROLE ( 'design_owner' ) ;
#21 = COORDINATED_UNIVERSAL_TIME_OFFSET ( 1, 0, .AHEAD. ) ;
#22 = ORIENTED_EDGE ( 'NONE', *, *, #98, .F. ) ;
#23 = ORIENTED_EDGE ( 'NONE', *, *, #261, .F. ) ;
#24 = CARTESIAN_POINT ( 'NONE',  ( 0.000000000000000000, 0.000000000000000000, 132.0000000000000000 ) ) ;
#25 = ORIENTED_EDGE ( 'NONE', *, *, #82, .F. ) ;
#26 = CC_DESIGN_PERSON_AND_ORGANIZATION_ASSIGNMENT ( #62, #59, ( #44 ) ) ;
#27 = DIRECTION ( 'NONE',  ( 1.000000000000000000, 0.000000000000000000, 0.000000000000000000 ) ) ;
#28 = ADVANCED_FACE ( 'NONE', ( #89 ), #300, .F. ) ;
#29 = CIRCLE ( 'NONE', #225, 4.099999999999999645 ) ;
#30 = CARTESIAN_POINT ( 'NONE',  ( 10.00000000000000000, 1.224646799147353256E-15, 0.000000000000000000 ) ) ;
#31 = CALENDAR_DATE ( 2022, 10, 7 ) ;
#32 = DIRECTION ( 'NONE',  ( 1.000000000000000000, 0.000000000000000000, 0.000000000000000000 ) ) ;
#33 = CIRCLE ( 'NONE', #128, 10.00000000000000000 ) ;
#34 = LOCAL_TIME ( 11, 2, 33.00000000000000000, #352 ) ;
#35 = CARTESIAN_POINT ( 'NONE',  ( 0.000000000000000000, 0.000000000000000000, 7.699999999999998401 ) ) ;
#36 = EDGE_CURVE ( 'NONE', #291, #76, #180, .T. ) ;
#37 = DIRECTION ( 'NONE',  ( -0.000000000000000000, -0.000000000000000000, -1.000000000000000000 ) ) ;
#38 = APPROVAL_PERSON_ORGANIZATION ( #53, #285, #57 ) ;
#39 = DIRECTION ( 'NONE',  ( 1.000000000000000000, 0.000000000000000000, 0.000000000000000000 ) ) ;
#40 = CARTESIAN_POINT ( 'NONE',  ( 0.000000000000000000, 0.000000000000000000, 0.000000000000000000 ) ) ;
#41 = DIRECTION ( 'NONE',  ( 1.000000000000000000, 0.000000000000000000, 0.000000000000000000 ) ) ;
#42 = VERTEX_POINT ( 'NONE', #30 ) ;
#43 = TOROIDAL_SURFACE ( 'NONE', #208, 6.700000000000001066, 0.6999999999999999556 ) ;
#44 = PRODUCT_DEFINITION_FORMATION_WITH_SPECIFIED_SOURCE ( 'LIBOVOLNÝ', '', #245, .NOT_KNOWN. ) ;
#45 = CARTESIAN_POINT ( 'NONE',  ( 6.700000000000001066, 0.000000000000000000, 6.999999999999999112 ) ) ;
#46 = ORIENTED_EDGE ( 'NONE', *, *, #114, .T. ) ;
#47 = DIRECTION ( 'NONE',  ( -0.000000000000000000, -0.000000000000000000, -1.000000000000000000 ) ) ;
#48 = CIRCLE ( 'NONE', #157, 6.000000000000000888 ) ;
#49 = CARTESIAN_POINT ( 'NONE',  ( 6.700000000000001066, 0.000000000000000000, 7.699999999999998401 ) ) ;
#50 = EDGE_LOOP ( 'NONE', ( #309, #227 ) ) ;
#51 = PERSON_AND_ORGANIZATION ( #340, #322 ) ;
#52 = EDGE_CURVE ( 'NONE', #256, #137, #361, .T. ) ;
#53 = PERSON_AND_ORGANIZATION ( #340, #322 ) ;
#54 = DIRECTION ( 'NONE',  ( 1.000000000000000000, 0.000000000000000000, -0.000000000000000000 ) ) ;
#55 = CARTESIAN_POINT ( 'NONE',  ( 0.000000000000000000, 0.000000000000000000, 7.000000000000000000 ) ) ;
#56 = EDGE_CURVE ( 'NONE', #314, #325, #64, .T. ) ;
#57 = APPROVAL_ROLE ( '' ) ;
#58 = DIRECTION ( 'NONE',  ( -0.000000000000000000, -0.000000000000000000, -1.000000000000000000 ) ) ;
#59 = PERSON_AND_ORGANIZATION_ROLE ( 'creator' ) ;
#60 = PLANE ( 'NONE',  #346 ) ;
#61 = AXIS2_PLACEMENT_3D ( 'NONE', #105, #306, #308 ) ;
#62 = PERSON_AND_ORGANIZATION ( #340, #322 ) ;
#63 = DIRECTION ( 'NONE',  ( 1.000000000000000000, 0.000000000000000000, 0.000000000000000000 ) ) ;
#64 = CIRCLE ( 'NONE', #318, 6.000000000000000888 ) ;
#65 = LINE ( 'NONE', #8, #358 ) ;
#66 = ADVANCED_FACE ( 'NONE', ( #95 ), #153, .F. ) ;
#67 = FACE_BOUND ( 'NONE', #197, .T. ) ;
#68 = CIRCLE ( 'NONE', #363, 10.00000000000000000 ) ;
#69 = CC_DESIGN_APPROVAL ( #285, ( #251 ) ) ;
#70 = FACE_OUTER_BOUND ( 'NONE', #255, .T. ) ;
#71 = EDGE_CURVE ( 'NONE', #93, #111, #77, .T. ) ;
#72 = LINE ( 'NONE', #125, #107 ) ;
#73 = CYLINDRICAL_SURFACE ( 'NONE', #169, 6.000000000000000888 ) ;
#74 = APPLICATION_PROTOCOL_DEFINITION ( 'international standard', 'config_control_design', 1994, #146 ) ;
#75 = ADVANCED_FACE ( 'NONE', ( #269, #236 ), #60, .F. ) ;
#76 = VERTEX_POINT ( 'NONE', #380 ) ;
#77 = CIRCLE ( 'NONE', #159, 4.099999999999999645 ) ;
#78 = PERSON_AND_ORGANIZATION ( #340, #322 ) ;
#79 = ORIENTED_EDGE ( 'NONE', *, *, #56, .F. ) ;
#80 = AXIS2_PLACEMENT_3D ( 'NONE', #274, #211, #41 ) ;
#81 = CARTESIAN_POINT ( 'NONE',  ( -6.000000000000000888, 0.000000000000000000, 7.699999999999998401 ) ) ;
#82 = EDGE_CURVE ( 'NONE', #291, #6, #230, .T. ) ;
#83 = ORIENTED_EDGE ( 'NONE', *, *, #377, .F. ) ;
#84 = DIRECTION ( 'NONE',  ( 0.000000000000000000, 0.000000000000000000, 1.000000000000000000 ) ) ;
#85 = EDGE_LOOP ( 'NONE', ( #23, #316 ) ) ;
#86 = EDGE_CURVE ( 'NONE', #137, #325, #353, .T. ) ;
#87 = PRODUCT_DEFINITION ( 'NEZNÁMÝ', '', #44, #182 ) ;
#88 = COORDINATED_UNIVERSAL_TIME_OFFSET ( 1, 0, .AHEAD. ) ;
#89 = FACE_OUTER_BOUND ( 'NONE', #109, .T. ) ;
#90 = EDGE_CURVE ( 'NONE', #76, #42, #33, .T. ) ;
#91 = PERSON_AND_ORGANIZATION ( #340, #322 ) ;
#92 = CARTESIAN_POINT ( 'NONE',  ( 0.000000000000000000, 0.000000000000000000, 7.000000000000000000 ) ) ;
#93 = VERTEX_POINT ( 'NONE', #176 ) ;
#94 = EDGE_CURVE ( 'NONE', #6, #291, #198, .T. ) ;
#95 = FACE_OUTER_BOUND ( 'NONE', #134, .T. ) ;
#96 = DIRECTION ( 'NONE',  ( 0.000000000000000000, 0.000000000000000000, 1.000000000000000000 ) ) ;
#97 = DIRECTION ( 'NONE',  ( 0.000000000000000000, 0.000000000000000000, 1.000000000000000000 ) ) ;
#98 = EDGE_CURVE ( 'NONE', #250, #337, #270, .T. ) ;
#99 = EDGE_LOOP ( 'NONE', ( #320, #201, #46, #213 ) ) ;
#100 = CARTESIAN_POINT ( 'NONE',  ( 0.000000000000000000, 0.000000000000000000, 132.0000000000000000 ) ) ;
#101 = CC_DESIGN_APPROVAL ( #166, ( #44 ) ) ;
#102 = LINE ( 'NONE', #333, #331 ) ;
#103 = EDGE_CURVE ( 'NONE', #256, #314, #72, .T. ) ;
#104 = CARTESIAN_POINT ( 'NONE',  ( 6.000000000000000888, 7.347880794884120722E-16, 132.0000000000000000 ) ) ;
#105 = CARTESIAN_POINT ( 'NONE',  ( 0.000000000000000000, 0.000000000000000000, 7.000000000000000000 ) ) ;
#106 = EDGE_CURVE ( 'NONE', #137, #256, #148, .T. ) ;
#107 = VECTOR ( 'NONE', #37, 1000.000000000000000 ) ;
#108 = PERSON_AND_ORGANIZATION ( #340, #322 ) ;
#109 = EDGE_LOOP ( 'NONE', ( #223, #282, #338, #241 ) ) ;
#110 = CC_DESIGN_PERSON_AND_ORGANIZATION_ASSIGNMENT ( #235, #117, ( #44 ) ) ;
#111 = VERTEX_POINT ( 'NONE', #307 ) ;
#112 = ORIENTED_EDGE ( 'NONE', *, *, #283, .T. ) ;
#113 = CIRCLE ( 'NONE', #140, 4.099999999999999645 ) ;
#114 = EDGE_CURVE ( 'NONE', #42, #76, #68, .T. ) ;
#115 = VERTEX_POINT ( 'NONE', #11 ) ;
#116 = CARTESIAN_POINT ( 'NONE',  ( 10.00000000000000000, 1.224646799147353256E-15, 7.000000000000000000 ) ) ;
#117 = PERSON_AND_ORGANIZATION_ROLE ( 'design_supplier' ) ;
#118 = AXIS2_PLACEMENT_3D ( 'NONE', #332, #97, #164 ) ;
#119 = APPROVAL_PERSON_ORGANIZATION ( #78, #15, #317 ) ;
#120 = ORIENTED_EDGE ( 'NONE', *, *, #330, .T. ) ;
#121 = ORIENTED_EDGE ( 'NONE', *, *, #106, .F. ) ;
#122 = CARTESIAN_POINT ( 'NONE',  ( 0.000000000000000000, 0.000000000000000000, 132.0000000000000000 ) ) ;
#123 = AXIS2_PLACEMENT_3D ( 'NONE', #360, #188, #362 ) ;
#124 = FACE_OUTER_BOUND ( 'NONE', #341, .T. ) ;
#125 = CARTESIAN_POINT ( 'NONE',  ( 6.000000000000000888, 7.347880794884120722E-16, 132.0000000000000000 ) ) ;
#126 = APPLICATION_CONTEXT ( 'configuration controlled 3d designs of mechanical parts and assemblies' ) ;
#127 = CYLINDRICAL_SURFACE ( 'NONE', #123, 6.000000000000000888 ) ;
#128 = AXIS2_PLACEMENT_3D ( 'NONE', #206, #7, #204 ) ;
#129 = DIRECTION ( 'NONE',  ( 1.000000000000000000, 0.000000000000000000, 0.000000000000000000 ) ) ;
#130 = DIRECTION ( 'NONE',  ( -0.000000000000000000, -0.000000000000000000, -1.000000000000000000 ) ) ;
#131 = DIRECTION ( 'NONE',  ( 1.000000000000000000, 0.000000000000000000, 0.000000000000000000 ) ) ;
#132 = CC_DESIGN_PERSON_AND_ORGANIZATION_ASSIGNMENT ( #91, #205, ( #251 ) ) ;
#133 = CARTESIAN_POINT ( 'NONE',  ( 10.00000000000000000, 1.224646799147353256E-15, 7.000000000000000000 ) ) ;
#134 = EDGE_LOOP ( 'NONE', ( #275, #19, #22, #83 ) ) ;
#135 = CALENDAR_DATE ( 2022, 10, 7 ) ;
#136 = ADVANCED_FACE ( 'NONE', ( #12 ), #243, .T. ) ;
#137 = VERTEX_POINT ( 'NONE', #244 ) ;
#138 = PERSON_AND_ORGANIZATION ( #340, #322 ) ;
#139 = EDGE_LOOP ( 'NONE', ( #334, #344, #272, #191 ) ) ;
#140 = AXIS2_PLACEMENT_3D ( 'NONE', #40, #365, #160 ) ;
#141 = FACE_OUTER_BOUND ( 'NONE', #374, .T. ) ;
#142 = EDGE_CURVE ( 'NONE', #111, #93, #297, .T. ) ;
#143 = CYLINDRICAL_SURFACE ( 'NONE', #177, 10.00000000000000000 ) ;
#144 = AXIS2_PLACEMENT_3D ( 'NONE', #122, #179, #238 ) ;
#145 = CARTESIAN_POINT ( 'NONE',  ( 0.000000000000000000, 0.000000000000000000, 0.000000000000000000 ) ) ;
#146 = APPLICATION_CONTEXT ( 'configuration controlled 3d designs of mechanical parts and assemblies' ) ;
#147 = DATE_AND_TIME ( #299, #158 ) ;
#148 = CIRCLE ( 'NONE', #118, 6.000000000000000888 ) ;
#149 = LOCAL_TIME ( 11, 2, 33.00000000000000000, #295 ) ;
#150 = CARTESIAN_POINT ( 'NONE',  ( 0.000000000000000000, 0.000000000000000000, 7.699999999999998401 ) ) ;
#151 = FACE_OUTER_BOUND ( 'NONE', #99, .T. ) ;
#152 = ADVANCED_FACE ( 'NONE', ( #70 ), #43, .F. ) ;
#153 = TOROIDAL_SURFACE ( 'NONE', #17, 6.700000000000001066, 0.6999999999999999556 ) ;
#154 = APPROVAL_STATUS ( 'not_yet_approved' ) ;
#155 = DIRECTION ( 'NONE',  ( 1.000000000000000000, 0.000000000000000000, 0.000000000000000000 ) ) ;
#156 = DIRECTION ( 'NONE',  ( -1.000000000000000000, 0.000000000000000000, 0.000000000000000000 ) ) ;
#157 = AXIS2_PLACEMENT_3D ( 'NONE', #249, #342, #284 ) ;
#158 = LOCAL_TIME ( 11, 2, 33.00000000000000000, #88 ) ;
#159 = AXIS2_PLACEMENT_3D ( 'NONE', #234, #266, #4 ) ;
#160 = DIRECTION ( 'NONE',  ( 1.000000000000000000, 0.000000000000000000, 0.000000000000000000 ) ) ;
#161 = CARTESIAN_POINT ( 'NONE',  ( 0.000000000000000000, 0.000000000000000000, 0.000000000000000000 ) ) ;
#162 = ORIENTED_EDGE ( 'NONE', *, *, #377, .T. ) ;
#163 = LOCAL_TIME ( 11, 2, 33.00000000000000000, #345 ) ;
#164 = DIRECTION ( 'NONE',  ( 1.000000000000000000, 0.000000000000000000, 0.000000000000000000 ) ) ;
#165 = PLANE ( 'NONE',  #357 ) ;
#166 = APPROVAL ( #154, 'NEURÈENÝ' ) ;
#167 = FACE_BOUND ( 'NONE', #10, .T. ) ;
#168 = ORIENTED_EDGE ( 'NONE', *, *, #13, .T. ) ;
#169 = AXIS2_PLACEMENT_3D ( 'NONE', #190, #130, #247 ) ;
#170 = DIRECTION ( 'NONE',  ( 0.000000000000000000, -1.000000000000000000, 0.000000000000000000 ) ) ;
#171 = ORIENTED_EDGE ( 'NONE', *, *, #142, .F. ) ;
#172 = ORIENTED_EDGE ( 'NONE', *, *, #103, .F. ) ;
#173 = EDGE_CURVE ( 'NONE', #325, #337, #343, .T. ) ;
#174 = ORIENTED_EDGE ( 'NONE', *, *, #173, .F. ) ;
#175 = ADVANCED_FACE ( 'NONE', ( #124 ), #187, .F. ) ;
#176 = CARTESIAN_POINT ( 'NONE',  ( -4.099999999999999645, 0.000000000000000000, 132.0000000000000000 ) ) ;
#177 = AXIS2_PLACEMENT_3D ( 'NONE', #55, #58, #293 ) ;
#178 = DATE_TIME_ROLE ( 'classification_date' ) ;
#179 = DIRECTION ( 'NONE',  ( 0.000000000000000000, 0.000000000000000000, -1.000000000000000000 ) ) ;
#180 = LINE ( 'NONE', #355, #5 ) ;
#181 = DIRECTION ( 'NONE',  ( 0.000000000000000000, 0.000000000000000000, 1.000000000000000000 ) ) ;
#182 = DESIGN_CONTEXT ( 'detailed design', #146, 'design' ) ;
#183 = FACE_OUTER_BOUND ( 'NONE', #372, .T. ) ;
#184 = ADVANCED_FACE ( 'NONE', ( #273 ), #127, .T. ) ;
#185 = PLANE ( 'NONE',  #61 ) ;
#186 = CIRCLE ( 'NONE', #263, 0.7000000000000000666 ) ;
#187 = CYLINDRICAL_SURFACE ( 'NONE', #321, 4.099999999999999645 ) ;
#188 = DIRECTION ( 'NONE',  ( -0.000000000000000000, -0.000000000000000000, -1.000000000000000000 ) ) ;
#189 = ADVANCED_FACE ( 'NONE', ( #67, #271 ), #185, .T. ) ;
#190 = CARTESIAN_POINT ( 'NONE',  ( 0.000000000000000000, 0.000000000000000000, 132.0000000000000000 ) ) ;
#191 = ORIENTED_EDGE ( 'NONE', *, *, #86, .F. ) ;
#192 = CIRCLE ( 'NONE', #2, 6.700000000000001066 ) ;
#193 = CC_DESIGN_PERSON_AND_ORGANIZATION_ASSIGNMENT ( #51, #378, ( #87 ) ) ;
#194 = CARTESIAN_POINT ( 'NONE',  ( 0.000000000000000000, 0.000000000000000000, 0.000000000000000000 ) ) ;
#195 = EDGE_LOOP ( 'NONE', ( #349, #366 ) ) ;
#196 = DATE_AND_TIME ( #226, #163 ) ;
#197 = EDGE_LOOP ( 'NONE', ( #253, #120 ) ) ;
#198 = CIRCLE ( 'NONE', #219, 10.00000000000000000 ) ;
#199 = DATE_TIME_ROLE ( 'creation_date' ) ;
#200 = ORIENTED_EDGE ( 'NONE', *, *, #71, .F. ) ;
#201 = ORIENTED_EDGE ( 'NONE', *, *, #354, .T. ) ;
#202 = CC_DESIGN_PERSON_AND_ORGANIZATION_ASSIGNMENT ( #138, #20, ( #245 ) ) ;
#203 = PRODUCT_RELATED_PRODUCT_CATEGORY ( 'detail', '', ( #245 ) ) ;
#204 = DIRECTION ( 'NONE',  ( 1.000000000000000000, 0.000000000000000000, 0.000000000000000000 ) ) ;
#205 = PERSON_AND_ORGANIZATION_ROLE ( 'classification_officer' ) ;
#206 = CARTESIAN_POINT ( 'NONE',  ( 0.000000000000000000, 0.000000000000000000, 0.000000000000000000 ) ) ;
#207 = DIRECTION ( 'NONE',  ( 0.000000000000000000, 0.000000000000000000, 1.000000000000000000 ) ) ;
#208 = AXIS2_PLACEMENT_3D ( 'NONE', #367, #14, #129 ) ;
#209 = DIRECTION ( 'NONE',  ( 1.000000000000000000, 0.000000000000000000, 0.000000000000000000 ) ) ;
#210 = CARTESIAN_POINT ( 'NONE',  ( 0.000000000000000000, 0.000000000000000000, 132.0000000000000000 ) ) ;
#211 = DIRECTION ( 'NONE',  ( -0.000000000000000000, -0.000000000000000000, -1.000000000000000000 ) ) ;
#212 = AXIS2_PLACEMENT_3D ( 'NONE', #240, #329, #303 ) ;
#213 = ORIENTED_EDGE ( 'NONE', *, *, #36, .F. ) ;
#214 = CARTESIAN_POINT ( 'NONE',  ( 0.000000000000000000, 0.000000000000000000, 7.000000000000000000 ) ) ;
#215 = EDGE_LOOP ( 'NONE', ( #286, #25, #379, #248 ) ) ;
#216 = AXIS2_PLACEMENT_3D ( 'NONE', #260, #181, #155 ) ;
#217 = DIRECTION ( 'NONE',  ( 0.000000000000000000, 0.000000000000000000, -1.000000000000000000 ) ) ;
#218 = DIRECTION ( 'NONE',  ( 1.000000000000000000, 0.000000000000000000, -0.000000000000000000 ) ) ;
#219 = AXIS2_PLACEMENT_3D ( 'NONE', #92, #292, #27 ) ;
#220 = ORIENTED_EDGE ( 'NONE', *, *, #86, .T. ) ;
#221 = AXIS2_PLACEMENT_3D ( 'NONE', #194, #311, #224 ) ;
#222 = DIRECTION ( 'NONE',  ( 0.000000000000000000, 0.000000000000000000, -1.000000000000000000 ) ) ;
#223 = ORIENTED_EDGE ( 'NONE', *, *, #283, .F. ) ;
#224 = DIRECTION ( 'NONE',  ( 1.000000000000000000, 0.000000000000000000, 0.000000000000000000 ) ) ;
#225 = AXIS2_PLACEMENT_3D ( 'NONE', #359, #232, #267 ) ;
#226 = CALENDAR_DATE ( 2022, 10, 7 ) ;
#227 = ORIENTED_EDGE ( 'NONE', *, *, #94, .T. ) ;
#228 = APPROVAL_STATUS ( 'not_yet_approved' ) ;
#229 = ORIENTED_EDGE ( 'NONE', *, *, #350, .T. ) ;
#230 = CIRCLE ( 'NONE', #280, 10.00000000000000000 ) ;
#231 = VECTOR ( 'NONE', #1, 1000.000000000000000 ) ;
#232 = DIRECTION ( 'NONE',  ( -0.000000000000000000, -0.000000000000000000, -1.000000000000000000 ) ) ;
#233 = DATE_AND_TIME ( #348, #34 ) ;
#234 = CARTESIAN_POINT ( 'NONE',  ( 0.000000000000000000, 0.000000000000000000, 132.0000000000000000 ) ) ;
#235 = PERSON_AND_ORGANIZATION ( #340, #322 ) ;
#236 = FACE_OUTER_BOUND ( 'NONE', #195, .T. ) ;
#237 = SHAPE_DEFINITION_REPRESENTATION ( #335, #277 ) ;
#238 = DIRECTION ( 'NONE',  ( -1.000000000000000000, 0.000000000000000000, 0.000000000000000000 ) ) ;
#239 = CC_DESIGN_APPROVAL ( #15, ( #87 ) ) ;
#240 = CARTESIAN_POINT ( 'NONE',  ( -6.700000000000001066, 8.205133554287267548E-16, 7.699999999999998401 ) ) ;
#241 = ORIENTED_EDGE ( 'NONE', *, *, #261, .T. ) ;
#242 = CLOSED_SHELL ( 'NONE', ( #175, #66, #184, #9, #136, #189, #75, #294, #347, #152, #28 ) ) ;
#243 = CYLINDRICAL_SURFACE ( 'NONE', #351, 10.00000000000000000 ) ;
#244 = CARTESIAN_POINT ( 'NONE',  ( -6.000000000000000888, 0.000000000000000000, 132.0000000000000000 ) ) ;
#245 = PRODUCT ( '716d', '716d', '', ( #290 ) ) ;
#246 = DIRECTION ( 'NONE',  ( -0.000000000000000000, -0.000000000000000000, -1.000000000000000000 ) ) ;
#247 = DIRECTION ( 'NONE',  ( -1.000000000000000000, 0.000000000000000000, 0.000000000000000000 ) ) ;
#248 = ORIENTED_EDGE ( 'NONE', *, *, #90, .T. ) ;
#249 = CARTESIAN_POINT ( 'NONE',  ( 0.000000000000000000, 0.000000000000000000, 7.699999999999998401 ) ) ;
#250 = VERTEX_POINT ( 'NONE', #45 ) ;
#251 = SECURITY_CLASSIFICATION ( '', '', #319 ) ;
#252 =( NAMED_UNIT ( * ) SI_UNIT ( $, .STERADIAN. ) SOLID_ANGLE_UNIT ( ) );
#253 = ORIENTED_EDGE ( 'NONE', *, *, #98, .T. ) ;
#254 = DIRECTION ( 'NONE',  ( 0.000000000000000000, 0.000000000000000000, -1.000000000000000000 ) ) ;
#255 = EDGE_LOOP ( 'NONE', ( #174, #79, #162, #323 ) ) ;
#256 = VERTEX_POINT ( 'NONE', #104 ) ;
#257 =( LENGTH_UNIT ( ) NAMED_UNIT ( * ) SI_UNIT ( .MILLI., .METRE. ) );
#258 = ORIENTED_EDGE ( 'NONE', *, *, #312, .F. ) ;
#259 = APPROVAL_ROLE ( '' ) ;
#260 = CARTESIAN_POINT ( 'NONE',  ( 0.000000000000000000, 0.000000000000000000, 132.0000000000000000 ) ) ;
#261 = EDGE_CURVE ( 'NONE', #310, #115, #113, .T. ) ;
#262 = DIRECTION ( 'NONE',  ( 0.000000000000000000, 0.000000000000000000, 1.000000000000000000 ) ) ;
#263 = AXIS2_PLACEMENT_3D ( 'NONE', #49, #170, #254 ) ;
#264 =( GEOMETRIC_REPRESENTATION_CONTEXT ( 3 ) GLOBAL_UNCERTAINTY_ASSIGNED_CONTEXT ( ( #304 ) ) GLOBAL_UNIT_ASSIGNED_CONTEXT ( ( #257, #373, #252 ) ) REPRESENTATION_CONTEXT ( 'NONE', 'WORKASPACE' ) );
#265 = DATE_AND_TIME ( #31, #149 ) ;
#266 = DIRECTION ( 'NONE',  ( 0.000000000000000000, 0.000000000000000000, 1.000000000000000000 ) ) ;
#267 = DIRECTION ( 'NONE',  ( 1.000000000000000000, 0.000000000000000000, 0.000000000000000000 ) ) ;
#268 = APPROVAL_DATE_TIME ( #233, #166 ) ;
#269 = FACE_BOUND ( 'NONE', #85, .T. ) ;
#270 = CIRCLE ( 'NONE', #80, 6.700000000000001066 ) ;
#271 = FACE_OUTER_BOUND ( 'NONE', #50, .T. ) ;
#272 = ORIENTED_EDGE ( 'NONE', *, *, #56, .T. ) ;
#273 = FACE_OUTER_BOUND ( 'NONE', #139, .T. ) ;
#274 = CARTESIAN_POINT ( 'NONE',  ( 0.000000000000000000, 0.000000000000000000, 7.000000000000000000 ) ) ;
#275 = ORIENTED_EDGE ( 'NONE', *, *, #350, .F. ) ;
#276 = CC_DESIGN_DATE_AND_TIME_ASSIGNMENT ( #288, #199, ( #87 ) ) ;
#277 = ADVANCED_BREP_SHAPE_REPRESENTATION ( '716d', ( #302, #221 ), #264 ) ;
#278 = DIRECTION ( 'NONE',  ( 0.000000000000000000, 0.000000000000000000, 1.000000000000000000 ) ) ;
#279 = DIRECTION ( 'NONE',  ( -1.000000000000000000, 0.000000000000000000, 0.000000000000000000 ) ) ;
#280 = AXIS2_PLACEMENT_3D ( 'NONE', #327, #262, #63 ) ;
#281 = LINE ( 'NONE', #133, #370 ) ;
#282 = ORIENTED_EDGE ( 'NONE', *, *, #142, .T. ) ;
#283 = EDGE_CURVE ( 'NONE', #111, #115, #102, .T. ) ;
#284 = DIRECTION ( 'NONE',  ( 1.000000000000000000, 0.000000000000000000, 0.000000000000000000 ) ) ;
#285 = APPROVAL ( #324, 'NEURÈENÝ' ) ;
#286 = ORIENTED_EDGE ( 'NONE', *, *, #354, .F. ) ;
#287 = APPLICATION_PROTOCOL_DEFINITION ( 'international standard', 'config_control_design', 1994, #126 ) ;
#288 = DATE_AND_TIME ( #135, #315 ) ;
#289 = ORIENTED_EDGE ( 'NONE', *, *, #106, .T. ) ;
#290 = MECHANICAL_CONTEXT ( 'NONE', #126, 'mechanical' ) ;
#291 = VERTEX_POINT ( 'NONE', #336 ) ;
#292 = DIRECTION ( 'NONE',  ( 0.000000000000000000, 0.000000000000000000, 1.000000000000000000 ) ) ;
#293 = DIRECTION ( 'NONE',  ( -1.000000000000000000, 0.000000000000000000, 0.000000000000000000 ) ) ;
#294 = ADVANCED_FACE ( 'NONE', ( #183 ), #73, .T. ) ;
#295 = COORDINATED_UNIVERSAL_TIME_OFFSET ( 1, 0, .AHEAD. ) ;
#296 = ORIENTED_EDGE ( 'NONE', *, *, #71, .T. ) ;
#297 = CIRCLE ( 'NONE', #376, 4.099999999999999645 ) ;
#298 = APPROVAL_PERSON_ORGANIZATION ( #108, #166, #259 ) ;
#299 = CALENDAR_DATE ( 2022, 10, 7 ) ;
#300 = CYLINDRICAL_SURFACE ( 'NONE', #144, 4.099999999999999645 ) ;
#301 = CARTESIAN_POINT ( 'NONE',  ( -6.000000000000000888, 0.000000000000000000, 132.0000000000000000 ) ) ;
#302 = MANIFOLD_SOLID_BREP ( 'Odebrat vysunutím3', #242 ) ;
#303 = DIRECTION ( 'NONE',  ( -1.000000000000000000, 1.224646799147353454E-16, 0.000000000000000000 ) ) ;
#304 = UNCERTAINTY_MEASURE_WITH_UNIT (LENGTH_MEASURE( 1.000000000000000082E-05 ), #257, 'distance_accuracy_value', 'NONE');
#305 = DIRECTION ( 'NONE',  ( 0.000000000000000000, 0.000000000000000000, 1.000000000000000000 ) ) ;
#306 = DIRECTION ( 'NONE',  ( 0.000000000000000000, 0.000000000000000000, 1.000000000000000000 ) ) ;
#307 = CARTESIAN_POINT ( 'NONE',  ( 4.099999999999999645, 5.021051876504147385E-16, 132.0000000000000000 ) ) ;
#308 = DIRECTION ( 'NONE',  ( 1.000000000000000000, 0.000000000000000000, -0.000000000000000000 ) ) ;
#309 = ORIENTED_EDGE ( 'NONE', *, *, #82, .T. ) ;
#310 = VERTEX_POINT ( 'NONE', #328 ) ;
#311 = DIRECTION ( 'NONE',  ( 0.000000000000000000, 0.000000000000000000, 1.000000000000000000 ) ) ;
#312 = EDGE_CURVE ( 'NONE', #93, #310, #65, .T. ) ;
#313 = APPROVAL_DATE_TIME ( #196, #15 ) ;
#314 = VERTEX_POINT ( 'NONE', #371 ) ;
#315 = LOCAL_TIME ( 11, 2, 33.00000000000000000, #21 ) ;
#316 = ORIENTED_EDGE ( 'NONE', *, *, #13, .F. ) ;
#317 = APPROVAL_ROLE ( '' ) ;
#318 = AXIS2_PLACEMENT_3D ( 'NONE', #35, #207, #32 ) ;
#319 = SECURITY_CLASSIFICATION_LEVEL ( 'unclassified' ) ;
#320 = ORIENTED_EDGE ( 'NONE', *, *, #94, .F. ) ;
#321 = AXIS2_PLACEMENT_3D ( 'NONE', #210, #368, #156 ) ;
#322 = ORGANIZATION ( 'NEURÈENÝ', 'NEURÈENÝ', '' ) ;
#323 = ORIENTED_EDGE ( 'NONE', *, *, #330, .F. ) ;
#324 = APPROVAL_STATUS ( 'not_yet_approved' ) ;
#325 = VERTEX_POINT ( 'NONE', #81 ) ;
#326 = DIRECTION ( 'NONE',  ( 0.000000000000000000, 0.000000000000000000, 1.000000000000000000 ) ) ;
#327 = CARTESIAN_POINT ( 'NONE',  ( 0.000000000000000000, 0.000000000000000000, 7.000000000000000000 ) ) ;
#328 = CARTESIAN_POINT ( 'NONE',  ( -4.099999999999999645, 0.000000000000000000, 0.000000000000000000 ) ) ;
#329 = DIRECTION ( 'NONE',  ( 1.224646799147353207E-16, 1.000000000000000000, -0.000000000000000000 ) ) ;
#330 = EDGE_CURVE ( 'NONE', #337, #250, #192, .T. ) ;
#331 = VECTOR ( 'NONE', #217, 1000.000000000000000 ) ;
#332 = CARTESIAN_POINT ( 'NONE',  ( 0.000000000000000000, 0.000000000000000000, 132.0000000000000000 ) ) ;
#333 = CARTESIAN_POINT ( 'NONE',  ( 4.099999999999999645, 5.021051876504147385E-16, 132.0000000000000000 ) ) ;
#334 = ORIENTED_EDGE ( 'NONE', *, *, #52, .F. ) ;
#335 = PRODUCT_DEFINITION_SHAPE ( 'NONE', 'NONE',  #87 ) ;
#336 = CARTESIAN_POINT ( 'NONE',  ( -10.00000000000000000, 0.000000000000000000, 7.000000000000000000 ) ) ;
#337 = VERTEX_POINT ( 'NONE', #375 ) ;
#338 = ORIENTED_EDGE ( 'NONE', *, *, #312, .T. ) ;
#339 = DIRECTION ( 'NONE',  ( -0.000000000000000000, -0.000000000000000000, -1.000000000000000000 ) ) ;
#340 = PERSON ( 'NEURÈENÝ', 'NEURÈENÝ', 'NEURÈENÝ', ('NEURÈENÝ'), ('NEURÈENÝ'), ('NEURÈENÝ') ) ;
#341 = EDGE_LOOP ( 'NONE', ( #296, #112, #168, #258 ) ) ;
#342 = DIRECTION ( 'NONE',  ( 0.000000000000000000, 0.000000000000000000, 1.000000000000000000 ) ) ;
#343 = CIRCLE ( 'NONE', #212, 0.7000000000000000666 ) ;
#344 = ORIENTED_EDGE ( 'NONE', *, *, #103, .T. ) ;
#345 = COORDINATED_UNIVERSAL_TIME_OFFSET ( 1, 0, .AHEAD. ) ;
#346 = AXIS2_PLACEMENT_3D ( 'NONE', #145, #96, #54 ) ;
#347 = ADVANCED_FACE ( 'NONE', ( #167, #141 ), #165, .T. ) ;
#348 = CALENDAR_DATE ( 2022, 10, 7 ) ;
#349 = ORIENTED_EDGE ( 'NONE', *, *, #90, .F. ) ;
#350 = EDGE_CURVE ( 'NONE', #325, #314, #48, .T. ) ;
#351 = AXIS2_PLACEMENT_3D ( 'NONE', #214, #246, #279 ) ;
#352 = COORDINATED_UNIVERSAL_TIME_OFFSET ( 1, 0, .AHEAD. ) ;
#353 = LINE ( 'NONE', #301, #231 ) ;
#354 = EDGE_CURVE ( 'NONE', #6, #42, #281, .T. ) ;
#355 = CARTESIAN_POINT ( 'NONE',  ( -10.00000000000000000, 0.000000000000000000, 7.000000000000000000 ) ) ;
#356 = DIRECTION ( 'NONE',  ( -0.000000000000000000, -0.000000000000000000, -1.000000000000000000 ) ) ;
#357 = AXIS2_PLACEMENT_3D ( 'NONE', #24, #84, #218 ) ;
#358 = VECTOR ( 'NONE', #222, 1000.000000000000000 ) ;
#359 = CARTESIAN_POINT ( 'NONE',  ( 0.000000000000000000, 0.000000000000000000, 0.000000000000000000 ) ) ;
#360 = CARTESIAN_POINT ( 'NONE',  ( 0.000000000000000000, 0.000000000000000000, 132.0000000000000000 ) ) ;
#361 = CIRCLE ( 'NONE', #216, 6.000000000000000888 ) ;
#362 = DIRECTION ( 'NONE',  ( -1.000000000000000000, 0.000000000000000000, 0.000000000000000000 ) ) ;
#363 = AXIS2_PLACEMENT_3D ( 'NONE', #161, #278, #39 ) ;
#364 = CC_DESIGN_SECURITY_CLASSIFICATION ( #251, ( #44 ) ) ;
#365 = DIRECTION ( 'NONE',  ( -0.000000000000000000, -0.000000000000000000, -1.000000000000000000 ) ) ;
#366 = ORIENTED_EDGE ( 'NONE', *, *, #114, .F. ) ;
#367 = CARTESIAN_POINT ( 'NONE',  ( 0.000000000000000000, 0.000000000000000000, 7.699999999999998401 ) ) ;
#368 = DIRECTION ( 'NONE',  ( 0.000000000000000000, 0.000000000000000000, -1.000000000000000000 ) ) ;
#369 = ORIENTED_EDGE ( 'NONE', *, *, #52, .T. ) ;
#370 = VECTOR ( 'NONE', #339, 1000.000000000000000 ) ;
#371 = CARTESIAN_POINT ( 'NONE',  ( 6.000000000000000888, 7.347880794884120722E-16, 7.699999999999998401 ) ) ;
#372 = EDGE_LOOP ( 'NONE', ( #172, #121, #220, #229 ) ) ;
#373 =( NAMED_UNIT ( * ) PLANE_ANGLE_UNIT ( ) SI_UNIT ( $, .RADIAN. ) );
#374 = EDGE_LOOP ( 'NONE', ( #289, #369 ) ) ;
#375 = CARTESIAN_POINT ( 'NONE',  ( -6.700000000000001066, 8.205133554287267548E-16, 6.999999999999999112 ) ) ;
#376 = AXIS2_PLACEMENT_3D ( 'NONE', #100, #305, #16 ) ;
#377 = EDGE_CURVE ( 'NONE', #314, #250, #186, .T. ) ;
#378 = PERSON_AND_ORGANIZATION_ROLE ( 'creator' ) ;
#379 = ORIENTED_EDGE ( 'NONE', *, *, #36, .T. ) ;
#380 = CARTESIAN_POINT ( 'NONE',  ( -10.00000000000000000, 0.000000000000000000, 0.000000000000000000 ) ) ;
#381 = CC_DESIGN_DATE_AND_TIME_ASSIGNMENT ( #147, #178, ( #251 ) ) ;
ENDSEC;
END-ISO-10303-21;
