ISO-10303-21;
HEADER;
FILE_DESCRIPTION (( 'STEP AP203' ),
    '1' );
FILE_NAME ('a0f1.STEP',
    '2022-07-10T09:02:15',
    ( '' ),
    ( '' ),
    'SwSTEP 2.0',
    'SolidWorks 2019',
    '' );
FILE_SCHEMA (( 'CONFIG_CONTROL_DESIGN' ));
ENDSEC;

DATA;
#1 = DIRECTION ( 'NONE',  ( 0.000000000000000000, 0.000000000000000000, -1.000000000000000000 ) ) ;
#2 = DIRECTION ( 'NONE',  ( -1.000000000000000000, 1.224646799147353454E-16, 0.000000000000000000 ) ) ;
#3 = EDGE_LOOP ( 'NONE', ( #355, #229, #223, #59 ) ) ;
#4 = FACE_OUTER_BOUND ( 'NONE', #167, .T. ) ;
#5 = EDGE_LOOP ( 'NONE', ( #190, #18 ) ) ;
#6 = PERSON_AND_ORGANIZATION ( #308, #152 ) ;
#7 = CARTESIAN_POINT ( 'NONE',  ( -10.00000000000000000, 0.000000000000000000, 7.000000000000000000 ) ) ;
#8 = ORIENTED_EDGE ( 'NONE', *, *, #113, .T. ) ;
#9 = DIRECTION ( 'NONE',  ( -0.000000000000000000, -0.000000000000000000, -1.000000000000000000 ) ) ;
#10 = VERTEX_POINT ( 'NONE', #82 ) ;
#11 = CARTESIAN_POINT ( 'NONE',  ( 10.00000000000000000, 1.224646799147353256E-15, 7.000000000000000000 ) ) ;
#12 = ADVANCED_FACE ( 'NONE', ( #250 ), #20, .T. ) ;
#13 = DIRECTION ( 'NONE',  ( 1.000000000000000000, 0.000000000000000000, 0.000000000000000000 ) ) ;
#14 = CC_DESIGN_SECURITY_CLASSIFICATION ( #209, ( #326 ) ) ;
#15 = DIRECTION ( 'NONE',  ( -0.000000000000000000, -0.000000000000000000, -1.000000000000000000 ) ) ;
#16 = CIRCLE ( 'NONE', #62, 6.000000000000000888 ) ;
#17 = CARTESIAN_POINT ( 'NONE',  ( 0.000000000000000000, 0.000000000000000000, 167.0000000000000000 ) ) ;
#18 = ORIENTED_EDGE ( 'NONE', *, *, #69, .F. ) ;
#19 = COORDINATED_UNIVERSAL_TIME_OFFSET ( 1, 0, .AHEAD. ) ;
#20 = CYLINDRICAL_SURFACE ( 'NONE', #202, 10.00000000000000000 ) ;
#21 = EDGE_CURVE ( 'NONE', #163, #141, #36, .T. ) ;
#22 = PERSON_AND_ORGANIZATION_ROLE ( 'design_supplier' ) ;
#23 = DIRECTION ( 'NONE',  ( -1.000000000000000000, 0.000000000000000000, 0.000000000000000000 ) ) ;
#24 = CC_DESIGN_PERSON_AND_ORGANIZATION_ASSIGNMENT ( #346, #22, ( #326 ) ) ;
#25 = DIRECTION ( 'NONE',  ( 1.000000000000000000, 0.000000000000000000, 0.000000000000000000 ) ) ;
#26 = CARTESIAN_POINT ( 'NONE',  ( 6.700000000000001066, 0.000000000000000000, 7.000000000000006217 ) ) ;
#27 = PERSON_AND_ORGANIZATION ( #308, #152 ) ;
#28 = CARTESIAN_POINT ( 'NONE',  ( -4.099999999999999645, 0.000000000000000000, 0.000000000000000000 ) ) ;
#29 = APPROVAL ( #173, 'NEURÈENÝ' ) ;
#30 = AXIS2_PLACEMENT_3D ( 'NONE', #174, #314, #282 ) ;
#31 = CARTESIAN_POINT ( 'NONE',  ( -6.700000000000001066, 8.205133554287267548E-16, 7.700000000000012612 ) ) ;
#32 = ORIENTED_EDGE ( 'NONE', *, *, #224, .F. ) ;
#33 = DIRECTION ( 'NONE',  ( 0.000000000000000000, 0.000000000000000000, -1.000000000000000000 ) ) ;
#34 = ORIENTED_EDGE ( 'NONE', *, *, #245, .T. ) ;
#35 = CARTESIAN_POINT ( 'NONE',  ( 6.000000000000000888, 7.347880794884120722E-16, 167.0000000000000000 ) ) ;
#36 = CIRCLE ( 'NONE', #30, 10.00000000000000000 ) ;
#37 = CARTESIAN_POINT ( 'NONE',  ( 6.000000000000000888, 7.347880794884120722E-16, 7.700000000000012612 ) ) ;
#38 = ADVANCED_FACE ( 'NONE', ( #350 ), #56, .T. ) ;
#39 = LINE ( 'NONE', #7, #372 ) ;
#40 = VERTEX_POINT ( 'NONE', #28 ) ;
#41 = LOCAL_TIME ( 11, 2, 15.00000000000000000, #313 ) ;
#42 = CC_DESIGN_APPROVAL ( #29, ( #101 ) ) ;
#43 = DIRECTION ( 'NONE',  ( -0.000000000000000000, -0.000000000000000000, -1.000000000000000000 ) ) ;
#44 = ADVANCED_FACE ( 'NONE', ( #52 ), #341, .F. ) ;
#45 = CARTESIAN_POINT ( 'NONE',  ( 0.000000000000000000, 0.000000000000000000, 7.700000000000012612 ) ) ;
#46 = TOROIDAL_SURFACE ( 'NONE', #181, 6.700000000000001066, 0.6999999999999999556 ) ;
#47 = CARTESIAN_POINT ( 'NONE',  ( 10.00000000000000000, 1.224646799147353256E-15, 7.000000000000000000 ) ) ;
#48 = VECTOR ( 'NONE', #33, 1000.000000000000000 ) ;
#49 = ORIENTED_EDGE ( 'NONE', *, *, #360, .F. ) ;
#50 = CALENDAR_DATE ( 2022, 10, 7 ) ;
#51 = APPLICATION_PROTOCOL_DEFINITION ( 'international standard', 'config_control_design', 1994, #287 ) ;
#52 = FACE_OUTER_BOUND ( 'NONE', #180, .T. ) ;
#53 = AXIS2_PLACEMENT_3D ( 'NONE', #376, #235, #25 ) ;
#54 = CARTESIAN_POINT ( 'NONE',  ( 0.000000000000000000, 0.000000000000000000, 167.0000000000000000 ) ) ;
#55 = DATE_AND_TIME ( #83, #41 ) ;
#56 = CYLINDRICAL_SURFACE ( 'NONE', #268, 10.00000000000000000 ) ;
#57 = ORIENTED_EDGE ( 'NONE', *, *, #187, .T. ) ;
#58 = DIRECTION ( 'NONE',  ( 1.000000000000000000, 0.000000000000000000, 0.000000000000000000 ) ) ;
#59 = ORIENTED_EDGE ( 'NONE', *, *, #158, .F. ) ;
#60 = CARTESIAN_POINT ( 'NONE',  ( -10.00000000000000000, 0.000000000000000000, 0.000000000000000000 ) ) ;
#61 = AXIS2_PLACEMENT_3D ( 'NONE', #159, #66, #241 ) ;
#62 = AXIS2_PLACEMENT_3D ( 'NONE', #54, #143, #115 ) ;
#63 = CARTESIAN_POINT ( 'NONE',  ( -10.00000000000000000, 0.000000000000000000, 7.000000000000000000 ) ) ;
#64 = EDGE_CURVE ( 'NONE', #258, #10, #16, .T. ) ;
#65 = ORIENTED_EDGE ( 'NONE', *, *, #360, .T. ) ;
#66 = DIRECTION ( 'NONE',  ( 0.000000000000000000, 0.000000000000000000, 1.000000000000000000 ) ) ;
#67 = APPROVAL_STATUS ( 'not_yet_approved' ) ;
#68 = CARTESIAN_POINT ( 'NONE',  ( 10.00000000000000000, 1.224646799147353256E-15, 0.000000000000000000 ) ) ;
#69 = EDGE_CURVE ( 'NONE', #351, #270, #305, .T. ) ;
#70 = ORIENTED_EDGE ( 'NONE', *, *, #107, .T. ) ;
#71 = AXIS2_PLACEMENT_3D ( 'NONE', #129, #295, #244 ) ;
#72 = ORIENTED_EDGE ( 'NONE', *, *, #242, .T. ) ;
#73 = DIRECTION ( 'NONE',  ( 0.000000000000000000, 0.000000000000000000, 1.000000000000000000 ) ) ;
#74 = EDGE_LOOP ( 'NONE', ( #212, #249 ) ) ;
#75 = ADVANCED_FACE ( 'NONE', ( #252 ), #280, .T. ) ;
#76 = CIRCLE ( 'NONE', #145, 6.700000000000001066 ) ;
#77 = DIRECTION ( 'NONE',  ( 1.000000000000000000, 0.000000000000000000, 0.000000000000000000 ) ) ;
#78 = CIRCLE ( 'NONE', #231, 10.00000000000000000 ) ;
#79 = APPROVAL_PERSON_ORGANIZATION ( #6, #144, #218 ) ;
#80 = PERSON_AND_ORGANIZATION_ROLE ( 'design_owner' ) ;
#81 = AXIS2_PLACEMENT_3D ( 'NONE', #150, #147, #257 ) ;
#82 = CARTESIAN_POINT ( 'NONE',  ( 6.000000000000000888, 7.347880794884120722E-16, 167.0000000000000000 ) ) ;
#83 = CALENDAR_DATE ( 2022, 10, 7 ) ;
#84 = LINE ( 'NONE', #207, #336 ) ;
#85 = DIRECTION ( 'NONE',  ( 0.000000000000000000, 0.000000000000000000, 1.000000000000000000 ) ) ;
#86 = CARTESIAN_POINT ( 'NONE',  ( 0.000000000000000000, 0.000000000000000000, 167.0000000000000000 ) ) ;
#87 = EDGE_CURVE ( 'NONE', #270, #40, #84, .T. ) ;
#88 = APPLICATION_PROTOCOL_DEFINITION ( 'international standard', 'config_control_design', 1994, #139 ) ;
#89 = DIRECTION ( 'NONE',  ( 0.000000000000000000, 0.000000000000000000, 1.000000000000000000 ) ) ;
#90 = ORIENTED_EDGE ( 'NONE', *, *, #170, .T. ) ;
#91 = DIRECTION ( 'NONE',  ( 0.000000000000000000, 0.000000000000000000, 1.000000000000000000 ) ) ;
#92 = AXIS2_PLACEMENT_3D ( 'NONE', #363, #15, #77 ) ;
#93 = ADVANCED_FACE ( 'NONE', ( #119, #343 ), #117, .T. ) ;
#94 = DATE_TIME_ROLE ( 'classification_date' ) ;
#95 = FACE_OUTER_BOUND ( 'NONE', #230, .T. ) ;
#96 = PRODUCT_RELATED_PRODUCT_CATEGORY ( 'detail', '', ( #193 ) ) ;
#97 = SHAPE_DEFINITION_REPRESENTATION ( #222, #285 ) ;
#98 = EDGE_CURVE ( 'NONE', #141, #163, #78, .T. ) ;
#99 = LINE ( 'NONE', #11, #339 ) ;
#100 = CIRCLE ( 'NONE', #327, 6.000000000000000888 ) ;
#101 = PRODUCT_DEFINITION ( 'NEZNÁMÝ', '', #326, #134 ) ;
#102 = AXIS2_PLACEMENT_3D ( 'NONE', #328, #91, #354 ) ;
#103 = ADVANCED_FACE ( 'NONE', ( #236, #211 ), #347, .F. ) ;
#104 = VERTEX_POINT ( 'NONE', #26 ) ;
#105 = UNCERTAINTY_MEASURE_WITH_UNIT (LENGTH_MEASURE( 1.000000000000000082E-05 ), #300, 'distance_accuracy_value', 'NONE');
#106 = CARTESIAN_POINT ( 'NONE',  ( 0.000000000000000000, 0.000000000000000000, 167.0000000000000000 ) ) ;
#107 = EDGE_CURVE ( 'NONE', #270, #351, #233, .T. ) ;
#108 = CARTESIAN_POINT ( 'NONE',  ( 0.000000000000000000, 0.000000000000000000, 7.000000000000000000 ) ) ;
#109 = ORIENTED_EDGE ( 'NONE', *, *, #290, .F. ) ;
#110 = EDGE_LOOP ( 'NONE', ( #276, #315, #299, #65 ) ) ;
#111 = CC_DESIGN_APPROVAL ( #330, ( #326 ) ) ;
#112 = AXIS2_PLACEMENT_3D ( 'NONE', #374, #178, #176 ) ;
#113 = EDGE_CURVE ( 'NONE', #10, #258, #189, .T. ) ;
#114 = APPROVAL_STATUS ( 'not_yet_approved' ) ;
#115 = DIRECTION ( 'NONE',  ( 1.000000000000000000, 0.000000000000000000, 0.000000000000000000 ) ) ;
#116 = APPROVAL_DATE_TIME ( #142, #330 ) ;
#117 = PLANE ( 'NONE',  #132 ) ;
#118 = TOROIDAL_SURFACE ( 'NONE', #269, 6.700000000000001066, 0.6999999999999999556 ) ;
#119 = FACE_BOUND ( 'NONE', #5, .T. ) ;
#120 = AXIS2_PLACEMENT_3D ( 'NONE', #31, #164, #2 ) ;
#121 = CARTESIAN_POINT ( 'NONE',  ( 0.000000000000000000, 0.000000000000000000, 167.0000000000000000 ) ) ;
#122 = EDGE_CURVE ( 'NONE', #294, #186, #319, .T. ) ;
#123 = COORDINATED_UNIVERSAL_TIME_OFFSET ( 1, 0, .AHEAD. ) ;
#124 = LINE ( 'NONE', #353, #48 ) ;
#125 = VERTEX_POINT ( 'NONE', #37 ) ;
#126 = EDGE_LOOP ( 'NONE', ( #323, #8 ) ) ;
#127 = ADVANCED_FACE ( 'NONE', ( #320, #324 ), #357, .T. ) ;
#128 = PERSON_AND_ORGANIZATION ( #308, #152 ) ;
#129 = CARTESIAN_POINT ( 'NONE',  ( 0.000000000000000000, 0.000000000000000000, 7.700000000000012612 ) ) ;
#130 = EDGE_CURVE ( 'NONE', #294, #163, #99, .T. ) ;
#131 = VECTOR ( 'NONE', #361, 1000.000000000000000 ) ;
#132 = AXIS2_PLACEMENT_3D ( 'NONE', #213, #89, #310 ) ;
#133 = DIRECTION ( 'NONE',  ( 1.000000000000000000, 0.000000000000000000, 0.000000000000000000 ) ) ;
#134 = DESIGN_CONTEXT ( 'detailed design', #139, 'design' ) ;
#135 = CYLINDRICAL_SURFACE ( 'NONE', #364, 6.000000000000000888 ) ;
#136 = CYLINDRICAL_SURFACE ( 'NONE', #380, 4.099999999999999645 ) ;
#137 = AXIS2_PLACEMENT_3D ( 'NONE', #379, #284, #278 ) ;
#138 = CARTESIAN_POINT ( 'NONE',  ( 0.000000000000000000, 0.000000000000000000, 7.000000000000000000 ) ) ;
#139 = APPLICATION_CONTEXT ( 'configuration controlled 3d designs of mechanical parts and assemblies' ) ;
#140 = DIRECTION ( 'NONE',  ( 1.000000000000000000, 0.000000000000000000, 0.000000000000000000 ) ) ;
#141 = VERTEX_POINT ( 'NONE', #60 ) ;
#142 = DATE_AND_TIME ( #342, #171 ) ;
#143 = DIRECTION ( 'NONE',  ( 0.000000000000000000, 0.000000000000000000, 1.000000000000000000 ) ) ;
#144 = APPROVAL ( #67, 'NEURÈENÝ' ) ;
#145 = AXIS2_PLACEMENT_3D ( 'NONE', #248, #228, #195 ) ;
#146 = SECURITY_CLASSIFICATION_LEVEL ( 'unclassified' ) ;
#147 = DIRECTION ( 'NONE',  ( -0.000000000000000000, -0.000000000000000000, -1.000000000000000000 ) ) ;
#148 = APPROVAL_ROLE ( '' ) ;
#149 = DIRECTION ( 'NONE',  ( -0.000000000000000000, -0.000000000000000000, -1.000000000000000000 ) ) ;
#150 = CARTESIAN_POINT ( 'NONE',  ( 0.000000000000000000, 0.000000000000000000, 167.0000000000000000 ) ) ;
#151 = CIRCLE ( 'NONE', #120, 0.7000000000000000666 ) ;
#152 = ORGANIZATION ( 'NEURÈENÝ', 'NEURÈENÝ', '' ) ;
#153 = DIRECTION ( 'NONE',  ( -1.000000000000000000, 0.000000000000000000, 0.000000000000000000 ) ) ;
#154 = ORIENTED_EDGE ( 'NONE', *, *, #158, .T. ) ;
#155 = COORDINATED_UNIVERSAL_TIME_OFFSET ( 1, 0, .AHEAD. ) ;
#156 = DIRECTION ( 'NONE',  ( 0.000000000000000000, 0.000000000000000000, 1.000000000000000000 ) ) ;
#157 = ORIENTED_EDGE ( 'NONE', *, *, #242, .F. ) ;
#158 = EDGE_CURVE ( 'NONE', #186, #141, #39, .T. ) ;
#159 = CARTESIAN_POINT ( 'NONE',  ( 0.000000000000000000, 0.000000000000000000, 7.000000000000000000 ) ) ;
#160 = CC_DESIGN_APPROVAL ( #144, ( #209 ) ) ;
#161 = ORIENTED_EDGE ( 'NONE', *, *, #170, .F. ) ;
#162 = EDGE_CURVE ( 'NONE', #358, #125, #217, .T. ) ;
#163 = VERTEX_POINT ( 'NONE', #68 ) ;
#164 = DIRECTION ( 'NONE',  ( 1.224646799147353207E-16, 1.000000000000000000, -0.000000000000000000 ) ) ;
#165 = CARTESIAN_POINT ( 'NONE',  ( -6.000000000000000888, 0.000000000000000000, 7.700000000000012612 ) ) ;
#166 = CIRCLE ( 'NONE', #254, 6.700000000000001066 ) ;
#167 = EDGE_LOOP ( 'NONE', ( #157, #32, #345, #214 ) ) ;
#168 = CARTESIAN_POINT ( 'NONE',  ( 4.099999999999999645, 5.021051876504146399E-16, 167.0000000000000000 ) ) ;
#169 = DIRECTION ( 'NONE',  ( -0.000000000000000000, -0.000000000000000000, -1.000000000000000000 ) ) ;
#170 = EDGE_CURVE ( 'NONE', #10, #125, #318, .T. ) ;
#171 = LOCAL_TIME ( 11, 2, 15.00000000000000000, #19 ) ;
#172 = DIRECTION ( 'NONE',  ( -0.000000000000000000, -0.000000000000000000, -1.000000000000000000 ) ) ;
#173 = APPROVAL_STATUS ( 'not_yet_approved' ) ;
#174 = CARTESIAN_POINT ( 'NONE',  ( 0.000000000000000000, 0.000000000000000000, 0.000000000000000000 ) ) ;
#175 = APPROVAL_ROLE ( '' ) ;
#176 = DIRECTION ( 'NONE',  ( -1.000000000000000000, 0.000000000000000000, 0.000000000000000000 ) ) ;
#177 = MECHANICAL_CONTEXT ( 'NONE', #287, 'mechanical' ) ;
#178 = DIRECTION ( 'NONE',  ( 0.000000000000000000, 0.000000000000000000, -1.000000000000000000 ) ) ;
#179 =( NAMED_UNIT ( * ) SI_UNIT ( $, .STERADIAN. ) SOLID_ANGLE_UNIT ( ) );
#180 = EDGE_LOOP ( 'NONE', ( #70, #34, #260, #219 ) ) ;
#181 = AXIS2_PLACEMENT_3D ( 'NONE', #191, #185, #293 ) ;
#182 = LINE ( 'NONE', #188, #131 ) ;
#183 = EDGE_LOOP ( 'NONE', ( #369, #194 ) ) ;
#184 = CALENDAR_DATE ( 2022, 10, 7 ) ;
#185 = DIRECTION ( 'NONE',  ( 0.000000000000000000, 0.000000000000000000, 1.000000000000000000 ) ) ;
#186 = VERTEX_POINT ( 'NONE', #63 ) ;
#187 = EDGE_CURVE ( 'NONE', #258, #358, #182, .T. ) ;
#188 = CARTESIAN_POINT ( 'NONE',  ( -6.000000000000000888, 0.000000000000000000, 167.0000000000000000 ) ) ;
#189 = CIRCLE ( 'NONE', #238, 6.000000000000000888 ) ;
#190 = ORIENTED_EDGE ( 'NONE', *, *, #107, .F. ) ;
#191 = CARTESIAN_POINT ( 'NONE',  ( 0.000000000000000000, 0.000000000000000000, 7.700000000000012612 ) ) ;
#192 = EDGE_LOOP ( 'NONE', ( #49, #266 ) ) ;
#193 = PRODUCT ( 'a0f1', 'a0f1', '', ( #177 ) ) ;
#194 = ORIENTED_EDGE ( 'NONE', *, *, #122, .T. ) ;
#195 = DIRECTION ( 'NONE',  ( 1.000000000000000000, 0.000000000000000000, 0.000000000000000000 ) ) ;
#196 = LOCAL_TIME ( 11, 2, 15.00000000000000000, #155 ) ;
#197 = CARTESIAN_POINT ( 'NONE',  ( 0.000000000000000000, 0.000000000000000000, 0.000000000000000000 ) ) ;
#198 = DIRECTION ( 'NONE',  ( 0.000000000000000000, -1.000000000000000000, 0.000000000000000000 ) ) ;
#199 = DIRECTION ( 'NONE',  ( 0.000000000000000000, 0.000000000000000000, -1.000000000000000000 ) ) ;
#200 = ORIENTED_EDGE ( 'NONE', *, *, #377, .F. ) ;
#201 = CIRCLE ( 'NONE', #263, 10.00000000000000000 ) ;
#202 = AXIS2_PLACEMENT_3D ( 'NONE', #286, #149, #23 ) ;
#203 = PERSON_AND_ORGANIZATION ( #308, #152 ) ;
#204 = ORIENTED_EDGE ( 'NONE', *, *, #224, .T. ) ;
#205 = ADVANCED_FACE ( 'NONE', ( #95 ), #46, .F. ) ;
#206 = COORDINATED_UNIVERSAL_TIME_OFFSET ( 1, 0, .AHEAD. ) ;
#207 = CARTESIAN_POINT ( 'NONE',  ( -4.099999999999999645, 0.000000000000000000, 167.0000000000000000 ) ) ;
#208 = CARTESIAN_POINT ( 'NONE',  ( 0.000000000000000000, 0.000000000000000000, 0.000000000000000000 ) ) ;
#209 = SECURITY_CLASSIFICATION ( '', '', #146 ) ;
#210 = ORIENTED_EDGE ( 'NONE', *, *, #367, .F. ) ;
#211 = FACE_OUTER_BOUND ( 'NONE', #331, .T. ) ;
#212 = ORIENTED_EDGE ( 'NONE', *, *, #290, .T. ) ;
#213 = CARTESIAN_POINT ( 'NONE',  ( 0.000000000000000000, 0.000000000000000000, 167.0000000000000000 ) ) ;
#214 = ORIENTED_EDGE ( 'NONE', *, *, #298, .F. ) ;
#215 = CLOSED_SHELL ( 'NONE', ( #44, #205, #75, #38, #12, #127, #103, #370, #93, #265, #378 ) ) ;
#216 = CC_DESIGN_DATE_AND_TIME_ASSIGNMENT ( #352, #94, ( #209 ) ) ;
#217 = CIRCLE ( 'NONE', #71, 6.000000000000000888 ) ;
#218 = APPROVAL_ROLE ( '' ) ;
#219 = ORIENTED_EDGE ( 'NONE', *, *, #87, .F. ) ;
#220 = ORIENTED_EDGE ( 'NONE', *, *, #162, .T. ) ;
#221 = CARTESIAN_POINT ( 'NONE',  ( 0.000000000000000000, 0.000000000000000000, 7.700000000000012612 ) ) ;
#222 = PRODUCT_DEFINITION_SHAPE ( 'NONE', 'NONE',  #101 ) ;
#223 = ORIENTED_EDGE ( 'NONE', *, *, #21, .T. ) ;
#224 = EDGE_CURVE ( 'NONE', #125, #358, #100, .T. ) ;
#225 = VERTEX_POINT ( 'NONE', #322 ) ;
#226 = DIRECTION ( 'NONE',  ( -1.000000000000000000, 0.000000000000000000, 0.000000000000000000 ) ) ;
#227 = APPROVAL_PERSON_ORGANIZATION ( #279, #29, #175 ) ;
#228 = DIRECTION ( 'NONE',  ( -0.000000000000000000, -0.000000000000000000, -1.000000000000000000 ) ) ;
#229 = ORIENTED_EDGE ( 'NONE', *, *, #130, .T. ) ;
#230 = EDGE_LOOP ( 'NONE', ( #335, #72, #109, #210 ) ) ;
#231 = AXIS2_PLACEMENT_3D ( 'NONE', #255, #85, #239 ) ;
#232 = APPROVAL_PERSON_ORGANIZATION ( #237, #330, #148 ) ;
#233 = CIRCLE ( 'NONE', #288, 4.099999999999999645 ) ;
#234 = DIRECTION ( 'NONE',  ( -0.000000000000000000, -0.000000000000000000, -1.000000000000000000 ) ) ;
#235 = DIRECTION ( 'NONE',  ( 0.000000000000000000, 0.000000000000000000, 1.000000000000000000 ) ) ;
#236 = FACE_BOUND ( 'NONE', #192, .T. ) ;
#237 = PERSON_AND_ORGANIZATION ( #308, #152 ) ;
#238 = AXIS2_PLACEMENT_3D ( 'NONE', #121, #156, #264 ) ;
#239 = DIRECTION ( 'NONE',  ( 1.000000000000000000, 0.000000000000000000, 0.000000000000000000 ) ) ;
#240 = DATE_AND_TIME ( #184, #196 ) ;
#241 = DIRECTION ( 'NONE',  ( 1.000000000000000000, 0.000000000000000000, 0.000000000000000000 ) ) ;
#242 = EDGE_CURVE ( 'NONE', #358, #225, #151, .T. ) ;
#243 = MANIFOLD_SOLID_BREP ( 'Odebrat vysunutím3', #215 ) ;
#244 = DIRECTION ( 'NONE',  ( 1.000000000000000000, 0.000000000000000000, 0.000000000000000000 ) ) ;
#245 = EDGE_CURVE ( 'NONE', #351, #307, #124, .T. ) ;
#246 = DIRECTION ( 'NONE',  ( -0.000000000000000000, -0.000000000000000000, -1.000000000000000000 ) ) ;
#247 = CIRCLE ( 'NONE', #253, 4.099999999999999645 ) ;
#248 = CARTESIAN_POINT ( 'NONE',  ( 0.000000000000000000, 0.000000000000000000, 7.000000000000000000 ) ) ;
#249 = ORIENTED_EDGE ( 'NONE', *, *, #298, .T. ) ;
#250 = FACE_OUTER_BOUND ( 'NONE', #325, .T. ) ;
#251 = PERSON_AND_ORGANIZATION ( #308, #152 ) ;
#252 = FACE_OUTER_BOUND ( 'NONE', #329, .T. ) ;
#253 = AXIS2_PLACEMENT_3D ( 'NONE', #197, #169, #140 ) ;
#254 = AXIS2_PLACEMENT_3D ( 'NONE', #138, #43, #272 ) ;
#255 = CARTESIAN_POINT ( 'NONE',  ( 0.000000000000000000, 0.000000000000000000, 0.000000000000000000 ) ) ;
#256 = DATE_TIME_ROLE ( 'creation_date' ) ;
#257 = DIRECTION ( 'NONE',  ( -1.000000000000000000, 0.000000000000000000, 0.000000000000000000 ) ) ;
#258 = VERTEX_POINT ( 'NONE', #262 ) ;
#259 = CC_DESIGN_PERSON_AND_ORGANIZATION_ASSIGNMENT ( #128, #356, ( #209 ) ) ;
#260 = ORIENTED_EDGE ( 'NONE', *, *, #271, .T. ) ;
#261 = DIRECTION ( 'NONE',  ( -0.000000000000000000, -0.000000000000000000, -1.000000000000000000 ) ) ;
#262 = CARTESIAN_POINT ( 'NONE',  ( -6.000000000000000888, 0.000000000000000000, 167.0000000000000000 ) ) ;
#263 = AXIS2_PLACEMENT_3D ( 'NONE', #108, #73, #13 ) ;
#264 = DIRECTION ( 'NONE',  ( 1.000000000000000000, 0.000000000000000000, 0.000000000000000000 ) ) ;
#265 = ADVANCED_FACE ( 'NONE', ( #4 ), #118, .F. ) ;
#266 = ORIENTED_EDGE ( 'NONE', *, *, #271, .F. ) ;
#267 = ORIENTED_EDGE ( 'NONE', *, *, #98, .F. ) ;
#268 = AXIS2_PLACEMENT_3D ( 'NONE', #375, #234, #153 ) ;
#269 = AXIS2_PLACEMENT_3D ( 'NONE', #45, #334, #133 ) ;
#270 = VERTEX_POINT ( 'NONE', #332 ) ;
#271 = EDGE_CURVE ( 'NONE', #307, #40, #247, .T. ) ;
#272 = DIRECTION ( 'NONE',  ( 1.000000000000000000, 0.000000000000000000, 0.000000000000000000 ) ) ;
#273 = CARTESIAN_POINT ( 'NONE',  ( 4.099999999999999645, 5.021051876504146399E-16, 0.000000000000000000 ) ) ;
#274 = VECTOR ( 'NONE', #246, 1000.000000000000000 ) ;
#275 = FACE_OUTER_BOUND ( 'NONE', #110, .T. ) ;
#276 = ORIENTED_EDGE ( 'NONE', *, *, #245, .F. ) ;
#277 = CC_DESIGN_DATE_AND_TIME_ASSIGNMENT ( #283, #256, ( #101 ) ) ;
#278 = DIRECTION ( 'NONE',  ( 1.000000000000000000, 0.000000000000000000, 0.000000000000000000 ) ) ;
#279 = PERSON_AND_ORGANIZATION ( #308, #152 ) ;
#280 = CYLINDRICAL_SURFACE ( 'NONE', #81, 6.000000000000000888 ) ;
#281 = CIRCLE ( 'NONE', #92, 4.099999999999999645 ) ;
#282 = DIRECTION ( 'NONE',  ( 1.000000000000000000, 0.000000000000000000, 0.000000000000000000 ) ) ;
#283 = DATE_AND_TIME ( #50, #337 ) ;
#284 = DIRECTION ( 'NONE',  ( 0.000000000000000000, 0.000000000000000000, 1.000000000000000000 ) ) ;
#285 = ADVANCED_BREP_SHAPE_REPRESENTATION ( 'a0f1', ( #243, #53 ), #303 ) ;
#286 = CARTESIAN_POINT ( 'NONE',  ( 0.000000000000000000, 0.000000000000000000, 7.000000000000000000 ) ) ;
#287 = APPLICATION_CONTEXT ( 'configuration controlled 3d designs of mechanical parts and assemblies' ) ;
#288 = AXIS2_PLACEMENT_3D ( 'NONE', #86, #316, #58 ) ;
#289 = AXIS2_PLACEMENT_3D ( 'NONE', #208, #312, #344 ) ;
#290 = EDGE_CURVE ( 'NONE', #104, #225, #166, .T. ) ;
#291 = DIRECTION ( 'NONE',  ( 1.000000000000000000, 0.000000000000000000, 0.000000000000000000 ) ) ;
#292 = EDGE_LOOP ( 'NONE', ( #161, #338, #57, #220 ) ) ;
#293 = DIRECTION ( 'NONE',  ( 1.000000000000000000, 0.000000000000000000, 0.000000000000000000 ) ) ;
#294 = VERTEX_POINT ( 'NONE', #47 ) ;
#295 = DIRECTION ( 'NONE',  ( 0.000000000000000000, 0.000000000000000000, 1.000000000000000000 ) ) ;
#296 = ORIENTED_EDGE ( 'NONE', *, *, #98, .T. ) ;
#297 = DIRECTION ( 'NONE',  ( 0.000000000000000000, 0.000000000000000000, 1.000000000000000000 ) ) ;
#298 = EDGE_CURVE ( 'NONE', #225, #104, #76, .T. ) ;
#299 = ORIENTED_EDGE ( 'NONE', *, *, #87, .T. ) ;
#300 =( LENGTH_UNIT ( ) NAMED_UNIT ( * ) SI_UNIT ( .MILLI., .METRE. ) );
#301 = DIRECTION ( 'NONE',  ( -1.000000000000000000, 0.000000000000000000, 0.000000000000000000 ) ) ;
#302 = FACE_OUTER_BOUND ( 'NONE', #292, .T. ) ;
#303 =( GEOMETRIC_REPRESENTATION_CONTEXT ( 3 ) GLOBAL_UNCERTAINTY_ASSIGNED_CONTEXT ( ( #105 ) ) GLOBAL_UNIT_ASSIGNED_CONTEXT ( ( #300, #365, #179 ) ) REPRESENTATION_CONTEXT ( 'NONE', 'WORKASPACE' ) );
#304 = ORIENTED_EDGE ( 'NONE', *, *, #130, .F. ) ;
#305 = CIRCLE ( 'NONE', #137, 4.099999999999999645 ) ;
#306 = CC_DESIGN_PERSON_AND_ORGANIZATION_ASSIGNMENT ( #27, #80, ( #193 ) ) ;
#307 = VERTEX_POINT ( 'NONE', #273 ) ;
#308 = PERSON ( 'NEURÈENÝ', 'NEURÈENÝ', 'NEURÈENÝ', ('NEURÈENÝ'), ('NEURÈENÝ'), ('NEURÈENÝ') ) ;
#309 = PERSON_AND_ORGANIZATION_ROLE ( 'creator' ) ;
#310 = DIRECTION ( 'NONE',  ( 1.000000000000000000, 0.000000000000000000, -0.000000000000000000 ) ) ;
#311 = APPROVAL_DATE_TIME ( #55, #29 ) ;
#312 = DIRECTION ( 'NONE',  ( 0.000000000000000000, 0.000000000000000000, 1.000000000000000000 ) ) ;
#313 = COORDINATED_UNIVERSAL_TIME_OFFSET ( 1, 0, .AHEAD. ) ;
#314 = DIRECTION ( 'NONE',  ( 0.000000000000000000, 0.000000000000000000, 1.000000000000000000 ) ) ;
#315 = ORIENTED_EDGE ( 'NONE', *, *, #69, .T. ) ;
#316 = DIRECTION ( 'NONE',  ( 0.000000000000000000, 0.000000000000000000, 1.000000000000000000 ) ) ;
#317 = ORIENTED_EDGE ( 'NONE', *, *, #187, .F. ) ;
#318 = LINE ( 'NONE', #35, #274 ) ;
#319 = CIRCLE ( 'NONE', #61, 10.00000000000000000 ) ;
#320 = FACE_BOUND ( 'NONE', #74, .T. ) ;
#321 = ORIENTED_EDGE ( 'NONE', *, *, #113, .F. ) ;
#322 = CARTESIAN_POINT ( 'NONE',  ( -6.700000000000001066, 8.205133554287267548E-16, 7.000000000000006217 ) ) ;
#323 = ORIENTED_EDGE ( 'NONE', *, *, #64, .T. ) ;
#324 = FACE_OUTER_BOUND ( 'NONE', #183, .T. ) ;
#325 = EDGE_LOOP ( 'NONE', ( #304, #200, #154, #296 ) ) ;
#326 = PRODUCT_DEFINITION_FORMATION_WITH_SPECIFIED_SOURCE ( 'LIBOVOLNÝ', '', #193, .NOT_KNOWN. ) ;
#327 = AXIS2_PLACEMENT_3D ( 'NONE', #221, #297, #291 ) ;
#328 = CARTESIAN_POINT ( 'NONE',  ( 0.000000000000000000, 0.000000000000000000, 7.000000000000000000 ) ) ;
#329 = EDGE_LOOP ( 'NONE', ( #321, #90, #204, #317 ) ) ;
#330 = APPROVAL ( #114, 'NEURÈENÝ' ) ;
#331 = EDGE_LOOP ( 'NONE', ( #267, #362 ) ) ;
#332 = CARTESIAN_POINT ( 'NONE',  ( -4.099999999999999645, 0.000000000000000000, 167.0000000000000000 ) ) ;
#333 = AXIS2_PLACEMENT_3D ( 'NONE', #366, #198, #199 ) ;
#334 = DIRECTION ( 'NONE',  ( 0.000000000000000000, 0.000000000000000000, 1.000000000000000000 ) ) ;
#335 = ORIENTED_EDGE ( 'NONE', *, *, #162, .F. ) ;
#336 = VECTOR ( 'NONE', #1, 1000.000000000000000 ) ;
#337 = LOCAL_TIME ( 11, 2, 15.00000000000000000, #206 ) ;
#338 = ORIENTED_EDGE ( 'NONE', *, *, #64, .F. ) ;
#339 = VECTOR ( 'NONE', #9, 1000.000000000000000 ) ;
#340 = CC_DESIGN_PERSON_AND_ORGANIZATION_ASSIGNMENT ( #251, #309, ( #326 ) ) ;
#341 = CYLINDRICAL_SURFACE ( 'NONE', #112, 4.099999999999999645 ) ;
#342 = CALENDAR_DATE ( 2022, 10, 7 ) ;
#343 = FACE_OUTER_BOUND ( 'NONE', #126, .T. ) ;
#344 = DIRECTION ( 'NONE',  ( 1.000000000000000000, 0.000000000000000000, -0.000000000000000000 ) ) ;
#345 = ORIENTED_EDGE ( 'NONE', *, *, #367, .T. ) ;
#346 = PERSON_AND_ORGANIZATION ( #308, #152 ) ;
#347 = PLANE ( 'NONE',  #289 ) ;
#348 = CC_DESIGN_PERSON_AND_ORGANIZATION_ASSIGNMENT ( #203, #373, ( #101 ) ) ;
#349 = APPROVAL_DATE_TIME ( #240, #144 ) ;
#350 = FACE_OUTER_BOUND ( 'NONE', #3, .T. ) ;
#351 = VERTEX_POINT ( 'NONE', #168 ) ;
#352 = DATE_AND_TIME ( #381, #359 ) ;
#353 = CARTESIAN_POINT ( 'NONE',  ( 4.099999999999999645, 5.021051876504146399E-16, 167.0000000000000000 ) ) ;
#354 = DIRECTION ( 'NONE',  ( 1.000000000000000000, 0.000000000000000000, -0.000000000000000000 ) ) ;
#355 = ORIENTED_EDGE ( 'NONE', *, *, #122, .F. ) ;
#356 = PERSON_AND_ORGANIZATION_ROLE ( 'classification_officer' ) ;
#357 = PLANE ( 'NONE',  #102 ) ;
#358 = VERTEX_POINT ( 'NONE', #165 ) ;
#359 = LOCAL_TIME ( 11, 2, 15.00000000000000000, #123 ) ;
#360 = EDGE_CURVE ( 'NONE', #40, #307, #281, .T. ) ;
#361 = DIRECTION ( 'NONE',  ( -0.000000000000000000, -0.000000000000000000, -1.000000000000000000 ) ) ;
#362 = ORIENTED_EDGE ( 'NONE', *, *, #21, .F. ) ;
#363 = CARTESIAN_POINT ( 'NONE',  ( 0.000000000000000000, 0.000000000000000000, 0.000000000000000000 ) ) ;
#364 = AXIS2_PLACEMENT_3D ( 'NONE', #106, #172, #226 ) ;
#365 =( NAMED_UNIT ( * ) PLANE_ANGLE_UNIT ( ) SI_UNIT ( $, .RADIAN. ) );
#366 = CARTESIAN_POINT ( 'NONE',  ( 6.700000000000001066, 0.000000000000000000, 7.700000000000012612 ) ) ;
#367 = EDGE_CURVE ( 'NONE', #125, #104, #371, .T. ) ;
#368 = DIRECTION ( 'NONE',  ( 0.000000000000000000, 0.000000000000000000, -1.000000000000000000 ) ) ;
#369 = ORIENTED_EDGE ( 'NONE', *, *, #377, .T. ) ;
#370 = ADVANCED_FACE ( 'NONE', ( #302 ), #135, .T. ) ;
#371 = CIRCLE ( 'NONE', #333, 0.7000000000000000666 ) ;
#372 = VECTOR ( 'NONE', #261, 1000.000000000000000 ) ;
#373 = PERSON_AND_ORGANIZATION_ROLE ( 'creator' ) ;
#374 = CARTESIAN_POINT ( 'NONE',  ( 0.000000000000000000, 0.000000000000000000, 167.0000000000000000 ) ) ;
#375 = CARTESIAN_POINT ( 'NONE',  ( 0.000000000000000000, 0.000000000000000000, 7.000000000000000000 ) ) ;
#376 = CARTESIAN_POINT ( 'NONE',  ( 0.000000000000000000, 0.000000000000000000, 0.000000000000000000 ) ) ;
#377 = EDGE_CURVE ( 'NONE', #186, #294, #201, .T. ) ;
#378 = ADVANCED_FACE ( 'NONE', ( #275 ), #136, .F. ) ;
#379 = CARTESIAN_POINT ( 'NONE',  ( 0.000000000000000000, 0.000000000000000000, 167.0000000000000000 ) ) ;
#380 = AXIS2_PLACEMENT_3D ( 'NONE', #17, #368, #301 ) ;
#381 = CALENDAR_DATE ( 2022, 10, 7 ) ;
ENDSEC;
END-ISO-10303-21;
