ISO-10303-21;
HEADER;
FILE_DESCRIPTION (( 'STEP AP203' ),
    '1' );
FILE_NAME ('88a0.STEP',
    '2022-07-10T09:18:29',
    ( '' ),
    ( '' ),
    'SwSTEP 2.0',
    'SolidWorks 2019',
    '' );
FILE_SCHEMA (( 'CONFIG_CONTROL_DESIGN' ));
ENDSEC;

DATA;
#1 = DIRECTION ( 'NONE',  ( 0.000000000000000000, 0.000000000000000000, 1.000000000000000000 ) ) ;
#2 = DIRECTION ( 'NONE',  ( 0.000000000000000000, 0.000000000000000000, -1.000000000000000000 ) ) ;
#3 = VECTOR ( 'NONE', #251, 1000.000000000000000 ) ;
#4 = EDGE_CURVE ( 'NONE', #357, #307, #326, .T. ) ;
#5 = DIRECTION ( 'NONE',  ( 1.000000000000000000, 0.000000000000000000, 0.000000000000000000 ) ) ;
#6 = APPROVAL_DATE_TIME ( #295, #45 ) ;
#7 = FACE_OUTER_BOUND ( 'NONE', #199, .T. ) ;
#8 = CIRCLE ( 'NONE', #143, 1.250000000000000000 ) ;
#9 = DIRECTION ( 'NONE',  ( 0.000000000000000000, 0.000000000000000000, 1.000000000000000000 ) ) ;
#10 = CYLINDRICAL_SURFACE ( 'NONE', #335, 5.000000000000000000 ) ;
#11 = DIRECTION ( 'NONE',  ( -1.000000000000000000, 0.000000000000000000, 0.000000000000000000 ) ) ;
#12 = ORIENTED_EDGE ( 'NONE', *, *, #155, .T. ) ;
#13 = AXIS2_PLACEMENT_3D ( 'NONE', #291, #213, #121 ) ;
#14 = CC_DESIGN_APPROVAL ( #45, ( #83 ) ) ;
#15 = DIRECTION ( 'NONE',  ( 0.000000000000000000, 0.000000000000000000, 1.000000000000000000 ) ) ;
#16 = DIRECTION ( 'NONE',  ( 0.000000000000000000, 0.000000000000000000, -1.000000000000000000 ) ) ;
#17 = PRODUCT_RELATED_PRODUCT_CATEGORY ( 'detail', '', ( #169 ) ) ;
#18 = CLOSED_SHELL ( 'NONE', ( #58, #63, #88, #306, #312, #96, #34, #325, #174, #349, #275 ) ) ;
#19 = ORIENTED_EDGE ( 'NONE', *, *, #254, .F. ) ;
#20 = APPROVAL_DATE_TIME ( #27, #41 ) ;
#21 = LOCAL_TIME ( 11, 18, 29.00000000000000000, #110 ) ;
#22 = DIRECTION ( 'NONE',  ( -0.000000000000000000, -0.000000000000000000, -1.000000000000000000 ) ) ;
#23 = EDGE_CURVE ( 'NONE', #26, #28, #210, .T. ) ;
#24 = CARTESIAN_POINT ( 'NONE',  ( 0.000000000000000000, 0.000000000000000000, 0.000000000000000000 ) ) ;
#25 = DIRECTION ( 'NONE',  ( 1.000000000000000000, 0.000000000000000000, 0.000000000000000000 ) ) ;
#26 = VERTEX_POINT ( 'NONE', #380 ) ;
#27 = DATE_AND_TIME ( #228, #46 ) ;
#28 = VERTEX_POINT ( 'NONE', #139 ) ;
#29 = DIRECTION ( 'NONE',  ( 1.000000000000000000, 0.000000000000000000, 0.000000000000000000 ) ) ;
#30 = EDGE_CURVE ( 'NONE', #57, #307, #136, .T. ) ;
#31 = LINE ( 'NONE', #120, #154 ) ;
#32 = DIRECTION ( 'NONE',  ( -1.000000000000000000, 0.000000000000000000, 0.000000000000000000 ) ) ;
#33 =( GEOMETRIC_REPRESENTATION_CONTEXT ( 3 ) GLOBAL_UNCERTAINTY_ASSIGNED_CONTEXT ( ( #160 ) ) GLOBAL_UNIT_ASSIGNED_CONTEXT ( ( #171, #168, #141 ) ) REPRESENTATION_CONTEXT ( 'NONE', 'WORKASPACE' ) );
#34 = ADVANCED_FACE ( 'NONE', ( #229, #231 ), #340, .F. ) ;
#35 = CARTESIAN_POINT ( 'NONE',  ( 0.000000000000000000, 0.000000000000000000, 153.0000000000000000 ) ) ;
#36 = CARTESIAN_POINT ( 'NONE',  ( -1.250000000000000000, 0.000000000000000000, 153.0000000000000000 ) ) ;
#37 = CYLINDRICAL_SURFACE ( 'NONE', #309, 2.500000000000000000 ) ;
#38 = CIRCLE ( 'NONE', #376, 2.500000000000000000 ) ;
#39 = VECTOR ( 'NONE', #72, 1000.000000000000000 ) ;
#40 = DIRECTION ( 'NONE',  ( 1.000000000000000000, 0.000000000000000000, 0.000000000000000000 ) ) ;
#41 = APPROVAL ( #379, 'NEURÈENÝ' ) ;
#42 = DIRECTION ( 'NONE',  ( -0.000000000000000000, -0.000000000000000000, -1.000000000000000000 ) ) ;
#43 = DIRECTION ( 'NONE',  ( -0.000000000000000000, -0.000000000000000000, -1.000000000000000000 ) ) ;
#44 = ORIENTED_EDGE ( 'NONE', *, *, #75, .T. ) ;
#45 = APPROVAL ( #226, 'NEURÈENÝ' ) ;
#46 = LOCAL_TIME ( 11, 18, 29.00000000000000000, #196 ) ;
#47 = CARTESIAN_POINT ( 'NONE',  ( 0.000000000000000000, 0.000000000000000000, 3.299999999999997158 ) ) ;
#48 = PERSON_AND_ORGANIZATION ( #167, #348 ) ;
#49 = MECHANICAL_CONTEXT ( 'NONE', #219, 'mechanical' ) ;
#50 = ORIENTED_EDGE ( 'NONE', *, *, #134, .T. ) ;
#51 = EDGE_CURVE ( 'NONE', #79, #57, #235, .T. ) ;
#52 = ORIENTED_EDGE ( 'NONE', *, *, #220, .F. ) ;
#53 = CIRCLE ( 'NONE', #343, 5.000000000000000000 ) ;
#54 = PERSON_AND_ORGANIZATION_ROLE ( 'creator' ) ;
#55 = DIRECTION ( 'NONE',  ( 0.000000000000000000, 0.000000000000000000, 1.000000000000000000 ) ) ;
#56 = APPROVAL_DATE_TIME ( #135, #249 ) ;
#57 = VERTEX_POINT ( 'NONE', #122 ) ;
#58 = ADVANCED_FACE ( 'NONE', ( #350 ), #61, .F. ) ;
#59 = CALENDAR_DATE ( 2022, 10, 7 ) ;
#60 = ORIENTED_EDGE ( 'NONE', *, *, #284, .F. ) ;
#61 = CYLINDRICAL_SURFACE ( 'NONE', #313, 1.250000000000000000 ) ;
#62 = DIRECTION ( 'NONE',  ( 0.000000000000000000, 0.000000000000000000, 1.000000000000000000 ) ) ;
#63 = ADVANCED_FACE ( 'NONE', ( #153 ), #148, .F. ) ;
#64 = DESIGN_CONTEXT ( 'detailed design', #190, 'design' ) ;
#65 = CARTESIAN_POINT ( 'NONE',  ( 0.000000000000000000, 0.000000000000000000, 3.000000000000000000 ) ) ;
#66 = CARTESIAN_POINT ( 'NONE',  ( 0.000000000000000000, 0.000000000000000000, 0.000000000000000000 ) ) ;
#67 = FACE_BOUND ( 'NONE', #234, .T. ) ;
#68 = EDGE_CURVE ( 'NONE', #97, #378, #31, .T. ) ;
#69 = DIRECTION ( 'NONE',  ( 1.000000000000000000, 0.000000000000000000, 0.000000000000000000 ) ) ;
#70 = ORIENTED_EDGE ( 'NONE', *, *, #214, .F. ) ;
#71 = AXIS2_PLACEMENT_3D ( 'NONE', #161, #363, #334 ) ;
#72 = DIRECTION ( 'NONE',  ( -0.000000000000000000, -0.000000000000000000, -1.000000000000000000 ) ) ;
#73 = CARTESIAN_POINT ( 'NONE',  ( 0.000000000000000000, 0.000000000000000000, 153.0000000000000000 ) ) ;
#74 = PRODUCT_DEFINITION_SHAPE ( 'NONE', 'NONE',  #301 ) ;
#75 = EDGE_CURVE ( 'NONE', #308, #102, #195, .T. ) ;
#76 = CC_DESIGN_SECURITY_CLASSIFICATION ( #83, ( #360 ) ) ;
#77 = ORIENTED_EDGE ( 'NONE', *, *, #200, .F. ) ;
#78 = CALENDAR_DATE ( 2022, 10, 7 ) ;
#79 = VERTEX_POINT ( 'NONE', #36 ) ;
#80 = CARTESIAN_POINT ( 'NONE',  ( 5.000000000000000000, 6.123233995736766282E-16, 0.000000000000000000 ) ) ;
#81 = CARTESIAN_POINT ( 'NONE',  ( 0.000000000000000000, 0.000000000000000000, 0.000000000000000000 ) ) ;
#82 = APPROVAL_ROLE ( '' ) ;
#83 = SECURITY_CLASSIFICATION ( '', '', #144 ) ;
#84 = EDGE_LOOP ( 'NONE', ( #130, #252 ) ) ;
#85 = EDGE_LOOP ( 'NONE', ( #19, #111, #50, #77 ) ) ;
#86 = ORIENTED_EDGE ( 'NONE', *, *, #23, .F. ) ;
#87 = CARTESIAN_POINT ( 'NONE',  ( 0.000000000000000000, 0.000000000000000000, 153.0000000000000000 ) ) ;
#88 = ADVANCED_FACE ( 'NONE', ( #7 ), #267, .T. ) ;
#89 = DIRECTION ( 'NONE',  ( 1.224646799147353207E-16, 1.000000000000000000, -0.000000000000000000 ) ) ;
#90 = CARTESIAN_POINT ( 'NONE',  ( 0.000000000000000000, 0.000000000000000000, 3.000000000000000000 ) ) ;
#91 = DIRECTION ( 'NONE',  ( -1.000000000000000000, 1.224646799147353207E-16, 0.000000000000000000 ) ) ;
#92 = DIRECTION ( 'NONE',  ( 1.000000000000000000, 0.000000000000000000, 0.000000000000000000 ) ) ;
#93 = CARTESIAN_POINT ( 'NONE',  ( 0.000000000000000000, 0.000000000000000000, 3.000000000000000000 ) ) ;
#94 = DIRECTION ( 'NONE',  ( -1.000000000000000000, 0.000000000000000000, 0.000000000000000000 ) ) ;
#95 = CARTESIAN_POINT ( 'NONE',  ( 1.250000000000000000, 1.530808498934191571E-16, 0.000000000000000000 ) ) ;
#96 = ADVANCED_FACE ( 'NONE', ( #67, #209 ), #354, .T. ) ;
#97 = VERTEX_POINT ( 'NONE', #289 ) ;
#98 = VECTOR ( 'NONE', #116, 1000.000000000000000 ) ;
#99 = FACE_OUTER_BOUND ( 'NONE', #227, .T. ) ;
#100 = ORIENTED_EDGE ( 'NONE', *, *, #180, .F. ) ;
#101 = CYLINDRICAL_SURFACE ( 'NONE', #71, 5.000000000000000000 ) ;
#102 = VERTEX_POINT ( 'NONE', #351 ) ;
#103 = AXIS2_PLACEMENT_3D ( 'NONE', #162, #16, #129 ) ;
#104 = APPROVAL_STATUS ( 'not_yet_approved' ) ;
#105 = ORIENTED_EDGE ( 'NONE', *, *, #266, .T. ) ;
#106 = EDGE_CURVE ( 'NONE', #308, #26, #279, .T. ) ;
#107 = AXIS2_PLACEMENT_3D ( 'NONE', #114, #311, #345 ) ;
#108 = DIRECTION ( 'NONE',  ( 0.000000000000000000, 0.000000000000000000, 1.000000000000000000 ) ) ;
#109 = ORIENTED_EDGE ( 'NONE', *, *, #68, .F. ) ;
#110 = COORDINATED_UNIVERSAL_TIME_OFFSET ( 1, 0, .AHEAD. ) ;
#111 = ORIENTED_EDGE ( 'NONE', *, *, #68, .T. ) ;
#112 = CIRCLE ( 'NONE', #322, 5.000000000000000000 ) ;
#113 = PERSON_AND_ORGANIZATION ( #167, #348 ) ;
#114 = CARTESIAN_POINT ( 'NONE',  ( 2.799999999999999822, 0.000000000000000000, 3.299999999999997158 ) ) ;
#115 = EDGE_CURVE ( 'NONE', #329, #341, #292, .T. ) ;
#116 = DIRECTION ( 'NONE',  ( 0.000000000000000000, 0.000000000000000000, -1.000000000000000000 ) ) ;
#117 = DIRECTION ( 'NONE',  ( 1.000000000000000000, 0.000000000000000000, 0.000000000000000000 ) ) ;
#118 = CC_DESIGN_PERSON_AND_ORGANIZATION_ASSIGNMENT ( #48, #54, ( #360 ) ) ;
#119 = DIRECTION ( 'NONE',  ( 1.000000000000000000, 0.000000000000000000, -0.000000000000000000 ) ) ;
#120 = CARTESIAN_POINT ( 'NONE',  ( 5.000000000000000000, 6.123233995736766282E-16, 3.000000000000000000 ) ) ;
#121 = DIRECTION ( 'NONE',  ( 1.000000000000000000, 0.000000000000000000, 0.000000000000000000 ) ) ;
#122 = CARTESIAN_POINT ( 'NONE',  ( 1.250000000000000000, 1.530808498934191571E-16, 153.0000000000000000 ) ) ;
#123 = EDGE_CURVE ( 'NONE', #28, #102, #276, .T. ) ;
#124 = EDGE_LOOP ( 'NONE', ( #109, #70, #247, #12 ) ) ;
#125 = ORIENTED_EDGE ( 'NONE', *, *, #220, .T. ) ;
#126 = EDGE_CURVE ( 'NONE', #341, #329, #368, .T. ) ;
#127 = CARTESIAN_POINT ( 'NONE',  ( 0.000000000000000000, 0.000000000000000000, 0.000000000000000000 ) ) ;
#128 = APPROVAL_PERSON_ORGANIZATION ( #132, #45, #264 ) ;
#129 = DIRECTION ( 'NONE',  ( -1.000000000000000000, 0.000000000000000000, 0.000000000000000000 ) ) ;
#130 = ORIENTED_EDGE ( 'NONE', *, *, #155, .F. ) ;
#131 = DIRECTION ( 'NONE',  ( 1.000000000000000000, 0.000000000000000000, 0.000000000000000000 ) ) ;
#132 = PERSON_AND_ORGANIZATION ( #167, #348 ) ;
#133 = ORIENTED_EDGE ( 'NONE', *, *, #214, .T. ) ;
#134 = EDGE_CURVE ( 'NONE', #378, #170, #112, .T. ) ;
#135 = DATE_AND_TIME ( #230, #21 ) ;
#136 = LINE ( 'NONE', #255, #98 ) ;
#137 = AXIS2_PLACEMENT_3D ( 'NONE', #147, #321, #32 ) ;
#138 = PERSON_AND_ORGANIZATION_ROLE ( 'creator' ) ;
#139 = CARTESIAN_POINT ( 'NONE',  ( 2.799999999999999822, 0.000000000000000000, 2.999999999999998668 ) ) ;
#140 = CC_DESIGN_PERSON_AND_ORGANIZATION_ASSIGNMENT ( #260, #194, ( #83 ) ) ;
#141 =( NAMED_UNIT ( * ) SI_UNIT ( $, .STERADIAN. ) SOLID_ANGLE_UNIT ( ) );
#142 = ORIENTED_EDGE ( 'NONE', *, *, #123, .T. ) ;
#143 = AXIS2_PLACEMENT_3D ( 'NONE', #73, #193, #299 ) ;
#144 = SECURITY_CLASSIFICATION_LEVEL ( 'unclassified' ) ;
#145 = ORIENTED_EDGE ( 'NONE', *, *, #115, .T. ) ;
#146 = COORDINATED_UNIVERSAL_TIME_OFFSET ( 1, 0, .AHEAD. ) ;
#147 = CARTESIAN_POINT ( 'NONE',  ( 0.000000000000000000, 0.000000000000000000, 153.0000000000000000 ) ) ;
#148 = TOROIDAL_SURFACE ( 'NONE', #355, 2.799999999999999822, 0.2999999999999999889 ) ;
#149 = FACE_OUTER_BOUND ( 'NONE', #202, .T. ) ;
#150 = EDGE_CURVE ( 'NONE', #26, #308, #38, .T. ) ;
#151 = APPROVAL_PERSON_ORGANIZATION ( #310, #41, #369 ) ;
#152 = CARTESIAN_POINT ( 'NONE',  ( 0.000000000000000000, 0.000000000000000000, 153.0000000000000000 ) ) ;
#153 = FACE_OUTER_BOUND ( 'NONE', #261, .T. ) ;
#154 = VECTOR ( 'NONE', #265, 1000.000000000000000 ) ;
#155 = EDGE_CURVE ( 'NONE', #170, #378, #215, .T. ) ;
#156 = DIRECTION ( 'NONE',  ( 0.000000000000000000, 0.000000000000000000, 1.000000000000000000 ) ) ;
#157 = CARTESIAN_POINT ( 'NONE',  ( 2.500000000000000000, 3.061616997868383141E-16, 153.0000000000000000 ) ) ;
#158 = AXIS2_PLACEMENT_3D ( 'NONE', #203, #108, #176 ) ;
#159 = LINE ( 'NONE', #166, #173 ) ;
#160 = UNCERTAINTY_MEASURE_WITH_UNIT (LENGTH_MEASURE( 1.000000000000000082E-05 ), #171, 'distance_accuracy_value', 'NONE');
#161 = CARTESIAN_POINT ( 'NONE',  ( 0.000000000000000000, 0.000000000000000000, 3.000000000000000000 ) ) ;
#162 = CARTESIAN_POINT ( 'NONE',  ( 0.000000000000000000, 0.000000000000000000, 153.0000000000000000 ) ) ;
#163 = ORIENTED_EDGE ( 'NONE', *, *, #51, .F. ) ;
#164 = AXIS2_PLACEMENT_3D ( 'NONE', #93, #15, #69 ) ;
#165 = AXIS2_PLACEMENT_3D ( 'NONE', #66, #327, #317 ) ;
#166 = CARTESIAN_POINT ( 'NONE',  ( -1.250000000000000000, 0.000000000000000000, 153.0000000000000000 ) ) ;
#167 = PERSON ( 'NEURÈENÝ', 'NEURÈENÝ', 'NEURÈENÝ', ('NEURÈENÝ'), ('NEURÈENÝ'), ('NEURÈENÝ') ) ;
#168 =( NAMED_UNIT ( * ) PLANE_ANGLE_UNIT ( ) SI_UNIT ( $, .RADIAN. ) );
#169 = PRODUCT ( '88a0', '88a0', '', ( #49 ) ) ;
#170 = VERTEX_POINT ( 'NONE', #381 ) ;
#171 =( LENGTH_UNIT ( ) NAMED_UNIT ( * ) SI_UNIT ( .MILLI., .METRE. ) );
#172 = EDGE_LOOP ( 'NONE', ( #370, #366, #283, #100 ) ) ;
#173 = VECTOR ( 'NONE', #277, 1000.000000000000000 ) ;
#174 = ADVANCED_FACE ( 'NONE', ( #238, #149 ), #347, .T. ) ;
#175 = DIRECTION ( 'NONE',  ( 1.000000000000000000, 0.000000000000000000, -0.000000000000000000 ) ) ;
#176 = DIRECTION ( 'NONE',  ( 1.000000000000000000, 0.000000000000000000, 0.000000000000000000 ) ) ;
#177 = EDGE_LOOP ( 'NONE', ( #197, #60 ) ) ;
#178 = EDGE_LOOP ( 'NONE', ( #244, #286, #257, #258 ) ) ;
#179 = DIRECTION ( 'NONE',  ( 1.000000000000000000, 0.000000000000000000, 0.000000000000000000 ) ) ;
#180 = EDGE_CURVE ( 'NONE', #79, #357, #159, .T. ) ;
#181 = LOCAL_TIME ( 11, 18, 29.00000000000000000, #146 ) ;
#182 = DIRECTION ( 'NONE',  ( 0.000000000000000000, 0.000000000000000000, 1.000000000000000000 ) ) ;
#183 = CC_DESIGN_DATE_AND_TIME_ASSIGNMENT ( #280, #339, ( #83 ) ) ;
#184 = DIRECTION ( 'NONE',  ( -0.000000000000000000, -0.000000000000000000, -1.000000000000000000 ) ) ;
#185 = LINE ( 'NONE', #298, #39 ) ;
#186 = CARTESIAN_POINT ( 'NONE',  ( -5.000000000000000000, 0.000000000000000000, 3.000000000000000000 ) ) ;
#187 = CC_DESIGN_DATE_AND_TIME_ASSIGNMENT ( #374, #305, ( #301 ) ) ;
#188 = CC_DESIGN_APPROVAL ( #41, ( #301 ) ) ;
#189 = EDGE_LOOP ( 'NONE', ( #133, #315 ) ) ;
#190 = APPLICATION_CONTEXT ( 'configuration controlled 3d designs of mechanical parts and assemblies' ) ;
#191 = CARTESIAN_POINT ( 'NONE',  ( -2.500000000000000000, 0.000000000000000000, 153.0000000000000000 ) ) ;
#192 = FACE_OUTER_BOUND ( 'NONE', #205, .T. ) ;
#193 = DIRECTION ( 'NONE',  ( 0.000000000000000000, 0.000000000000000000, 1.000000000000000000 ) ) ;
#194 = PERSON_AND_ORGANIZATION_ROLE ( 'classification_officer' ) ;
#195 = CIRCLE ( 'NONE', #373, 0.2999999999999999334 ) ;
#196 = COORDINATED_UNIVERSAL_TIME_OFFSET ( 1, 0, .AHEAD. ) ;
#197 = ORIENTED_EDGE ( 'NONE', *, *, #4, .F. ) ;
#198 = APPLICATION_PROTOCOL_DEFINITION ( 'international standard', 'config_control_design', 1994, #219 ) ;
#199 = EDGE_LOOP ( 'NONE', ( #285, #125, #225, #236 ) ) ;
#200 = EDGE_CURVE ( 'NONE', #281, #170, #278, .T. ) ;
#201 = APPLICATION_PROTOCOL_DEFINITION ( 'international standard', 'config_control_design', 1994, #190 ) ;
#202 = EDGE_LOOP ( 'NONE', ( #274, #145 ) ) ;
#203 = CARTESIAN_POINT ( 'NONE',  ( 0.000000000000000000, 0.000000000000000000, 0.000000000000000000 ) ) ;
#204 = ORIENTED_EDGE ( 'NONE', *, *, #237, .F. ) ;
#205 = EDGE_LOOP ( 'NONE', ( #375, #362, #250, #346 ) ) ;
#206 = AXIS2_PLACEMENT_3D ( 'NONE', #320, #294, #92 ) ;
#207 = AXIS2_PLACEMENT_3D ( 'NONE', #47, #9, #25 ) ;
#208 = ADVANCED_BREP_SHAPE_REPRESENTATION ( '88a0', ( #288, #158 ), #33 ) ;
#209 = FACE_OUTER_BOUND ( 'NONE', #189, .T. ) ;
#210 = CIRCLE ( 'NONE', #107, 0.2999999999999999334 ) ;
#211 = CARTESIAN_POINT ( 'NONE',  ( 0.000000000000000000, 0.000000000000000000, 3.299999999999997158 ) ) ;
#212 = SHAPE_DEFINITION_REPRESENTATION ( #74, #208 ) ;
#213 = DIRECTION ( 'NONE',  ( 0.000000000000000000, 0.000000000000000000, 1.000000000000000000 ) ) ;
#214 = EDGE_CURVE ( 'NONE', #281, #97, #53, .T. ) ;
#215 = CIRCLE ( 'NONE', #165, 5.000000000000000000 ) ;
#216 = CARTESIAN_POINT ( 'NONE',  ( 0.000000000000000000, 0.000000000000000000, 3.299999999999997158 ) ) ;
#217 = DIRECTION ( 'NONE',  ( 0.000000000000000000, 0.000000000000000000, 1.000000000000000000 ) ) ;
#218 = CYLINDRICAL_SURFACE ( 'NONE', #103, 1.250000000000000000 ) ;
#219 = APPLICATION_CONTEXT ( 'configuration controlled 3d designs of mechanical parts and assemblies' ) ;
#220 = EDGE_CURVE ( 'NONE', #329, #26, #185, .T. ) ;
#221 = CIRCLE ( 'NONE', #297, 1.250000000000000000 ) ;
#222 = CARTESIAN_POINT ( 'NONE',  ( 0.000000000000000000, 0.000000000000000000, 153.0000000000000000 ) ) ;
#223 = EDGE_CURVE ( 'NONE', #341, #308, #224, .T. ) ;
#224 = LINE ( 'NONE', #191, #259 ) ;
#225 = ORIENTED_EDGE ( 'NONE', *, *, #150, .T. ) ;
#226 = APPROVAL_STATUS ( 'not_yet_approved' ) ;
#227 = EDGE_LOOP ( 'NONE', ( #52, #364, #359, #372 ) ) ;
#228 = CALENDAR_DATE ( 2022, 10, 7 ) ;
#229 = FACE_BOUND ( 'NONE', #177, .T. ) ;
#230 = CALENDAR_DATE ( 2022, 10, 7 ) ;
#231 = FACE_OUTER_BOUND ( 'NONE', #84, .T. ) ;
#232 = CIRCLE ( 'NONE', #164, 5.000000000000000000 ) ;
#233 = PERSON_AND_ORGANIZATION ( #167, #348 ) ;
#234 = EDGE_LOOP ( 'NONE', ( #142, #105 ) ) ;
#235 = CIRCLE ( 'NONE', #262, 1.250000000000000000 ) ;
#236 = ORIENTED_EDGE ( 'NONE', *, *, #223, .F. ) ;
#237 = EDGE_CURVE ( 'NONE', #57, #79, #8, .T. ) ;
#238 = FACE_BOUND ( 'NONE', #336, .T. ) ;
#239 = CARTESIAN_POINT ( 'NONE',  ( -2.799999999999999822, 3.429011037612588783E-16, 3.299999999999997158 ) ) ;
#240 = DIRECTION ( 'NONE',  ( 1.000000000000000000, 0.000000000000000000, 0.000000000000000000 ) ) ;
#241 = DIRECTION ( 'NONE',  ( 1.000000000000000000, 0.000000000000000000, -0.000000000000000000 ) ) ;
#242 = CARTESIAN_POINT ( 'NONE',  ( 0.000000000000000000, 0.000000000000000000, 3.000000000000000000 ) ) ;
#243 = FACE_OUTER_BOUND ( 'NONE', #178, .T. ) ;
#244 = ORIENTED_EDGE ( 'NONE', *, *, #30, .F. ) ;
#245 = CARTESIAN_POINT ( 'NONE',  ( 0.000000000000000000, 0.000000000000000000, 3.000000000000000000 ) ) ;
#246 = APPROVAL_PERSON_ORGANIZATION ( #337, #249, #82 ) ;
#247 = ORIENTED_EDGE ( 'NONE', *, *, #200, .T. ) ;
#248 = FACE_OUTER_BOUND ( 'NONE', #85, .T. ) ;
#249 = APPROVAL ( #104, 'NEURÈENÝ' ) ;
#250 = ORIENTED_EDGE ( 'NONE', *, *, #23, .T. ) ;
#251 = DIRECTION ( 'NONE',  ( -0.000000000000000000, -0.000000000000000000, -1.000000000000000000 ) ) ;
#252 = ORIENTED_EDGE ( 'NONE', *, *, #134, .F. ) ;
#253 = CIRCLE ( 'NONE', #303, 2.799999999999999822 ) ;
#254 = EDGE_CURVE ( 'NONE', #97, #281, #232, .T. ) ;
#255 = CARTESIAN_POINT ( 'NONE',  ( 1.250000000000000000, 1.530808498934191571E-16, 153.0000000000000000 ) ) ;
#256 = COORDINATED_UNIVERSAL_TIME_OFFSET ( 1, 0, .AHEAD. ) ;
#257 = ORIENTED_EDGE ( 'NONE', *, *, #180, .T. ) ;
#258 = ORIENTED_EDGE ( 'NONE', *, *, #4, .T. ) ;
#259 = VECTOR ( 'NONE', #42, 1000.000000000000000 ) ;
#260 = PERSON_AND_ORGANIZATION ( #167, #348 ) ;
#261 = EDGE_LOOP ( 'NONE', ( #314, #44, #287, #86 ) ) ;
#262 = AXIS2_PLACEMENT_3D ( 'NONE', #35, #62, #179 ) ;
#263 = DIRECTION ( 'NONE',  ( 1.000000000000000000, 0.000000000000000000, 0.000000000000000000 ) ) ;
#264 = APPROVAL_ROLE ( '' ) ;
#265 = DIRECTION ( 'NONE',  ( -0.000000000000000000, -0.000000000000000000, -1.000000000000000000 ) ) ;
#266 = EDGE_CURVE ( 'NONE', #102, #28, #253, .T. ) ;
#267 = CYLINDRICAL_SURFACE ( 'NONE', #137, 2.500000000000000000 ) ;
#268 = CARTESIAN_POINT ( 'NONE',  ( 0.000000000000000000, 0.000000000000000000, 0.000000000000000000 ) ) ;
#269 = DIRECTION ( 'NONE',  ( -1.000000000000000000, 0.000000000000000000, 0.000000000000000000 ) ) ;
#270 = AXIS2_PLACEMENT_3D ( 'NONE', #211, #352, #5 ) ;
#271 = CARTESIAN_POINT ( 'NONE',  ( -1.250000000000000000, 0.000000000000000000, 0.000000000000000000 ) ) ;
#272 = FACE_OUTER_BOUND ( 'NONE', #124, .T. ) ;
#273 = CARTESIAN_POINT ( 'NONE',  ( -2.500000000000000000, 0.000000000000000000, 153.0000000000000000 ) ) ;
#274 = ORIENTED_EDGE ( 'NONE', *, *, #126, .T. ) ;
#275 = ADVANCED_FACE ( 'NONE', ( #243 ), #218, .F. ) ;
#276 = CIRCLE ( 'NONE', #316, 2.799999999999999822 ) ;
#277 = DIRECTION ( 'NONE',  ( 0.000000000000000000, 0.000000000000000000, -1.000000000000000000 ) ) ;
#278 = LINE ( 'NONE', #186, #3 ) ;
#279 = CIRCLE ( 'NONE', #270, 2.500000000000000000 ) ;
#280 = DATE_AND_TIME ( #371, #353 ) ;
#281 = VERTEX_POINT ( 'NONE', #333 ) ;
#282 = PERSON_AND_ORGANIZATION_ROLE ( 'design_owner' ) ;
#283 = ORIENTED_EDGE ( 'NONE', *, *, #284, .T. ) ;
#284 = EDGE_CURVE ( 'NONE', #307, #357, #221, .T. ) ;
#285 = ORIENTED_EDGE ( 'NONE', *, *, #115, .F. ) ;
#286 = ORIENTED_EDGE ( 'NONE', *, *, #237, .T. ) ;
#287 = ORIENTED_EDGE ( 'NONE', *, *, #123, .F. ) ;
#288 = MANIFOLD_SOLID_BREP ( 'Odebrat vysunutím3', #18 ) ;
#289 = CARTESIAN_POINT ( 'NONE',  ( 5.000000000000000000, 6.123233995736766282E-16, 3.000000000000000000 ) ) ;
#290 = CARTESIAN_POINT ( 'NONE',  ( 0.000000000000000000, 0.000000000000000000, 3.299999999999997158 ) ) ;
#291 = CARTESIAN_POINT ( 'NONE',  ( 0.000000000000000000, 0.000000000000000000, 153.0000000000000000 ) ) ;
#292 = CIRCLE ( 'NONE', #13, 2.500000000000000000 ) ;
#293 = CC_DESIGN_APPROVAL ( #249, ( #360 ) ) ;
#294 = DIRECTION ( 'NONE',  ( 0.000000000000000000, 0.000000000000000000, 1.000000000000000000 ) ) ;
#295 = DATE_AND_TIME ( #59, #181 ) ;
#296 = DIRECTION ( 'NONE',  ( -0.000000000000000000, -0.000000000000000000, -1.000000000000000000 ) ) ;
#297 = AXIS2_PLACEMENT_3D ( 'NONE', #127, #302, #131 ) ;
#298 = CARTESIAN_POINT ( 'NONE',  ( 2.500000000000000000, 3.061616997868383141E-16, 153.0000000000000000 ) ) ;
#299 = DIRECTION ( 'NONE',  ( 1.000000000000000000, 0.000000000000000000, 0.000000000000000000 ) ) ;
#300 = AXIS2_PLACEMENT_3D ( 'NONE', #90, #156, #241 ) ;
#301 = PRODUCT_DEFINITION ( 'NEZNÁMÝ', '', #360, #64 ) ;
#302 = DIRECTION ( 'NONE',  ( -0.000000000000000000, -0.000000000000000000, -1.000000000000000000 ) ) ;
#303 = AXIS2_PLACEMENT_3D ( 'NONE', #245, #43, #40 ) ;
#304 = COORDINATED_UNIVERSAL_TIME_OFFSET ( 1, 0, .AHEAD. ) ;
#305 = DATE_TIME_ROLE ( 'creation_date' ) ;
#306 = ADVANCED_FACE ( 'NONE', ( #248 ), #101, .T. ) ;
#307 = VERTEX_POINT ( 'NONE', #95 ) ;
#308 = VERTEX_POINT ( 'NONE', #328 ) ;
#309 = AXIS2_PLACEMENT_3D ( 'NONE', #222, #358, #94 ) ;
#310 = PERSON_AND_ORGANIZATION ( #167, #348 ) ;
#311 = DIRECTION ( 'NONE',  ( 0.000000000000000000, -1.000000000000000000, 0.000000000000000000 ) ) ;
#312 = ADVANCED_FACE ( 'NONE', ( #272 ), #10, .T. ) ;
#313 = AXIS2_PLACEMENT_3D ( 'NONE', #152, #2, #269 ) ;
#314 = ORIENTED_EDGE ( 'NONE', *, *, #106, .F. ) ;
#315 = ORIENTED_EDGE ( 'NONE', *, *, #254, .T. ) ;
#316 = AXIS2_PLACEMENT_3D ( 'NONE', #65, #184, #240 ) ;
#317 = DIRECTION ( 'NONE',  ( 1.000000000000000000, 0.000000000000000000, 0.000000000000000000 ) ) ;
#318 = AXIS2_PLACEMENT_3D ( 'NONE', #81, #55, #175 ) ;
#319 = AXIS2_PLACEMENT_3D ( 'NONE', #24, #22, #338 ) ;
#320 = CARTESIAN_POINT ( 'NONE',  ( 0.000000000000000000, 0.000000000000000000, 153.0000000000000000 ) ) ;
#321 = DIRECTION ( 'NONE',  ( -0.000000000000000000, -0.000000000000000000, -1.000000000000000000 ) ) ;
#322 = AXIS2_PLACEMENT_3D ( 'NONE', #268, #324, #263 ) ;
#323 = LOCAL_TIME ( 11, 18, 29.00000000000000000, #256 ) ;
#324 = DIRECTION ( 'NONE',  ( 0.000000000000000000, 0.000000000000000000, 1.000000000000000000 ) ) ;
#325 = ADVANCED_FACE ( 'NONE', ( #99 ), #37, .T. ) ;
#326 = CIRCLE ( 'NONE', #319, 1.250000000000000000 ) ;
#327 = DIRECTION ( 'NONE',  ( 0.000000000000000000, 0.000000000000000000, 1.000000000000000000 ) ) ;
#328 = CARTESIAN_POINT ( 'NONE',  ( -2.500000000000000000, 0.000000000000000000, 3.299999999999997158 ) ) ;
#329 = VERTEX_POINT ( 'NONE', #157 ) ;
#330 = TOROIDAL_SURFACE ( 'NONE', #207, 2.799999999999999822, 0.2999999999999999889 ) ;
#331 = CC_DESIGN_PERSON_AND_ORGANIZATION_ASSIGNMENT ( #233, #344, ( #360 ) ) ;
#332 = AXIS2_PLACEMENT_3D ( 'NONE', #87, #1, #119 ) ;
#333 = CARTESIAN_POINT ( 'NONE',  ( -5.000000000000000000, 0.000000000000000000, 3.000000000000000000 ) ) ;
#334 = DIRECTION ( 'NONE',  ( -1.000000000000000000, 0.000000000000000000, 0.000000000000000000 ) ) ;
#335 = AXIS2_PLACEMENT_3D ( 'NONE', #242, #296, #11 ) ;
#336 = EDGE_LOOP ( 'NONE', ( #163, #204 ) ) ;
#337 = PERSON_AND_ORGANIZATION ( #167, #348 ) ;
#338 = DIRECTION ( 'NONE',  ( 1.000000000000000000, 0.000000000000000000, 0.000000000000000000 ) ) ;
#339 = DATE_TIME_ROLE ( 'classification_date' ) ;
#340 = PLANE ( 'NONE',  #318 ) ;
#341 = VERTEX_POINT ( 'NONE', #273 ) ;
#342 = CC_DESIGN_PERSON_AND_ORGANIZATION_ASSIGNMENT ( #113, #138, ( #301 ) ) ;
#343 = AXIS2_PLACEMENT_3D ( 'NONE', #356, #365, #361 ) ;
#344 = PERSON_AND_ORGANIZATION_ROLE ( 'design_supplier' ) ;
#345 = DIRECTION ( 'NONE',  ( 0.000000000000000000, 0.000000000000000000, -1.000000000000000000 ) ) ;
#346 = ORIENTED_EDGE ( 'NONE', *, *, #266, .F. ) ;
#347 = PLANE ( 'NONE',  #332 ) ;
#348 = ORGANIZATION ( 'NEURÈENÝ', 'NEURÈENÝ', '' ) ;
#349 = ADVANCED_FACE ( 'NONE', ( #192 ), #330, .F. ) ;
#350 = FACE_OUTER_BOUND ( 'NONE', #172, .T. ) ;
#351 = CARTESIAN_POINT ( 'NONE',  ( -2.799999999999999822, 3.429011037612589276E-16, 2.999999999999998668 ) ) ;
#352 = DIRECTION ( 'NONE',  ( 0.000000000000000000, 0.000000000000000000, 1.000000000000000000 ) ) ;
#353 = LOCAL_TIME ( 11, 18, 29.00000000000000000, #304 ) ;
#354 = PLANE ( 'NONE',  #300 ) ;
#355 = AXIS2_PLACEMENT_3D ( 'NONE', #290, #182, #29 ) ;
#356 = CARTESIAN_POINT ( 'NONE',  ( 0.000000000000000000, 0.000000000000000000, 3.000000000000000000 ) ) ;
#357 = VERTEX_POINT ( 'NONE', #271 ) ;
#358 = DIRECTION ( 'NONE',  ( -0.000000000000000000, -0.000000000000000000, -1.000000000000000000 ) ) ;
#359 = ORIENTED_EDGE ( 'NONE', *, *, #223, .T. ) ;
#360 = PRODUCT_DEFINITION_FORMATION_WITH_SPECIFIED_SOURCE ( 'LIBOVOLNÝ', '', #169, .NOT_KNOWN. ) ;
#361 = DIRECTION ( 'NONE',  ( 1.000000000000000000, 0.000000000000000000, 0.000000000000000000 ) ) ;
#362 = ORIENTED_EDGE ( 'NONE', *, *, #150, .F. ) ;
#363 = DIRECTION ( 'NONE',  ( -0.000000000000000000, -0.000000000000000000, -1.000000000000000000 ) ) ;
#364 = ORIENTED_EDGE ( 'NONE', *, *, #126, .F. ) ;
#365 = DIRECTION ( 'NONE',  ( 0.000000000000000000, 0.000000000000000000, 1.000000000000000000 ) ) ;
#366 = ORIENTED_EDGE ( 'NONE', *, *, #30, .T. ) ;
#367 = CC_DESIGN_PERSON_AND_ORGANIZATION_ASSIGNMENT ( #377, #282, ( #169 ) ) ;
#368 = CIRCLE ( 'NONE', #206, 2.500000000000000000 ) ;
#369 = APPROVAL_ROLE ( '' ) ;
#370 = ORIENTED_EDGE ( 'NONE', *, *, #51, .T. ) ;
#371 = CALENDAR_DATE ( 2022, 10, 7 ) ;
#372 = ORIENTED_EDGE ( 'NONE', *, *, #106, .T. ) ;
#373 = AXIS2_PLACEMENT_3D ( 'NONE', #239, #89, #91 ) ;
#374 = DATE_AND_TIME ( #78, #323 ) ;
#375 = ORIENTED_EDGE ( 'NONE', *, *, #75, .F. ) ;
#376 = AXIS2_PLACEMENT_3D ( 'NONE', #216, #217, #117 ) ;
#377 = PERSON_AND_ORGANIZATION ( #167, #348 ) ;
#378 = VERTEX_POINT ( 'NONE', #80 ) ;
#379 = APPROVAL_STATUS ( 'not_yet_approved' ) ;
#380 = CARTESIAN_POINT ( 'NONE',  ( 2.500000000000000000, 3.061616997868383141E-16, 3.299999999999997158 ) ) ;
#381 = CARTESIAN_POINT ( 'NONE',  ( -5.000000000000000000, 0.000000000000000000, 0.000000000000000000 ) ) ;
ENDSEC;
END-ISO-10303-21;
