ISO-10303-21;
HEADER;
FILE_DESCRIPTION (( 'STEP AP203' ),
    '1' );
FILE_NAME ('6a8f.STEP',
    '2022-07-10T09:16:11',
    ( '' ),
    ( '' ),
    'SwSTEP 2.0',
    'SolidWorks 2019',
    '' );
FILE_SCHEMA (( 'CONFIG_CONTROL_DESIGN' ));
ENDSEC;

DATA;
#1 = CIRCLE ( 'NONE', #89, 1.600000000000000089 ) ;
#2 = PERSON_AND_ORGANIZATION_ROLE ( 'design_supplier' ) ;
#3 = CARTESIAN_POINT ( 'NONE',  ( 0.000000000000000000, 0.000000000000000000, 163.0000000000000000 ) ) ;
#4 = VERTEX_POINT ( 'NONE', #31 ) ;
#5 = CC_DESIGN_DATE_AND_TIME_ASSIGNMENT ( #295, #93, ( #101 ) ) ;
#6 = TOROIDAL_SURFACE ( 'NONE', #256, 2.799999999999999822, 0.2999999999999999889 ) ;
#7 = PERSON_AND_ORGANIZATION ( #163, #233 ) ;
#8 = ORIENTED_EDGE ( 'NONE', *, *, #288, .F. ) ;
#9 = DIRECTION ( 'NONE',  ( 1.000000000000000000, 0.000000000000000000, 0.000000000000000000 ) ) ;
#10 = DIRECTION ( 'NONE',  ( 1.000000000000000000, 0.000000000000000000, 0.000000000000000000 ) ) ;
#11 = DIRECTION ( 'NONE',  ( 1.000000000000000000, 0.000000000000000000, 0.000000000000000000 ) ) ;
#12 = LOCAL_TIME ( 11, 16, 11.00000000000000000, #289 ) ;
#13 = CYLINDRICAL_SURFACE ( 'NONE', #321, 5.000000000000000000 ) ;
#14 = FACE_OUTER_BOUND ( 'NONE', #158, .T. ) ;
#15 = CIRCLE ( 'NONE', #63, 0.2999999999999999334 ) ;
#16 = AXIS2_PLACEMENT_3D ( 'NONE', #252, #221, #25 ) ;
#17 = ORIENTED_EDGE ( 'NONE', *, *, #199, .T. ) ;
#18 = CARTESIAN_POINT ( 'NONE',  ( 5.000000000000000000, 6.123233995736766282E-16, 3.000000000000000000 ) ) ;
#19 = ORIENTED_EDGE ( 'NONE', *, *, #199, .F. ) ;
#20 = ADVANCED_FACE ( 'NONE', ( #33 ), #146, .T. ) ;
#21 = APPLICATION_PROTOCOL_DEFINITION ( 'international standard', 'config_control_design', 1994, #192 ) ;
#22 = ORIENTED_EDGE ( 'NONE', *, *, #207, .F. ) ;
#23 = CARTESIAN_POINT ( 'NONE',  ( -1.600000000000000089, 0.000000000000000000, 0.000000000000000000 ) ) ;
#24 = DIRECTION ( 'NONE',  ( -0.000000000000000000, -0.000000000000000000, -1.000000000000000000 ) ) ;
#25 = DIRECTION ( 'NONE',  ( 1.000000000000000000, 0.000000000000000000, 0.000000000000000000 ) ) ;
#26 = CIRCLE ( 'NONE', #120, 2.500000000000000000 ) ;
#27 = CIRCLE ( 'NONE', #77, 5.000000000000000000 ) ;
#28 = ORIENTED_EDGE ( 'NONE', *, *, #330, .T. ) ;
#29 = APPLICATION_CONTEXT ( 'configuration controlled 3d designs of mechanical parts and assemblies' ) ;
#30 = DIRECTION ( 'NONE',  ( -1.000000000000000000, 0.000000000000000000, 0.000000000000000000 ) ) ;
#31 = CARTESIAN_POINT ( 'NONE',  ( -1.600000000000000089, 0.000000000000000000, 163.0000000000000000 ) ) ;
#32 = AXIS2_PLACEMENT_3D ( 'NONE', #275, #99, #154 ) ;
#33 = FACE_OUTER_BOUND ( 'NONE', #41, .T. ) ;
#34 = ADVANCED_FACE ( 'NONE', ( #297, #241 ), #349, .T. ) ;
#35 = CARTESIAN_POINT ( 'NONE',  ( 0.000000000000000000, 0.000000000000000000, 0.000000000000000000 ) ) ;
#36 = DIRECTION ( 'NONE',  ( 0.000000000000000000, 0.000000000000000000, 1.000000000000000000 ) ) ;
#37 = FACE_BOUND ( 'NONE', #189, .T. ) ;
#38 = LOCAL_TIME ( 11, 16, 11.00000000000000000, #122 ) ;
#39 = VERTEX_POINT ( 'NONE', #263 ) ;
#40 = PLANE ( 'NONE',  #277 ) ;
#41 = EDGE_LOOP ( 'NONE', ( #294, #179, #339, #341 ) ) ;
#42 = DIRECTION ( 'NONE',  ( 1.000000000000000000, 0.000000000000000000, 0.000000000000000000 ) ) ;
#43 = CARTESIAN_POINT ( 'NONE',  ( 0.000000000000000000, 0.000000000000000000, 0.000000000000000000 ) ) ;
#44 = VERTEX_POINT ( 'NONE', #119 ) ;
#45 = EDGE_CURVE ( 'NONE', #162, #191, #26, .T. ) ;
#46 = DIRECTION ( 'NONE',  ( 1.000000000000000000, 0.000000000000000000, 0.000000000000000000 ) ) ;
#47 = ADVANCED_BREP_SHAPE_REPRESENTATION ( '6a8f', ( #66, #337 ), #141 ) ;
#48 = EDGE_LOOP ( 'NONE', ( #17, #372 ) ) ;
#49 = CARTESIAN_POINT ( 'NONE',  ( -2.500000000000000000, 0.000000000000000000, 163.0000000000000000 ) ) ;
#50 = DIRECTION ( 'NONE',  ( 0.000000000000000000, 0.000000000000000000, 1.000000000000000000 ) ) ;
#51 = APPROVAL_DATE_TIME ( #228, #376 ) ;
#52 = CIRCLE ( 'NONE', #310, 2.799999999999999822 ) ;
#53 =( NAMED_UNIT ( * ) PLANE_ANGLE_UNIT ( ) SI_UNIT ( $, .RADIAN. ) );
#54 = EDGE_CURVE ( 'NONE', #175, #195, #298, .T. ) ;
#55 = COORDINATED_UNIVERSAL_TIME_OFFSET ( 1, 0, .AHEAD. ) ;
#56 = FACE_OUTER_BOUND ( 'NONE', #205, .T. ) ;
#57 = EDGE_CURVE ( 'NONE', #279, #229, #52, .T. ) ;
#58 = CALENDAR_DATE ( 2022, 10, 7 ) ;
#59 = CARTESIAN_POINT ( 'NONE',  ( 0.000000000000000000, 0.000000000000000000, 3.000000000000000000 ) ) ;
#60 = DATE_AND_TIME ( #355, #356 ) ;
#61 = ORIENTED_EDGE ( 'NONE', *, *, #45, .F. ) ;
#62 = EDGE_LOOP ( 'NONE', ( #8, #220 ) ) ;
#63 = AXIS2_PLACEMENT_3D ( 'NONE', #184, #243, #300 ) ;
#64 = DIRECTION ( 'NONE',  ( -0.000000000000000000, -0.000000000000000000, -1.000000000000000000 ) ) ;
#65 = DESIGN_CONTEXT ( 'detailed design', #29, 'design' ) ;
#66 = MANIFOLD_SOLID_BREP ( 'Odebrat vysunutím3', #240 ) ;
#67 = CARTESIAN_POINT ( 'NONE',  ( 0.000000000000000000, 0.000000000000000000, 3.299999999999997158 ) ) ;
#68 = CARTESIAN_POINT ( 'NONE',  ( 0.000000000000000000, 0.000000000000000000, 0.000000000000000000 ) ) ;
#69 = ORIENTED_EDGE ( 'NONE', *, *, #352, .T. ) ;
#70 = CARTESIAN_POINT ( 'NONE',  ( 0.000000000000000000, 0.000000000000000000, 3.299999999999997158 ) ) ;
#71 = EDGE_LOOP ( 'NONE', ( #61, #28, #216, #104 ) ) ;
#72 = DIRECTION ( 'NONE',  ( -1.000000000000000000, 0.000000000000000000, 0.000000000000000000 ) ) ;
#73 = ORIENTED_EDGE ( 'NONE', *, *, #347, .T. ) ;
#74 = LINE ( 'NONE', #18, #171 ) ;
#75 = ORIENTED_EDGE ( 'NONE', *, *, #278, .T. ) ;
#76 = AXIS2_PLACEMENT_3D ( 'NONE', #208, #227, #324 ) ;
#77 = AXIS2_PLACEMENT_3D ( 'NONE', #43, #106, #111 ) ;
#78 = ORIENTED_EDGE ( 'NONE', *, *, #258, .F. ) ;
#79 = CARTESIAN_POINT ( 'NONE',  ( 0.000000000000000000, 0.000000000000000000, 163.0000000000000000 ) ) ;
#80 = FACE_OUTER_BOUND ( 'NONE', #71, .T. ) ;
#81 = DIRECTION ( 'NONE',  ( -0.000000000000000000, -0.000000000000000000, -1.000000000000000000 ) ) ;
#82 = CARTESIAN_POINT ( 'NONE',  ( 0.000000000000000000, 0.000000000000000000, 3.299999999999997158 ) ) ;
#83 = CC_DESIGN_DATE_AND_TIME_ASSIGNMENT ( #60, #353, ( #177 ) ) ;
#84 = PERSON_AND_ORGANIZATION_ROLE ( 'creator' ) ;
#85 = AXIS2_PLACEMENT_3D ( 'NONE', #70, #331, #132 ) ;
#86 = APPROVAL_STATUS ( 'not_yet_approved' ) ;
#87 = EDGE_CURVE ( 'NONE', #4, #342, #118, .T. ) ;
#88 = ORIENTED_EDGE ( 'NONE', *, *, #222, .T. ) ;
#89 = AXIS2_PLACEMENT_3D ( 'NONE', #242, #371, #137 ) ;
#90 = AXIS2_PLACEMENT_3D ( 'NONE', #203, #308, #311 ) ;
#91 = APPROVAL_ROLE ( '' ) ;
#92 = CARTESIAN_POINT ( 'NONE',  ( 0.000000000000000000, 0.000000000000000000, 3.000000000000000000 ) ) ;
#93 = DATE_TIME_ROLE ( 'creation_date' ) ;
#94 = DIRECTION ( 'NONE',  ( 0.000000000000000000, 0.000000000000000000, -1.000000000000000000 ) ) ;
#95 = EDGE_CURVE ( 'NONE', #366, #332, #318, .T. ) ;
#96 = CARTESIAN_POINT ( 'NONE',  ( -2.500000000000000000, 0.000000000000000000, 163.0000000000000000 ) ) ;
#97 = AXIS2_PLACEMENT_3D ( 'NONE', #266, #210, #123 ) ;
#98 = AXIS2_PLACEMENT_3D ( 'NONE', #79, #281, #114 ) ;
#99 = DIRECTION ( 'NONE',  ( -0.000000000000000000, -0.000000000000000000, -1.000000000000000000 ) ) ;
#100 = DIRECTION ( 'NONE',  ( 0.000000000000000000, 0.000000000000000000, 1.000000000000000000 ) ) ;
#101 = PRODUCT_DEFINITION ( 'NEZNÁMÝ', '', #206, #65 ) ;
#102 = ORIENTED_EDGE ( 'NONE', *, *, #358, .F. ) ;
#103 = CYLINDRICAL_SURFACE ( 'NONE', #328, 1.600000000000000089 ) ;
#104 = ORIENTED_EDGE ( 'NONE', *, *, #222, .F. ) ;
#105 = ADVANCED_FACE ( 'NONE', ( #80 ), #290, .F. ) ;
#106 = DIRECTION ( 'NONE',  ( 0.000000000000000000, 0.000000000000000000, 1.000000000000000000 ) ) ;
#107 = CARTESIAN_POINT ( 'NONE',  ( -5.000000000000000000, 0.000000000000000000, 0.000000000000000000 ) ) ;
#108 = EDGE_LOOP ( 'NONE', ( #254, #296, #73, #138 ) ) ;
#109 = APPROVAL_ROLE ( '' ) ;
#110 = ORIENTED_EDGE ( 'NONE', *, *, #352, .F. ) ;
#111 = DIRECTION ( 'NONE',  ( 1.000000000000000000, 0.000000000000000000, 0.000000000000000000 ) ) ;
#112 = CARTESIAN_POINT ( 'NONE',  ( -1.600000000000000089, 0.000000000000000000, 163.0000000000000000 ) ) ;
#113 = CC_DESIGN_PERSON_AND_ORGANIZATION_ASSIGNMENT ( #293, #235, ( #177 ) ) ;
#114 = DIRECTION ( 'NONE',  ( -1.000000000000000000, 0.000000000000000000, 0.000000000000000000 ) ) ;
#115 = CIRCLE ( 'NONE', #378, 2.500000000000000000 ) ;
#116 = ADVANCED_FACE ( 'NONE', ( #169 ), #202, .T. ) ;
#117 = CALENDAR_DATE ( 2022, 10, 7 ) ;
#118 = LINE ( 'NONE', #112, #150 ) ;
#119 = CARTESIAN_POINT ( 'NONE',  ( 1.600000000000000089, 1.959434878635765230E-16, 0.000000000000000000 ) ) ;
#120 = AXIS2_PLACEMENT_3D ( 'NONE', #82, #151, #147 ) ;
#121 = AXIS2_PLACEMENT_3D ( 'NONE', #282, #24, #30 ) ;
#122 = COORDINATED_UNIVERSAL_TIME_OFFSET ( 1, 0, .AHEAD. ) ;
#123 = DIRECTION ( 'NONE',  ( 1.000000000000000000, 0.000000000000000000, -0.000000000000000000 ) ) ;
#124 = PRODUCT ( '6a8f', '6a8f', '', ( #255 ) ) ;
#125 = CC_DESIGN_PERSON_AND_ORGANIZATION_ASSIGNMENT ( #7, #325, ( #206 ) ) ;
#126 = CARTESIAN_POINT ( 'NONE',  ( -2.500000000000000000, 0.000000000000000000, 3.299999999999997158 ) ) ;
#127 = DIRECTION ( 'NONE',  ( -0.000000000000000000, -0.000000000000000000, -1.000000000000000000 ) ) ;
#128 = AXIS2_PLACEMENT_3D ( 'NONE', #314, #50, #323 ) ;
#129 = APPROVAL_PERSON_ORGANIZATION ( #320, #143, #91 ) ;
#130 = DIRECTION ( 'NONE',  ( 1.000000000000000000, 0.000000000000000000, 0.000000000000000000 ) ) ;
#131 = ADVANCED_FACE ( 'NONE', ( #236, #142 ), #257, .T. ) ;
#132 = DIRECTION ( 'NONE',  ( 1.000000000000000000, 0.000000000000000000, 0.000000000000000000 ) ) ;
#133 = ORIENTED_EDGE ( 'NONE', *, *, #185, .T. ) ;
#134 = CARTESIAN_POINT ( 'NONE',  ( 1.600000000000000089, 1.959434878635765230E-16, 163.0000000000000000 ) ) ;
#135 = VERTEX_POINT ( 'NONE', #317 ) ;
#136 = AXIS2_PLACEMENT_3D ( 'NONE', #215, #100, #214 ) ;
#137 = DIRECTION ( 'NONE',  ( 1.000000000000000000, 0.000000000000000000, 0.000000000000000000 ) ) ;
#138 = ORIENTED_EDGE ( 'NONE', *, *, #45, .T. ) ;
#139 = ORIENTED_EDGE ( 'NONE', *, *, #358, .T. ) ;
#140 = ADVANCED_FACE ( 'NONE', ( #56 ), #6, .F. ) ;
#141 =( GEOMETRIC_REPRESENTATION_CONTEXT ( 3 ) GLOBAL_UNCERTAINTY_ASSIGNED_CONTEXT ( ( #187 ) ) GLOBAL_UNIT_ASSIGNED_CONTEXT ( ( #313, #53, #201 ) ) REPRESENTATION_CONTEXT ( 'NONE', 'WORKASPACE' ) );
#142 = FACE_OUTER_BOUND ( 'NONE', #48, .T. ) ;
#143 = APPROVAL ( #86, 'NEURÈENÝ' ) ;
#144 = CIRCLE ( 'NONE', #90, 0.2999999999999999334 ) ;
#145 = PERSON_AND_ORGANIZATION ( #163, #233 ) ;
#146 = CYLINDRICAL_SURFACE ( 'NONE', #334, 2.500000000000000000 ) ;
#147 = DIRECTION ( 'NONE',  ( 1.000000000000000000, 0.000000000000000000, 0.000000000000000000 ) ) ;
#148 = CARTESIAN_POINT ( 'NONE',  ( 0.000000000000000000, 0.000000000000000000, 163.0000000000000000 ) ) ;
#149 = EDGE_CURVE ( 'NONE', #39, #44, #329, .T. ) ;
#150 = VECTOR ( 'NONE', #94, 1000.000000000000000 ) ;
#151 = DIRECTION ( 'NONE',  ( 0.000000000000000000, 0.000000000000000000, 1.000000000000000000 ) ) ;
#152 = FACE_OUTER_BOUND ( 'NONE', #336, .T. ) ;
#153 = EDGE_CURVE ( 'NONE', #135, #223, #176, .T. ) ;
#154 = DIRECTION ( 'NONE',  ( -1.000000000000000000, 0.000000000000000000, 0.000000000000000000 ) ) ;
#155 = VECTOR ( 'NONE', #247, 1000.000000000000000 ) ;
#156 = LOCAL_TIME ( 11, 16, 11.00000000000000000, #225 ) ;
#157 = LINE ( 'NONE', #365, #303 ) ;
#158 = EDGE_LOOP ( 'NONE', ( #273, #276, #69, #305 ) ) ;
#159 = CARTESIAN_POINT ( 'NONE',  ( 0.000000000000000000, 0.000000000000000000, 3.000000000000000000 ) ) ;
#160 = ORIENTED_EDGE ( 'NONE', *, *, #153, .F. ) ;
#161 = CARTESIAN_POINT ( 'NONE',  ( -2.799999999999999822, 3.429011037612589276E-16, 2.999999999999998668 ) ) ;
#162 = VERTEX_POINT ( 'NONE', #126 ) ;
#163 = PERSON ( 'NEURÈENÝ', 'NEURÈENÝ', 'NEURÈENÝ', ('NEURÈENÝ'), ('NEURÈENÝ'), ('NEURÈENÝ') ) ;
#164 = AXIS2_PLACEMENT_3D ( 'NONE', #270, #304, #11 ) ;
#165 = FACE_OUTER_BOUND ( 'NONE', #354, .T. ) ;
#166 = ORIENTED_EDGE ( 'NONE', *, *, #330, .F. ) ;
#167 = EDGE_LOOP ( 'NONE', ( #75, #253 ) ) ;
#168 = DIRECTION ( 'NONE',  ( -0.000000000000000000, -0.000000000000000000, -1.000000000000000000 ) ) ;
#169 = FACE_OUTER_BOUND ( 'NONE', #108, .T. ) ;
#170 = APPLICATION_PROTOCOL_DEFINITION ( 'international standard', 'config_control_design', 1994, #29 ) ;
#171 = VECTOR ( 'NONE', #168, 1000.000000000000000 ) ;
#172 = PERSON_AND_ORGANIZATION ( #163, #233 ) ;
#173 = CC_DESIGN_PERSON_AND_ORGANIZATION_ASSIGNMENT ( #375, #316, ( #124 ) ) ;
#174 = COORDINATED_UNIVERSAL_TIME_OFFSET ( 1, 0, .AHEAD. ) ;
#175 = VERTEX_POINT ( 'NONE', #249 ) ;
#176 = CIRCLE ( 'NONE', #224, 5.000000000000000000 ) ;
#177 = SECURITY_CLASSIFICATION ( '', '', #234 ) ;
#178 = DATE_AND_TIME ( #58, #12 ) ;
#179 = ORIENTED_EDGE ( 'NONE', *, *, #194, .T. ) ;
#180 = ADVANCED_FACE ( 'NONE', ( #152 ), #360, .T. ) ;
#181 = ORIENTED_EDGE ( 'NONE', *, *, #362, .T. ) ;
#182 = DIRECTION ( 'NONE',  ( -0.000000000000000000, -0.000000000000000000, -1.000000000000000000 ) ) ;
#183 = CIRCLE ( 'NONE', #164, 1.600000000000000089 ) ;
#184 = CARTESIAN_POINT ( 'NONE',  ( 2.799999999999999822, 0.000000000000000000, 3.299999999999997158 ) ) ;
#185 = EDGE_CURVE ( 'NONE', #39, #4, #183, .T. ) ;
#186 = CARTESIAN_POINT ( 'NONE',  ( 0.000000000000000000, 0.000000000000000000, 3.000000000000000000 ) ) ;
#187 = UNCERTAINTY_MEASURE_WITH_UNIT (LENGTH_MEASURE( 1.000000000000000082E-05 ), #313, 'distance_accuracy_value', 'NONE');
#188 = FACE_OUTER_BOUND ( 'NONE', #239, .T. ) ;
#189 = EDGE_LOOP ( 'NONE', ( #198, #110 ) ) ;
#190 = DIRECTION ( 'NONE',  ( 0.000000000000000000, 0.000000000000000000, 1.000000000000000000 ) ) ;
#191 = VERTEX_POINT ( 'NONE', #246 ) ;
#192 = APPLICATION_CONTEXT ( 'configuration controlled 3d designs of mechanical parts and assemblies' ) ;
#193 = CARTESIAN_POINT ( 'NONE',  ( 0.000000000000000000, 0.000000000000000000, 163.0000000000000000 ) ) ;
#194 = EDGE_CURVE ( 'NONE', #175, #191, #364, .T. ) ;
#195 = VERTEX_POINT ( 'NONE', #96 ) ;
#196 = ORIENTED_EDGE ( 'NONE', *, *, #315, .T. ) ;
#197 = DIRECTION ( 'NONE',  ( 0.000000000000000000, 0.000000000000000000, 1.000000000000000000 ) ) ;
#198 = ORIENTED_EDGE ( 'NONE', *, *, #212, .F. ) ;
#199 = EDGE_CURVE ( 'NONE', #223, #135, #368, .T. ) ;
#200 = DIRECTION ( 'NONE',  ( 1.000000000000000000, 0.000000000000000000, 0.000000000000000000 ) ) ;
#201 =( NAMED_UNIT ( * ) SI_UNIT ( $, .STERADIAN. ) SOLID_ANGLE_UNIT ( ) );
#202 = CYLINDRICAL_SURFACE ( 'NONE', #121, 2.500000000000000000 ) ;
#203 = CARTESIAN_POINT ( 'NONE',  ( -2.799999999999999822, 3.429011037612588783E-16, 3.299999999999997158 ) ) ;
#204 = APPROVAL_DATE_TIME ( #178, #143 ) ;
#205 = EDGE_LOOP ( 'NONE', ( #166, #22, #88, #326 ) ) ;
#206 = PRODUCT_DEFINITION_FORMATION_WITH_SPECIFIED_SOURCE ( 'LIBOVOLNÝ', '', #124, .NOT_KNOWN. ) ;
#207 = EDGE_CURVE ( 'NONE', #191, #162, #232, .T. ) ;
#208 = CARTESIAN_POINT ( 'NONE',  ( 0.000000000000000000, 0.000000000000000000, 0.000000000000000000 ) ) ;
#209 = APPROVAL_ROLE ( '' ) ;
#210 = DIRECTION ( 'NONE',  ( 0.000000000000000000, 0.000000000000000000, 1.000000000000000000 ) ) ;
#211 = CARTESIAN_POINT ( 'NONE',  ( 2.799999999999999822, 0.000000000000000000, 2.999999999999998668 ) ) ;
#212 = EDGE_CURVE ( 'NONE', #342, #44, #283, .T. ) ;
#213 = FACE_OUTER_BOUND ( 'NONE', #218, .T. ) ;
#214 = DIRECTION ( 'NONE',  ( 1.000000000000000000, 0.000000000000000000, 0.000000000000000000 ) ) ;
#215 = CARTESIAN_POINT ( 'NONE',  ( 0.000000000000000000, 0.000000000000000000, 3.000000000000000000 ) ) ;
#216 = ORIENTED_EDGE ( 'NONE', *, *, #315, .F. ) ;
#217 = CARTESIAN_POINT ( 'NONE',  ( 0.000000000000000000, 0.000000000000000000, 163.0000000000000000 ) ) ;
#218 = EDGE_LOOP ( 'NONE', ( #377, #19, #309, #139 ) ) ;
#219 = DIRECTION ( 'NONE',  ( -0.000000000000000000, -0.000000000000000000, -1.000000000000000000 ) ) ;
#220 = ORIENTED_EDGE ( 'NONE', *, *, #185, .F. ) ;
#221 = DIRECTION ( 'NONE',  ( -0.000000000000000000, -0.000000000000000000, -1.000000000000000000 ) ) ;
#222 = EDGE_CURVE ( 'NONE', #191, #229, #15, .T. ) ;
#223 = VERTEX_POINT ( 'NONE', #367 ) ;
#224 = AXIS2_PLACEMENT_3D ( 'NONE', #186, #190, #130 ) ;
#225 = COORDINATED_UNIVERSAL_TIME_OFFSET ( 1, 0, .AHEAD. ) ;
#226 = CC_DESIGN_SECURITY_CLASSIFICATION ( #177, ( #206 ) ) ;
#227 = DIRECTION ( 'NONE',  ( 0.000000000000000000, 0.000000000000000000, 1.000000000000000000 ) ) ;
#228 = DATE_AND_TIME ( #380, #156 ) ;
#229 = VERTEX_POINT ( 'NONE', #211 ) ;
#230 = PRODUCT_DEFINITION_SHAPE ( 'NONE', 'NONE',  #101 ) ;
#231 = APPROVAL_STATUS ( 'not_yet_approved' ) ;
#232 = CIRCLE ( 'NONE', #85, 2.500000000000000000 ) ;
#233 = ORGANIZATION ( 'NEURÈENÝ', 'NEURÈENÝ', '' ) ;
#234 = SECURITY_CLASSIFICATION_LEVEL ( 'unclassified' ) ;
#235 = PERSON_AND_ORGANIZATION_ROLE ( 'classification_officer' ) ;
#236 = FACE_BOUND ( 'NONE', #307, .T. ) ;
#237 = CC_DESIGN_PERSON_AND_ORGANIZATION_ASSIGNMENT ( #287, #2, ( #206 ) ) ;
#238 = DATE_AND_TIME ( #264, #38 ) ;
#239 = EDGE_LOOP ( 'NONE', ( #102, #312 ) ) ;
#240 = CLOSED_SHELL ( 'NONE', ( #272, #105, #20, #180, #262, #131, #248, #116, #34, #140, #370 ) ) ;
#241 = FACE_OUTER_BOUND ( 'NONE', #167, .T. ) ;
#242 = CARTESIAN_POINT ( 'NONE',  ( 0.000000000000000000, 0.000000000000000000, 163.0000000000000000 ) ) ;
#243 = DIRECTION ( 'NONE',  ( 0.000000000000000000, -1.000000000000000000, 0.000000000000000000 ) ) ;
#244 = AXIS2_PLACEMENT_3D ( 'NONE', #3, #346, #9 ) ;
#245 = LOCAL_TIME ( 11, 16, 11.00000000000000000, #174 ) ;
#246 = CARTESIAN_POINT ( 'NONE',  ( 2.500000000000000000, 3.061616997868383141E-16, 3.299999999999997158 ) ) ;
#247 = DIRECTION ( 'NONE',  ( -0.000000000000000000, -0.000000000000000000, -1.000000000000000000 ) ) ;
#248 = ADVANCED_FACE ( 'NONE', ( #37, #188 ), #40, .F. ) ;
#249 = CARTESIAN_POINT ( 'NONE',  ( 2.500000000000000000, 3.061616997868383141E-16, 163.0000000000000000 ) ) ;
#250 = ORIENTED_EDGE ( 'NONE', *, *, #212, .T. ) ;
#251 = VECTOR ( 'NONE', #361, 1000.000000000000000 ) ;
#252 = CARTESIAN_POINT ( 'NONE',  ( 0.000000000000000000, 0.000000000000000000, 0.000000000000000000 ) ) ;
#253 = ORIENTED_EDGE ( 'NONE', *, *, #54, .T. ) ;
#254 = ORIENTED_EDGE ( 'NONE', *, *, #194, .F. ) ;
#255 = MECHANICAL_CONTEXT ( 'NONE', #192, 'mechanical' ) ;
#256 = AXIS2_PLACEMENT_3D ( 'NONE', #67, #36, #333 ) ;
#257 = PLANE ( 'NONE',  #343 ) ;
#258 = EDGE_CURVE ( 'NONE', #223, #332, #157, .T. ) ;
#259 = APPROVAL_STATUS ( 'not_yet_approved' ) ;
#260 = CIRCLE ( 'NONE', #344, 2.799999999999999822 ) ;
#261 = APPROVAL_DATE_TIME ( #238, #301 ) ;
#262 = ADVANCED_FACE ( 'NONE', ( #213 ), #13, .T. ) ;
#263 = CARTESIAN_POINT ( 'NONE',  ( 1.600000000000000089, 1.959434878635765230E-16, 163.0000000000000000 ) ) ;
#264 = CALENDAR_DATE ( 2022, 10, 7 ) ;
#265 = DIRECTION ( 'NONE',  ( 0.000000000000000000, 0.000000000000000000, 1.000000000000000000 ) ) ;
#266 = CARTESIAN_POINT ( 'NONE',  ( 0.000000000000000000, 0.000000000000000000, 163.0000000000000000 ) ) ;
#267 = DIRECTION ( 'NONE',  ( -1.000000000000000000, 0.000000000000000000, 0.000000000000000000 ) ) ;
#268 = PRODUCT_RELATED_PRODUCT_CATEGORY ( 'detail', '', ( #124 ) ) ;
#269 = DIRECTION ( 'NONE',  ( 1.000000000000000000, 0.000000000000000000, -0.000000000000000000 ) ) ;
#270 = CARTESIAN_POINT ( 'NONE',  ( 0.000000000000000000, 0.000000000000000000, 163.0000000000000000 ) ) ;
#271 = CARTESIAN_POINT ( 'NONE',  ( 2.500000000000000000, 3.061616997868383141E-16, 163.0000000000000000 ) ) ;
#272 = ADVANCED_FACE ( 'NONE', ( #14 ), #103, .F. ) ;
#273 = ORIENTED_EDGE ( 'NONE', *, *, #288, .T. ) ;
#274 = DIRECTION ( 'NONE',  ( -1.000000000000000000, 0.000000000000000000, 0.000000000000000000 ) ) ;
#275 = CARTESIAN_POINT ( 'NONE',  ( 0.000000000000000000, 0.000000000000000000, 3.000000000000000000 ) ) ;
#276 = ORIENTED_EDGE ( 'NONE', *, *, #149, .T. ) ;
#277 = AXIS2_PLACEMENT_3D ( 'NONE', #35, #302, #269 ) ;
#278 = EDGE_CURVE ( 'NONE', #195, #175, #115, .T. ) ;
#279 = VERTEX_POINT ( 'NONE', #161 ) ;
#280 = ORIENTED_EDGE ( 'NONE', *, *, #87, .T. ) ;
#281 = DIRECTION ( 'NONE',  ( 0.000000000000000000, 0.000000000000000000, -1.000000000000000000 ) ) ;
#282 = CARTESIAN_POINT ( 'NONE',  ( 0.000000000000000000, 0.000000000000000000, 163.0000000000000000 ) ) ;
#283 = CIRCLE ( 'NONE', #351, 1.600000000000000089 ) ;
#284 = PERSON_AND_ORGANIZATION ( #163, #233 ) ;
#285 = CC_DESIGN_APPROVAL ( #143, ( #177 ) ) ;
#286 = CC_DESIGN_PERSON_AND_ORGANIZATION_ASSIGNMENT ( #284, #84, ( #101 ) ) ;
#287 = PERSON_AND_ORGANIZATION ( #163, #233 ) ;
#288 = EDGE_CURVE ( 'NONE', #4, #39, #1, .T. ) ;
#289 = COORDINATED_UNIVERSAL_TIME_OFFSET ( 1, 0, .AHEAD. ) ;
#290 = TOROIDAL_SURFACE ( 'NONE', #128, 2.799999999999999822, 0.2999999999999999889 ) ;
#291 = CC_DESIGN_APPROVAL ( #301, ( #206 ) ) ;
#292 = ORIENTED_EDGE ( 'NONE', *, *, #57, .T. ) ;
#293 = PERSON_AND_ORGANIZATION ( #163, #233 ) ;
#294 = ORIENTED_EDGE ( 'NONE', *, *, #54, .F. ) ;
#295 = DATE_AND_TIME ( #117, #245 ) ;
#296 = ORIENTED_EDGE ( 'NONE', *, *, #278, .F. ) ;
#297 = FACE_BOUND ( 'NONE', #62, .T. ) ;
#298 = CIRCLE ( 'NONE', #244, 2.500000000000000000 ) ;
#299 = APPROVAL_PERSON_ORGANIZATION ( #145, #301, #209 ) ;
#300 = DIRECTION ( 'NONE',  ( 0.000000000000000000, 0.000000000000000000, -1.000000000000000000 ) ) ;
#301 = APPROVAL ( #259, 'NEURÈENÝ' ) ;
#302 = DIRECTION ( 'NONE',  ( 0.000000000000000000, 0.000000000000000000, 1.000000000000000000 ) ) ;
#303 = VECTOR ( 'NONE', #327, 1000.000000000000000 ) ;
#304 = DIRECTION ( 'NONE',  ( 0.000000000000000000, 0.000000000000000000, 1.000000000000000000 ) ) ;
#305 = ORIENTED_EDGE ( 'NONE', *, *, #87, .F. ) ;
#306 = DIRECTION ( 'NONE',  ( 0.000000000000000000, 0.000000000000000000, 1.000000000000000000 ) ) ;
#307 = EDGE_LOOP ( 'NONE', ( #196, #292 ) ) ;
#308 = DIRECTION ( 'NONE',  ( 1.224646799147353207E-16, 1.000000000000000000, -0.000000000000000000 ) ) ;
#309 = ORIENTED_EDGE ( 'NONE', *, *, #258, .T. ) ;
#310 = AXIS2_PLACEMENT_3D ( 'NONE', #92, #182, #359 ) ;
#311 = DIRECTION ( 'NONE',  ( -1.000000000000000000, 1.224646799147353207E-16, 0.000000000000000000 ) ) ;
#312 = ORIENTED_EDGE ( 'NONE', *, *, #95, .F. ) ;
#313 =( LENGTH_UNIT ( ) NAMED_UNIT ( * ) SI_UNIT ( .MILLI., .METRE. ) );
#314 = CARTESIAN_POINT ( 'NONE',  ( 0.000000000000000000, 0.000000000000000000, 3.299999999999997158 ) ) ;
#315 = EDGE_CURVE ( 'NONE', #229, #279, #260, .T. ) ;
#316 = PERSON_AND_ORGANIZATION_ROLE ( 'design_owner' ) ;
#317 = CARTESIAN_POINT ( 'NONE',  ( 5.000000000000000000, 6.123233995736766282E-16, 3.000000000000000000 ) ) ;
#318 = CIRCLE ( 'NONE', #76, 5.000000000000000000 ) ;
#319 = SHAPE_DEFINITION_REPRESENTATION ( #230, #47 ) ;
#320 = PERSON_AND_ORGANIZATION ( #163, #233 ) ;
#321 = AXIS2_PLACEMENT_3D ( 'NONE', #159, #127, #274 ) ;
#322 = APPROVAL_PERSON_ORGANIZATION ( #172, #376, #109 ) ;
#323 = DIRECTION ( 'NONE',  ( 1.000000000000000000, 0.000000000000000000, 0.000000000000000000 ) ) ;
#324 = DIRECTION ( 'NONE',  ( 1.000000000000000000, 0.000000000000000000, 0.000000000000000000 ) ) ;
#325 = PERSON_AND_ORGANIZATION_ROLE ( 'creator' ) ;
#326 = ORIENTED_EDGE ( 'NONE', *, *, #57, .F. ) ;
#327 = DIRECTION ( 'NONE',  ( -0.000000000000000000, -0.000000000000000000, -1.000000000000000000 ) ) ;
#328 = AXIS2_PLACEMENT_3D ( 'NONE', #217, #338, #72 ) ;
#329 = LINE ( 'NONE', #134, #251 ) ;
#330 = EDGE_CURVE ( 'NONE', #162, #279, #144, .T. ) ;
#331 = DIRECTION ( 'NONE',  ( 0.000000000000000000, 0.000000000000000000, 1.000000000000000000 ) ) ;
#332 = VERTEX_POINT ( 'NONE', #107 ) ;
#333 = DIRECTION ( 'NONE',  ( 1.000000000000000000, 0.000000000000000000, 0.000000000000000000 ) ) ;
#334 = AXIS2_PLACEMENT_3D ( 'NONE', #148, #357, #267 ) ;
#335 = VECTOR ( 'NONE', #81, 1000.000000000000000 ) ;
#336 = EDGE_LOOP ( 'NONE', ( #160, #181, #369, #78 ) ) ;
#337 = AXIS2_PLACEMENT_3D ( 'NONE', #373, #197, #46 ) ;
#338 = DIRECTION ( 'NONE',  ( 0.000000000000000000, 0.000000000000000000, -1.000000000000000000 ) ) ;
#339 = ORIENTED_EDGE ( 'NONE', *, *, #207, .T. ) ;
#340 = CARTESIAN_POINT ( 'NONE',  ( 0.000000000000000000, 0.000000000000000000, 3.000000000000000000 ) ) ;
#341 = ORIENTED_EDGE ( 'NONE', *, *, #347, .F. ) ;
#342 = VERTEX_POINT ( 'NONE', #23 ) ;
#343 = AXIS2_PLACEMENT_3D ( 'NONE', #59, #265, #381 ) ;
#344 = AXIS2_PLACEMENT_3D ( 'NONE', #340, #219, #200 ) ;
#345 = LINE ( 'NONE', #49, #335 ) ;
#346 = DIRECTION ( 'NONE',  ( 0.000000000000000000, 0.000000000000000000, 1.000000000000000000 ) ) ;
#347 = EDGE_CURVE ( 'NONE', #195, #162, #345, .T. ) ;
#348 = CYLINDRICAL_SURFACE ( 'NONE', #98, 1.600000000000000089 ) ;
#349 = PLANE ( 'NONE',  #97 ) ;
#350 = CARTESIAN_POINT ( 'NONE',  ( 5.000000000000000000, 6.123233995736766282E-16, 0.000000000000000000 ) ) ;
#351 = AXIS2_PLACEMENT_3D ( 'NONE', #68, #64, #10 ) ;
#352 = EDGE_CURVE ( 'NONE', #44, #342, #363, .T. ) ;
#353 = DATE_TIME_ROLE ( 'classification_date' ) ;
#354 = EDGE_LOOP ( 'NONE', ( #374, #133, #280, #250 ) ) ;
#355 = CALENDAR_DATE ( 2022, 10, 7 ) ;
#356 = LOCAL_TIME ( 11, 16, 11.00000000000000000, #55 ) ;
#357 = DIRECTION ( 'NONE',  ( -0.000000000000000000, -0.000000000000000000, -1.000000000000000000 ) ) ;
#358 = EDGE_CURVE ( 'NONE', #332, #366, #27, .T. ) ;
#359 = DIRECTION ( 'NONE',  ( 1.000000000000000000, 0.000000000000000000, 0.000000000000000000 ) ) ;
#360 = CYLINDRICAL_SURFACE ( 'NONE', #32, 5.000000000000000000 ) ;
#361 = DIRECTION ( 'NONE',  ( 0.000000000000000000, 0.000000000000000000, -1.000000000000000000 ) ) ;
#362 = EDGE_CURVE ( 'NONE', #135, #366, #74, .T. ) ;
#363 = CIRCLE ( 'NONE', #16, 1.600000000000000089 ) ;
#364 = LINE ( 'NONE', #271, #155 ) ;
#365 = CARTESIAN_POINT ( 'NONE',  ( -5.000000000000000000, 0.000000000000000000, 3.000000000000000000 ) ) ;
#366 = VERTEX_POINT ( 'NONE', #350 ) ;
#367 = CARTESIAN_POINT ( 'NONE',  ( -5.000000000000000000, 0.000000000000000000, 3.000000000000000000 ) ) ;
#368 = CIRCLE ( 'NONE', #136, 5.000000000000000000 ) ;
#369 = ORIENTED_EDGE ( 'NONE', *, *, #95, .T. ) ;
#370 = ADVANCED_FACE ( 'NONE', ( #165 ), #348, .F. ) ;
#371 = DIRECTION ( 'NONE',  ( 0.000000000000000000, 0.000000000000000000, 1.000000000000000000 ) ) ;
#372 = ORIENTED_EDGE ( 'NONE', *, *, #153, .T. ) ;
#373 = CARTESIAN_POINT ( 'NONE',  ( 0.000000000000000000, 0.000000000000000000, 0.000000000000000000 ) ) ;
#374 = ORIENTED_EDGE ( 'NONE', *, *, #149, .F. ) ;
#375 = PERSON_AND_ORGANIZATION ( #163, #233 ) ;
#376 = APPROVAL ( #231, 'NEURÈENÝ' ) ;
#377 = ORIENTED_EDGE ( 'NONE', *, *, #362, .F. ) ;
#378 = AXIS2_PLACEMENT_3D ( 'NONE', #193, #306, #42 ) ;
#379 = CC_DESIGN_APPROVAL ( #376, ( #101 ) ) ;
#380 = CALENDAR_DATE ( 2022, 10, 7 ) ;
#381 = DIRECTION ( 'NONE',  ( 1.000000000000000000, 0.000000000000000000, -0.000000000000000000 ) ) ;
ENDSEC;
END-ISO-10303-21;
