ISO-10303-21;
HEADER;
FILE_DESCRIPTION (( 'STEP AP203' ),
    '1' );
FILE_NAME ('23e6.STEP',
    '2022-07-10T09:17:52',
    ( '' ),
    ( '' ),
    'SwSTEP 2.0',
    'SolidWorks 2019',
    '' );
FILE_SCHEMA (( 'CONFIG_CONTROL_DESIGN' ));
ENDSEC;

DATA;
#1 = ADVANCED_FACE ( 'NONE', ( #283, #265 ), #179, .F. ) ;
#2 = ORIENTED_EDGE ( 'NONE', *, *, #375, .F. ) ;
#3 = DIRECTION ( 'NONE',  ( 1.000000000000000000, 0.000000000000000000, 0.000000000000000000 ) ) ;
#4 = PERSON_AND_ORGANIZATION ( #289, #73 ) ;
#5 = AXIS2_PLACEMENT_3D ( 'NONE', #318, #195, #56 ) ;
#6 = VERTEX_POINT ( 'NONE', #171 ) ;
#7 = DIRECTION ( 'NONE',  ( -0.000000000000000000, -0.000000000000000000, -1.000000000000000000 ) ) ;
#8 = COORDINATED_UNIVERSAL_TIME_OFFSET ( 1, 0, .AHEAD. ) ;
#9 = CARTESIAN_POINT ( 'NONE',  ( 0.000000000000000000, 0.000000000000000000, 3.000000000000000000 ) ) ;
#10 = APPROVAL_ROLE ( '' ) ;
#11 = DIRECTION ( 'NONE',  ( 0.000000000000000000, 0.000000000000000000, 1.000000000000000000 ) ) ;
#12 = APPROVAL ( #87, 'NEURÈENÝ' ) ;
#13 = SECURITY_CLASSIFICATION_LEVEL ( 'unclassified' ) ;
#14 = DIRECTION ( 'NONE',  ( 0.000000000000000000, 0.000000000000000000, 1.000000000000000000 ) ) ;
#15 = CC_DESIGN_APPROVAL ( #295, ( #339 ) ) ;
#16 = EDGE_CURVE ( 'NONE', #359, #180, #371, .T. ) ;
#17 = AXIS2_PLACEMENT_3D ( 'NONE', #9, #64, #128 ) ;
#18 = ORIENTED_EDGE ( 'NONE', *, *, #259, .F. ) ;
#19 = ORIENTED_EDGE ( 'NONE', *, *, #46, .F. ) ;
#20 = EDGE_CURVE ( 'NONE', #106, #359, #347, .T. ) ;
#21 = CARTESIAN_POINT ( 'NONE',  ( -5.000000000000000000, 0.000000000000000000, 0.000000000000000000 ) ) ;
#22 = PLANE ( 'NONE',  #182 ) ;
#23 = DIRECTION ( 'NONE',  ( 1.000000000000000000, 0.000000000000000000, 0.000000000000000000 ) ) ;
#24 = DIRECTION ( 'NONE',  ( 0.000000000000000000, 0.000000000000000000, 1.000000000000000000 ) ) ;
#25 = CARTESIAN_POINT ( 'NONE',  ( 0.000000000000000000, 0.000000000000000000, 3.299999999999997158 ) ) ;
#26 = CIRCLE ( 'NONE', #212, 2.500000000000000000 ) ;
#27 = AXIS2_PLACEMENT_3D ( 'NONE', #268, #68, #292 ) ;
#28 = DIRECTION ( 'NONE',  ( 1.000000000000000000, 0.000000000000000000, 0.000000000000000000 ) ) ;
#29 = ORIENTED_EDGE ( 'NONE', *, *, #41, .T. ) ;
#30 = DIRECTION ( 'NONE',  ( 0.000000000000000000, 0.000000000000000000, 1.000000000000000000 ) ) ;
#31 = CC_DESIGN_PERSON_AND_ORGANIZATION_ASSIGNMENT ( #4, #267, ( #309 ) ) ;
#32 = EDGE_LOOP ( 'NONE', ( #370, #86, #77, #88 ) ) ;
#33 = CARTESIAN_POINT ( 'NONE',  ( 0.000000000000000000, 0.000000000000000000, 0.000000000000000000 ) ) ;
#34 = AXIS2_PLACEMENT_3D ( 'NONE', #373, #319, #313 ) ;
#35 = CARTESIAN_POINT ( 'NONE',  ( 5.000000000000000000, 6.123233995736766282E-16, 0.000000000000000000 ) ) ;
#36 = PERSON_AND_ORGANIZATION_ROLE ( 'design_owner' ) ;
#37 = CARTESIAN_POINT ( 'NONE',  ( -1.500000000000000222, 0.000000000000000000, 0.000000000000000000 ) ) ;
#38 = SHAPE_DEFINITION_REPRESENTATION ( #281, #71 ) ;
#39 = CARTESIAN_POINT ( 'NONE',  ( 5.000000000000000000, 6.123233995736766282E-16, 3.000000000000000000 ) ) ;
#40 = AXIS2_PLACEMENT_3D ( 'NONE', #284, #144, #380 ) ;
#41 = EDGE_CURVE ( 'NONE', #203, #92, #58, .T. ) ;
#42 = ORIENTED_EDGE ( 'NONE', *, *, #50, .T. ) ;
#43 = CIRCLE ( 'NONE', #98, 2.799999999999999822 ) ;
#44 = LOCAL_TIME ( 11, 17, 52.00000000000000000, #121 ) ;
#45 = ORIENTED_EDGE ( 'NONE', *, *, #41, .F. ) ;
#46 = EDGE_CURVE ( 'NONE', #230, #306, #254, .T. ) ;
#47 = VERTEX_POINT ( 'NONE', #142 ) ;
#48 = CARTESIAN_POINT ( 'NONE',  ( 0.000000000000000000, 0.000000000000000000, 0.000000000000000000 ) ) ;
#49 = AXIS2_PLACEMENT_3D ( 'NONE', #130, #301, #93 ) ;
#50 = EDGE_CURVE ( 'NONE', #247, #293, #151, .T. ) ;
#51 = CARTESIAN_POINT ( 'NONE',  ( 2.500000000000000000, 3.061616997868383141E-16, 128.0000000000000000 ) ) ;
#52 = DIRECTION ( 'NONE',  ( 1.000000000000000000, 0.000000000000000000, 0.000000000000000000 ) ) ;
#53 = DIRECTION ( 'NONE',  ( -1.000000000000000000, 0.000000000000000000, 0.000000000000000000 ) ) ;
#54 = DIRECTION ( 'NONE',  ( 0.000000000000000000, 0.000000000000000000, -1.000000000000000000 ) ) ;
#55 = PRODUCT ( '23e6', '23e6', '', ( #294 ) ) ;
#56 = DIRECTION ( 'NONE',  ( 1.000000000000000000, 0.000000000000000000, -0.000000000000000000 ) ) ;
#57 = DIRECTION ( 'NONE',  ( -0.000000000000000000, -0.000000000000000000, -1.000000000000000000 ) ) ;
#58 = CIRCLE ( 'NONE', #159, 5.000000000000000000 ) ;
#59 = PRODUCT_DEFINITION_FORMATION_WITH_SPECIFIED_SOURCE ( 'LIBOVOLNÝ', '', #55, .NOT_KNOWN. ) ;
#60 = ADVANCED_FACE ( 'NONE', ( #199 ), #90, .T. ) ;
#61 = DIRECTION ( 'NONE',  ( 0.000000000000000000, 0.000000000000000000, 1.000000000000000000 ) ) ;
#62 = APPROVAL_ROLE ( '' ) ;
#63 = ORIENTED_EDGE ( 'NONE', *, *, #78, .F. ) ;
#64 = DIRECTION ( 'NONE',  ( -0.000000000000000000, -0.000000000000000000, -1.000000000000000000 ) ) ;
#65 = DIRECTION ( 'NONE',  ( -0.000000000000000000, -0.000000000000000000, -1.000000000000000000 ) ) ;
#66 = CARTESIAN_POINT ( 'NONE',  ( 0.000000000000000000, 0.000000000000000000, 0.000000000000000000 ) ) ;
#67 = VERTEX_POINT ( 'NONE', #114 ) ;
#68 = DIRECTION ( 'NONE',  ( 0.000000000000000000, 0.000000000000000000, 1.000000000000000000 ) ) ;
#69 = PERSON_AND_ORGANIZATION ( #289, #73 ) ;
#70 = VECTOR ( 'NONE', #84, 1000.000000000000000 ) ;
#71 = ADVANCED_BREP_SHAPE_REPRESENTATION ( '23e6', ( #314, #285 ), #162 ) ;
#72 = ADVANCED_FACE ( 'NONE', ( #349 ), #233, .F. ) ;
#73 = ORGANIZATION ( 'NEURÈENÝ', 'NEURÈENÝ', '' ) ;
#74 = ORIENTED_EDGE ( 'NONE', *, *, #133, .T. ) ;
#75 = CC_DESIGN_PERSON_AND_ORGANIZATION_ASSIGNMENT ( #332, #36, ( #55 ) ) ;
#76 = CIRCLE ( 'NONE', #343, 1.500000000000000222 ) ;
#77 = ORIENTED_EDGE ( 'NONE', *, *, #133, .F. ) ;
#78 = EDGE_CURVE ( 'NONE', #106, #67, #26, .T. ) ;
#79 = FACE_OUTER_BOUND ( 'NONE', #263, .T. ) ;
#80 = AXIS2_PLACEMENT_3D ( 'NONE', #33, #256, #197 ) ;
#81 = DIRECTION ( 'NONE',  ( 0.000000000000000000, 0.000000000000000000, 1.000000000000000000 ) ) ;
#82 = CARTESIAN_POINT ( 'NONE',  ( 0.000000000000000000, 0.000000000000000000, 128.0000000000000000 ) ) ;
#83 = DIRECTION ( 'NONE',  ( 0.000000000000000000, -1.000000000000000000, 0.000000000000000000 ) ) ;
#84 = DIRECTION ( 'NONE',  ( -0.000000000000000000, -0.000000000000000000, -1.000000000000000000 ) ) ;
#85 = DIRECTION ( 'NONE',  ( 1.000000000000000000, 0.000000000000000000, 0.000000000000000000 ) ) ;
#86 = ORIENTED_EDGE ( 'NONE', *, *, #259, .T. ) ;
#87 = APPROVAL_STATUS ( 'not_yet_approved' ) ;
#88 = ORIENTED_EDGE ( 'NONE', *, *, #218, .F. ) ;
#89 = DIRECTION ( 'NONE',  ( 1.000000000000000000, 0.000000000000000000, 0.000000000000000000 ) ) ;
#90 = CYLINDRICAL_SURFACE ( 'NONE', #361, 2.500000000000000000 ) ;
#91 = DIRECTION ( 'NONE',  ( 1.000000000000000000, 0.000000000000000000, 0.000000000000000000 ) ) ;
#92 = VERTEX_POINT ( 'NONE', #147 ) ;
#93 = DIRECTION ( 'NONE',  ( 1.000000000000000000, 0.000000000000000000, 0.000000000000000000 ) ) ;
#94 = DATE_AND_TIME ( #202, #99 ) ;
#95 = EDGE_LOOP ( 'NONE', ( #211, #369 ) ) ;
#96 =( LENGTH_UNIT ( ) NAMED_UNIT ( * ) SI_UNIT ( .MILLI., .METRE. ) );
#97 = APPROVAL_DATE_TIME ( #364, #12 ) ;
#98 = AXIS2_PLACEMENT_3D ( 'NONE', #115, #109, #194 ) ;
#99 = LOCAL_TIME ( 11, 17, 52.00000000000000000, #358 ) ;
#100 =( NAMED_UNIT ( * ) PLANE_ANGLE_UNIT ( ) SI_UNIT ( $, .RADIAN. ) );
#101 = DATE_AND_TIME ( #156, #131 ) ;
#102 = FACE_OUTER_BOUND ( 'NONE', #274, .T. ) ;
#103 = EDGE_CURVE ( 'NONE', #47, #276, #200, .T. ) ;
#104 = CIRCLE ( 'NONE', #368, 2.500000000000000000 ) ;
#105 = EDGE_CURVE ( 'NONE', #107, #230, #234, .T. ) ;
#106 = VERTEX_POINT ( 'NONE', #51 ) ;
#107 = VERTEX_POINT ( 'NONE', #224 ) ;
#108 = EDGE_CURVE ( 'NONE', #180, #359, #104, .T. ) ;
#109 = DIRECTION ( 'NONE',  ( -0.000000000000000000, -0.000000000000000000, -1.000000000000000000 ) ) ;
#110 = CYLINDRICAL_SURFACE ( 'NONE', #120, 2.500000000000000000 ) ;
#111 = EDGE_LOOP ( 'NONE', ( #356, #323, #136, #190 ) ) ;
#112 = AXIS2_PLACEMENT_3D ( 'NONE', #342, #348, #227 ) ;
#113 = CARTESIAN_POINT ( 'NONE',  ( 0.000000000000000000, 0.000000000000000000, 128.0000000000000000 ) ) ;
#114 = CARTESIAN_POINT ( 'NONE',  ( -2.500000000000000000, 0.000000000000000000, 128.0000000000000000 ) ) ;
#115 = CARTESIAN_POINT ( 'NONE',  ( 0.000000000000000000, 0.000000000000000000, 3.000000000000000000 ) ) ;
#116 = DIRECTION ( 'NONE',  ( 1.000000000000000000, 0.000000000000000000, 0.000000000000000000 ) ) ;
#117 = ORIENTED_EDGE ( 'NONE', *, *, #277, .F. ) ;
#118 = DIRECTION ( 'NONE',  ( 1.000000000000000000, 0.000000000000000000, 0.000000000000000000 ) ) ;
#119 = AXIS2_PLACEMENT_3D ( 'NONE', #321, #61, #176 ) ;
#120 = AXIS2_PLACEMENT_3D ( 'NONE', #113, #174, #165 ) ;
#121 = COORDINATED_UNIVERSAL_TIME_OFFSET ( 1, 0, .AHEAD. ) ;
#122 = ORIENTED_EDGE ( 'NONE', *, *, #50, .F. ) ;
#123 = EDGE_CURVE ( 'NONE', #107, #6, #193, .T. ) ;
#124 = CARTESIAN_POINT ( 'NONE',  ( 0.000000000000000000, 0.000000000000000000, 3.299999999999997158 ) ) ;
#125 = ORIENTED_EDGE ( 'NONE', *, *, #103, .F. ) ;
#126 = CALENDAR_DATE ( 2022, 10, 7 ) ;
#127 = EDGE_LOOP ( 'NONE', ( #237, #252, #351, #336 ) ) ;
#128 = DIRECTION ( 'NONE',  ( -1.000000000000000000, 0.000000000000000000, 0.000000000000000000 ) ) ;
#129 = COORDINATED_UNIVERSAL_TIME_OFFSET ( 1, 0, .AHEAD. ) ;
#130 = CARTESIAN_POINT ( 'NONE',  ( 0.000000000000000000, 0.000000000000000000, 128.0000000000000000 ) ) ;
#131 = LOCAL_TIME ( 11, 17, 52.00000000000000000, #8 ) ;
#132 = DIRECTION ( 'NONE',  ( -1.000000000000000000, 1.224646799147353207E-16, 0.000000000000000000 ) ) ;
#133 = EDGE_CURVE ( 'NONE', #276, #47, #43, .T. ) ;
#134 = VECTOR ( 'NONE', #245, 1000.000000000000000 ) ;
#135 = ORIENTED_EDGE ( 'NONE', *, *, #168, .F. ) ;
#136 = ORIENTED_EDGE ( 'NONE', *, *, #241, .T. ) ;
#137 = VECTOR ( 'NONE', #204, 1000.000000000000000 ) ;
#138 = DIRECTION ( 'NONE',  ( 0.000000000000000000, 0.000000000000000000, -1.000000000000000000 ) ) ;
#139 = DIRECTION ( 'NONE',  ( 0.000000000000000000, 0.000000000000000000, 1.000000000000000000 ) ) ;
#140 = FACE_OUTER_BOUND ( 'NONE', #222, .T. ) ;
#141 = EDGE_CURVE ( 'NONE', #203, #247, #191, .T. ) ;
#142 = CARTESIAN_POINT ( 'NONE',  ( -2.799999999999999822, 3.429011037612589276E-16, 2.999999999999998668 ) ) ;
#143 = CIRCLE ( 'NONE', #297, 0.2999999999999999334 ) ;
#144 = DIRECTION ( 'NONE',  ( 0.000000000000000000, 0.000000000000000000, -1.000000000000000000 ) ) ;
#145 = CARTESIAN_POINT ( 'NONE',  ( 0.000000000000000000, 0.000000000000000000, 3.000000000000000000 ) ) ;
#146 = EDGE_LOOP ( 'NONE', ( #2, #19 ) ) ;
#147 = CARTESIAN_POINT ( 'NONE',  ( 5.000000000000000000, 6.123233995736766282E-16, 3.000000000000000000 ) ) ;
#148 = ADVANCED_FACE ( 'NONE', ( #140 ), #280, .F. ) ;
#149 = EDGE_LOOP ( 'NONE', ( #122, #184 ) ) ;
#150 = ORIENTED_EDGE ( 'NONE', *, *, #232, .T. ) ;
#151 = CIRCLE ( 'NONE', #80, 5.000000000000000000 ) ;
#152 = DATE_AND_TIME ( #334, #235 ) ;
#153 = CARTESIAN_POINT ( 'NONE',  ( 2.799999999999999822, 0.000000000000000000, 2.999999999999998668 ) ) ;
#154 = CALENDAR_DATE ( 2022, 10, 7 ) ;
#155 = CARTESIAN_POINT ( 'NONE',  ( 0.000000000000000000, 0.000000000000000000, 3.000000000000000000 ) ) ;
#156 = CALENDAR_DATE ( 2022, 10, 7 ) ;
#157 = CARTESIAN_POINT ( 'NONE',  ( 0.000000000000000000, 0.000000000000000000, 0.000000000000000000 ) ) ;
#158 = ADVANCED_FACE ( 'NONE', ( #79 ), #253, .T. ) ;
#159 = AXIS2_PLACEMENT_3D ( 'NONE', #145, #24, #381 ) ;
#160 = AXIS2_PLACEMENT_3D ( 'NONE', #209, #296, #132 ) ;
#161 = EDGE_LOOP ( 'NONE', ( #29, #288 ) ) ;
#162 =( GEOMETRIC_REPRESENTATION_CONTEXT ( 3 ) GLOBAL_UNCERTAINTY_ASSIGNED_CONTEXT ( ( #357 ) ) GLOBAL_UNIT_ASSIGNED_CONTEXT ( ( #96, #100, #215 ) ) REPRESENTATION_CONTEXT ( 'NONE', 'WORKASPACE' ) );
#163 = ORIENTED_EDGE ( 'NONE', *, *, #141, .F. ) ;
#164 = CC_DESIGN_DATE_AND_TIME_ASSIGNMENT ( #101, #355, ( #309 ) ) ;
#165 = DIRECTION ( 'NONE',  ( -1.000000000000000000, 0.000000000000000000, 0.000000000000000000 ) ) ;
#166 = DIRECTION ( 'NONE',  ( 0.000000000000000000, 0.000000000000000000, 1.000000000000000000 ) ) ;
#167 = LINE ( 'NONE', #282, #363 ) ;
#168 = EDGE_CURVE ( 'NONE', #92, #203, #172, .T. ) ;
#169 = ORIENTED_EDGE ( 'NONE', *, *, #103, .T. ) ;
#170 = DIRECTION ( 'NONE',  ( 0.000000000000000000, 0.000000000000000000, 1.000000000000000000 ) ) ;
#171 = CARTESIAN_POINT ( 'NONE',  ( -1.500000000000000222, 0.000000000000000000, 128.0000000000000000 ) ) ;
#172 = CIRCLE ( 'NONE', #307, 5.000000000000000000 ) ;
#173 = APPROVAL_PERSON_ORGANIZATION ( #210, #295, #62 ) ;
#174 = DIRECTION ( 'NONE',  ( -0.000000000000000000, -0.000000000000000000, -1.000000000000000000 ) ) ;
#175 = ORIENTED_EDGE ( 'NONE', *, *, #218, .T. ) ;
#176 = DIRECTION ( 'NONE',  ( 1.000000000000000000, 0.000000000000000000, 0.000000000000000000 ) ) ;
#177 = ORIENTED_EDGE ( 'NONE', *, *, #367, .T. ) ;
#178 = DESIGN_CONTEXT ( 'detailed design', #341, 'design' ) ;
#179 = PLANE ( 'NONE',  #5 ) ;
#180 = VERTEX_POINT ( 'NONE', #198 ) ;
#181 = CARTESIAN_POINT ( 'NONE',  ( -1.500000000000000222, 0.000000000000000000, 128.0000000000000000 ) ) ;
#182 = AXIS2_PLACEMENT_3D ( 'NONE', #229, #139, #251 ) ;
#183 = PERSON_AND_ORGANIZATION_ROLE ( 'design_supplier' ) ;
#184 = ORIENTED_EDGE ( 'NONE', *, *, #232, .F. ) ;
#185 = PERSON_AND_ORGANIZATION ( #289, #73 ) ;
#186 = DIRECTION ( 'NONE',  ( 1.000000000000000000, 0.000000000000000000, -0.000000000000000000 ) ) ;
#187 = ADVANCED_FACE ( 'NONE', ( #192, #311 ), #22, .T. ) ;
#188 = EDGE_LOOP ( 'NONE', ( #63, #338, #291, #226 ) ) ;
#189 = CIRCLE ( 'NONE', #160, 0.2999999999999999334 ) ;
#190 = ORIENTED_EDGE ( 'NONE', *, *, #108, .T. ) ;
#191 = LINE ( 'NONE', #249, #305 ) ;
#192 = FACE_BOUND ( 'NONE', #379, .T. ) ;
#193 = CIRCLE ( 'NONE', #34, 1.500000000000000222 ) ;
#194 = DIRECTION ( 'NONE',  ( 1.000000000000000000, 0.000000000000000000, 0.000000000000000000 ) ) ;
#195 = DIRECTION ( 'NONE',  ( 0.000000000000000000, 0.000000000000000000, 1.000000000000000000 ) ) ;
#196 = FACE_OUTER_BOUND ( 'NONE', #188, .T. ) ;
#197 = DIRECTION ( 'NONE',  ( 1.000000000000000000, 0.000000000000000000, 0.000000000000000000 ) ) ;
#198 = CARTESIAN_POINT ( 'NONE',  ( -2.500000000000000000, 0.000000000000000000, 3.299999999999997158 ) ) ;
#199 = FACE_OUTER_BOUND ( 'NONE', #111, .T. ) ;
#200 = CIRCLE ( 'NONE', #219, 2.799999999999999822 ) ;
#201 = AXIS2_PLACEMENT_3D ( 'NONE', #48, #81, #52 ) ;
#202 = CALENDAR_DATE ( 2022, 10, 7 ) ;
#203 = VERTEX_POINT ( 'NONE', #374 ) ;
#204 = DIRECTION ( 'NONE',  ( -0.000000000000000000, -0.000000000000000000, -1.000000000000000000 ) ) ;
#205 = ORIENTED_EDGE ( 'NONE', *, *, #352, .F. ) ;
#206 = APPLICATION_CONTEXT ( 'configuration controlled 3d designs of mechanical parts and assemblies' ) ;
#207 = APPLICATION_PROTOCOL_DEFINITION ( 'international standard', 'config_control_design', 1994, #206 ) ;
#208 = EDGE_LOOP ( 'NONE', ( #74, #169 ) ) ;
#209 = CARTESIAN_POINT ( 'NONE',  ( -2.799999999999999822, 3.429011037612588783E-16, 3.299999999999997158 ) ) ;
#210 = PERSON_AND_ORGANIZATION ( #289, #73 ) ;
#211 = ORIENTED_EDGE ( 'NONE', *, *, #302, .T. ) ;
#212 = AXIS2_PLACEMENT_3D ( 'NONE', #290, #30, #3 ) ;
#213 = DIRECTION ( 'NONE',  ( 0.000000000000000000, 0.000000000000000000, 1.000000000000000000 ) ) ;
#214 = ADVANCED_FACE ( 'NONE', ( #196 ), #110, .T. ) ;
#215 =( NAMED_UNIT ( * ) SI_UNIT ( $, .STERADIAN. ) SOLID_ANGLE_UNIT ( ) );
#216 = PERSON_AND_ORGANIZATION ( #289, #73 ) ;
#217 = CYLINDRICAL_SURFACE ( 'NONE', #17, 5.000000000000000000 ) ;
#218 = EDGE_CURVE ( 'NONE', #359, #276, #143, .T. ) ;
#219 = AXIS2_PLACEMENT_3D ( 'NONE', #261, #7, #118 ) ;
#220 = CIRCLE ( 'NONE', #27, 2.500000000000000000 ) ;
#221 = ORIENTED_EDGE ( 'NONE', *, *, #123, .F. ) ;
#222 = EDGE_LOOP ( 'NONE', ( #260, #308, #315, #117 ) ) ;
#223 = CC_DESIGN_SECURITY_CLASSIFICATION ( #339, ( #59 ) ) ;
#224 = CARTESIAN_POINT ( 'NONE',  ( 1.500000000000000222, 1.836970198721030181E-16, 128.0000000000000000 ) ) ;
#225 = CARTESIAN_POINT ( 'NONE',  ( 1.500000000000000222, 1.836970198721030181E-16, 0.000000000000000000 ) ) ;
#226 = ORIENTED_EDGE ( 'NONE', *, *, #241, .F. ) ;
#227 = DIRECTION ( 'NONE',  ( -1.000000000000000000, 0.000000000000000000, 0.000000000000000000 ) ) ;
#228 = DIRECTION ( 'NONE',  ( -0.000000000000000000, -0.000000000000000000, -1.000000000000000000 ) ) ;
#229 = CARTESIAN_POINT ( 'NONE',  ( 0.000000000000000000, 0.000000000000000000, 128.0000000000000000 ) ) ;
#230 = VERTEX_POINT ( 'NONE', #225 ) ;
#231 = ORIENTED_EDGE ( 'NONE', *, *, #367, .F. ) ;
#232 = EDGE_CURVE ( 'NONE', #293, #247, #320, .T. ) ;
#233 = TOROIDAL_SURFACE ( 'NONE', #119, 2.799999999999999822, 0.2999999999999999889 ) ;
#234 = LINE ( 'NONE', #354, #264 ) ;
#235 = LOCAL_TIME ( 11, 17, 52.00000000000000000, #329 ) ;
#236 = PERSON_AND_ORGANIZATION_ROLE ( 'classification_officer' ) ;
#237 = ORIENTED_EDGE ( 'NONE', *, *, #105, .F. ) ;
#238 = PERSON_AND_ORGANIZATION ( #289, #73 ) ;
#239 = ORIENTED_EDGE ( 'NONE', *, *, #16, .F. ) ;
#240 = LINE ( 'NONE', #39, #137 ) ;
#241 = EDGE_CURVE ( 'NONE', #67, #180, #167, .T. ) ;
#242 = DATE_AND_TIME ( #154, #266 ) ;
#243 = DIRECTION ( 'NONE',  ( -0.000000000000000000, -0.000000000000000000, -1.000000000000000000 ) ) ;
#244 = APPROVAL_ROLE ( '' ) ;
#245 = DIRECTION ( 'NONE',  ( 0.000000000000000000, 0.000000000000000000, -1.000000000000000000 ) ) ;
#246 = EDGE_LOOP ( 'NONE', ( #18, #239, #175, #125 ) ) ;
#247 = VERTEX_POINT ( 'NONE', #21 ) ;
#248 = AXIS2_PLACEMENT_3D ( 'NONE', #155, #14, #186 ) ;
#249 = CARTESIAN_POINT ( 'NONE',  ( -5.000000000000000000, 0.000000000000000000, 3.000000000000000000 ) ) ;
#250 = ADVANCED_FACE ( 'NONE', ( #346 ), #316, .F. ) ;
#251 = DIRECTION ( 'NONE',  ( 1.000000000000000000, 0.000000000000000000, -0.000000000000000000 ) ) ;
#252 = ORIENTED_EDGE ( 'NONE', *, *, #123, .T. ) ;
#253 = CYLINDRICAL_SURFACE ( 'NONE', #112, 5.000000000000000000 ) ;
#254 = CIRCLE ( 'NONE', #350, 1.500000000000000222 ) ;
#255 = CC_DESIGN_APPROVAL ( #12, ( #59 ) ) ;
#256 = DIRECTION ( 'NONE',  ( 0.000000000000000000, 0.000000000000000000, 1.000000000000000000 ) ) ;
#257 = CARTESIAN_POINT ( 'NONE',  ( 0.000000000000000000, 0.000000000000000000, 3.000000000000000000 ) ) ;
#258 = CARTESIAN_POINT ( 'NONE',  ( 0.000000000000000000, 0.000000000000000000, 0.000000000000000000 ) ) ;
#259 = EDGE_CURVE ( 'NONE', #180, #47, #189, .T. ) ;
#260 = ORIENTED_EDGE ( 'NONE', *, *, #352, .T. ) ;
#261 = CARTESIAN_POINT ( 'NONE',  ( 0.000000000000000000, 0.000000000000000000, 3.000000000000000000 ) ) ;
#262 = APPROVAL_STATUS ( 'not_yet_approved' ) ;
#263 = EDGE_LOOP ( 'NONE', ( #231, #45, #328, #42 ) ) ;
#264 = VECTOR ( 'NONE', #325, 1000.000000000000000 ) ;
#265 = FACE_OUTER_BOUND ( 'NONE', #149, .T. ) ;
#266 = LOCAL_TIME ( 11, 17, 52.00000000000000000, #129 ) ;
#267 = PERSON_AND_ORGANIZATION_ROLE ( 'creator' ) ;
#268 = CARTESIAN_POINT ( 'NONE',  ( 0.000000000000000000, 0.000000000000000000, 128.0000000000000000 ) ) ;
#269 = APPROVAL_DATE_TIME ( #152, #372 ) ;
#270 = LINE ( 'NONE', #181, #134 ) ;
#271 = PERSON_AND_ORGANIZATION ( #289, #73 ) ;
#272 = FACE_BOUND ( 'NONE', #208, .T. ) ;
#273 = APPROVAL_PERSON_ORGANIZATION ( #271, #12, #10 ) ;
#274 = EDGE_LOOP ( 'NONE', ( #135, #177, #150, #163 ) ) ;
#275 = CC_DESIGN_PERSON_AND_ORGANIZATION_ASSIGNMENT ( #69, #300, ( #59 ) ) ;
#276 = VERTEX_POINT ( 'NONE', #153 ) ;
#277 = EDGE_CURVE ( 'NONE', #6, #306, #270, .T. ) ;
#278 = DIRECTION ( 'NONE',  ( -0.000000000000000000, -0.000000000000000000, -1.000000000000000000 ) ) ;
#279 = CC_DESIGN_APPROVAL ( #372, ( #309 ) ) ;
#280 = CYLINDRICAL_SURFACE ( 'NONE', #337, 1.500000000000000222 ) ;
#281 = PRODUCT_DEFINITION_SHAPE ( 'NONE', 'NONE',  #309 ) ;
#282 = CARTESIAN_POINT ( 'NONE',  ( -2.500000000000000000, 0.000000000000000000, 128.0000000000000000 ) ) ;
#283 = FACE_BOUND ( 'NONE', #146, .T. ) ;
#284 = CARTESIAN_POINT ( 'NONE',  ( 0.000000000000000000, 0.000000000000000000, 128.0000000000000000 ) ) ;
#285 = AXIS2_PLACEMENT_3D ( 'NONE', #66, #213, #91 ) ;
#286 = CC_DESIGN_DATE_AND_TIME_ASSIGNMENT ( #94, #322, ( #339 ) ) ;
#287 = CARTESIAN_POINT ( 'NONE',  ( 0.000000000000000000, 0.000000000000000000, 3.299999999999997158 ) ) ;
#288 = ORIENTED_EDGE ( 'NONE', *, *, #168, .T. ) ;
#289 = PERSON ( 'NEURÈENÝ', 'NEURÈENÝ', 'NEURÈENÝ', ('NEURÈENÝ'), ('NEURÈENÝ'), ('NEURÈENÝ') ) ;
#290 = CARTESIAN_POINT ( 'NONE',  ( 0.000000000000000000, 0.000000000000000000, 128.0000000000000000 ) ) ;
#291 = ORIENTED_EDGE ( 'NONE', *, *, #16, .T. ) ;
#292 = DIRECTION ( 'NONE',  ( 1.000000000000000000, 0.000000000000000000, 0.000000000000000000 ) ) ;
#293 = VERTEX_POINT ( 'NONE', #35 ) ;
#294 = MECHANICAL_CONTEXT ( 'NONE', #206, 'mechanical' ) ;
#295 = APPROVAL ( #298, 'NEURÈENÝ' ) ;
#296 = DIRECTION ( 'NONE',  ( 1.224646799147353207E-16, 1.000000000000000000, -0.000000000000000000 ) ) ;
#297 = AXIS2_PLACEMENT_3D ( 'NONE', #310, #83, #54 ) ;
#298 = APPROVAL_STATUS ( 'not_yet_approved' ) ;
#299 = CARTESIAN_POINT ( 'NONE',  ( 2.500000000000000000, 3.061616997868383141E-16, 3.299999999999997158 ) ) ;
#300 = PERSON_AND_ORGANIZATION_ROLE ( 'creator' ) ;
#301 = DIRECTION ( 'NONE',  ( 0.000000000000000000, 0.000000000000000000, 1.000000000000000000 ) ) ;
#302 = EDGE_CURVE ( 'NONE', #67, #106, #220, .T. ) ;
#303 = TOROIDAL_SURFACE ( 'NONE', #353, 2.799999999999999822, 0.2999999999999999889 ) ;
#304 = CC_DESIGN_PERSON_AND_ORGANIZATION_ASSIGNMENT ( #216, #183, ( #59 ) ) ;
#305 = VECTOR ( 'NONE', #57, 1000.000000000000000 ) ;
#306 = VERTEX_POINT ( 'NONE', #37 ) ;
#307 = AXIS2_PLACEMENT_3D ( 'NONE', #257, #166, #85 ) ;
#308 = ORIENTED_EDGE ( 'NONE', *, *, #105, .T. ) ;
#309 = PRODUCT_DEFINITION ( 'NEZNÁMÝ', '', #59, #178 ) ;
#310 = CARTESIAN_POINT ( 'NONE',  ( 2.799999999999999822, 0.000000000000000000, 3.299999999999997158 ) ) ;
#311 = FACE_OUTER_BOUND ( 'NONE', #95, .T. ) ;
#312 = AXIS2_PLACEMENT_3D ( 'NONE', #287, #344, #28 ) ;
#313 = DIRECTION ( 'NONE',  ( 1.000000000000000000, 0.000000000000000000, 0.000000000000000000 ) ) ;
#314 = MANIFOLD_SOLID_BREP ( 'Odebrat vysunutím3', #324 ) ;
#315 = ORIENTED_EDGE ( 'NONE', *, *, #46, .T. ) ;
#316 = CYLINDRICAL_SURFACE ( 'NONE', #40, 1.500000000000000222 ) ;
#317 = PRODUCT_RELATED_PRODUCT_CATEGORY ( 'detail', '', ( #55 ) ) ;
#318 = CARTESIAN_POINT ( 'NONE',  ( 0.000000000000000000, 0.000000000000000000, 0.000000000000000000 ) ) ;
#319 = DIRECTION ( 'NONE',  ( 0.000000000000000000, 0.000000000000000000, 1.000000000000000000 ) ) ;
#320 = CIRCLE ( 'NONE', #201, 5.000000000000000000 ) ;
#321 = CARTESIAN_POINT ( 'NONE',  ( 0.000000000000000000, 0.000000000000000000, 3.299999999999997158 ) ) ;
#322 = DATE_TIME_ROLE ( 'classification_date' ) ;
#323 = ORIENTED_EDGE ( 'NONE', *, *, #302, .F. ) ;
#324 = CLOSED_SHELL ( 'NONE', ( #148, #72, #214, #365, #158, #335, #1, #60, #187, #345, #250 ) ) ;
#325 = DIRECTION ( 'NONE',  ( 0.000000000000000000, 0.000000000000000000, -1.000000000000000000 ) ) ;
#326 = CC_DESIGN_PERSON_AND_ORGANIZATION_ASSIGNMENT ( #238, #236, ( #339 ) ) ;
#327 = APPLICATION_PROTOCOL_DEFINITION ( 'international standard', 'config_control_design', 1994, #341 ) ;
#328 = ORIENTED_EDGE ( 'NONE', *, *, #141, .T. ) ;
#329 = COORDINATED_UNIVERSAL_TIME_OFFSET ( 1, 0, .AHEAD. ) ;
#330 = PLANE ( 'NONE',  #248 ) ;
#331 = CIRCLE ( 'NONE', #49, 1.500000000000000222 ) ;
#332 = PERSON_AND_ORGANIZATION ( #289, #73 ) ;
#333 = FACE_OUTER_BOUND ( 'NONE', #246, .T. ) ;
#334 = CALENDAR_DATE ( 2022, 10, 7 ) ;
#335 = ADVANCED_FACE ( 'NONE', ( #272, #366 ), #330, .T. ) ;
#336 = ORIENTED_EDGE ( 'NONE', *, *, #375, .T. ) ;
#337 = AXIS2_PLACEMENT_3D ( 'NONE', #340, #138, #377 ) ;
#338 = ORIENTED_EDGE ( 'NONE', *, *, #20, .T. ) ;
#339 = SECURITY_CLASSIFICATION ( '', '', #13 ) ;
#340 = CARTESIAN_POINT ( 'NONE',  ( 0.000000000000000000, 0.000000000000000000, 128.0000000000000000 ) ) ;
#341 = APPLICATION_CONTEXT ( 'configuration controlled 3d designs of mechanical parts and assemblies' ) ;
#342 = CARTESIAN_POINT ( 'NONE',  ( 0.000000000000000000, 0.000000000000000000, 3.000000000000000000 ) ) ;
#343 = AXIS2_PLACEMENT_3D ( 'NONE', #157, #243, #362 ) ;
#344 = DIRECTION ( 'NONE',  ( 0.000000000000000000, 0.000000000000000000, 1.000000000000000000 ) ) ;
#345 = ADVANCED_FACE ( 'NONE', ( #333 ), #303, .F. ) ;
#346 = FACE_OUTER_BOUND ( 'NONE', #127, .T. ) ;
#347 = LINE ( 'NONE', #376, #70 ) ;
#348 = DIRECTION ( 'NONE',  ( -0.000000000000000000, -0.000000000000000000, -1.000000000000000000 ) ) ;
#349 = FACE_OUTER_BOUND ( 'NONE', #32, .T. ) ;
#350 = AXIS2_PLACEMENT_3D ( 'NONE', #258, #228, #116 ) ;
#351 = ORIENTED_EDGE ( 'NONE', *, *, #277, .T. ) ;
#352 = EDGE_CURVE ( 'NONE', #6, #107, #331, .T. ) ;
#353 = AXIS2_PLACEMENT_3D ( 'NONE', #124, #11, #89 ) ;
#354 = CARTESIAN_POINT ( 'NONE',  ( 1.500000000000000222, 1.836970198721030181E-16, 128.0000000000000000 ) ) ;
#355 = DATE_TIME_ROLE ( 'creation_date' ) ;
#356 = ORIENTED_EDGE ( 'NONE', *, *, #20, .F. ) ;
#357 = UNCERTAINTY_MEASURE_WITH_UNIT (LENGTH_MEASURE( 1.000000000000000082E-05 ), #96, 'distance_accuracy_value', 'NONE');
#358 = COORDINATED_UNIVERSAL_TIME_OFFSET ( 1, 0, .AHEAD. ) ;
#359 = VERTEX_POINT ( 'NONE', #299 ) ;
#360 = APPROVAL_DATE_TIME ( #242, #295 ) ;
#361 = AXIS2_PLACEMENT_3D ( 'NONE', #82, #65, #53 ) ;
#362 = DIRECTION ( 'NONE',  ( 1.000000000000000000, 0.000000000000000000, 0.000000000000000000 ) ) ;
#363 = VECTOR ( 'NONE', #278, 1000.000000000000000 ) ;
#364 = DATE_AND_TIME ( #126, #44 ) ;
#365 = ADVANCED_FACE ( 'NONE', ( #102 ), #217, .T. ) ;
#366 = FACE_OUTER_BOUND ( 'NONE', #161, .T. ) ;
#367 = EDGE_CURVE ( 'NONE', #92, #293, #240, .T. ) ;
#368 = AXIS2_PLACEMENT_3D ( 'NONE', #25, #170, #23 ) ;
#369 = ORIENTED_EDGE ( 'NONE', *, *, #78, .T. ) ;
#370 = ORIENTED_EDGE ( 'NONE', *, *, #108, .F. ) ;
#371 = CIRCLE ( 'NONE', #312, 2.500000000000000000 ) ;
#372 = APPROVAL ( #262, 'NEURÈENÝ' ) ;
#373 = CARTESIAN_POINT ( 'NONE',  ( 0.000000000000000000, 0.000000000000000000, 128.0000000000000000 ) ) ;
#374 = CARTESIAN_POINT ( 'NONE',  ( -5.000000000000000000, 0.000000000000000000, 3.000000000000000000 ) ) ;
#375 = EDGE_CURVE ( 'NONE', #306, #230, #76, .T. ) ;
#376 = CARTESIAN_POINT ( 'NONE',  ( 2.500000000000000000, 3.061616997868383141E-16, 128.0000000000000000 ) ) ;
#377 = DIRECTION ( 'NONE',  ( -1.000000000000000000, 0.000000000000000000, 0.000000000000000000 ) ) ;
#378 = APPROVAL_PERSON_ORGANIZATION ( #185, #372, #244 ) ;
#379 = EDGE_LOOP ( 'NONE', ( #205, #221 ) ) ;
#380 = DIRECTION ( 'NONE',  ( -1.000000000000000000, 0.000000000000000000, 0.000000000000000000 ) ) ;
#381 = DIRECTION ( 'NONE',  ( 1.000000000000000000, 0.000000000000000000, 0.000000000000000000 ) ) ;
ENDSEC;
END-ISO-10303-21;
