ISO-10303-21;
HEADER;
FILE_DESCRIPTION (( 'STEP AP203' ),
    '1' );
FILE_NAME ('a8ec.STEP',
    '2022-07-10T09:09:37',
    ( '' ),
    ( '' ),
    'SwSTEP 2.0',
    'SolidWorks 2019',
    '' );
FILE_SCHEMA (( 'CONFIG_CONTROL_DESIGN' ));
ENDSEC;

DATA;
#1 = DIRECTION ( 'NONE',  ( -1.000000000000000000, 0.000000000000000000, 0.000000000000000000 ) ) ;
#2 = ORIENTED_EDGE ( 'NONE', *, *, #94, .F. ) ;
#3 = CARTESIAN_POINT ( 'NONE',  ( 0.000000000000000000, 0.000000000000000000, 165.0000000000000000 ) ) ;
#4 = AXIS2_PLACEMENT_3D ( 'NONE', #347, #354, #114 ) ;
#5 = VERTEX_POINT ( 'NONE', #192 ) ;
#6 = PERSON_AND_ORGANIZATION_ROLE ( 'design_supplier' ) ;
#7 = ORIENTED_EDGE ( 'NONE', *, *, #91, .F. ) ;
#8 = AXIS2_PLACEMENT_3D ( 'NONE', #21, #51, #137 ) ;
#9 = ORIENTED_EDGE ( 'NONE', *, *, #91, .T. ) ;
#10 = ADVANCED_FACE ( 'NONE', ( #319 ), #48, .F. ) ;
#11 = PERSON_AND_ORGANIZATION_ROLE ( 'classification_officer' ) ;
#12 = FACE_OUTER_BOUND ( 'NONE', #273, .T. ) ;
#13 = AXIS2_PLACEMENT_3D ( 'NONE', #262, #34, #304 ) ;
#14 = DIRECTION ( 'NONE',  ( 1.000000000000000000, 0.000000000000000000, 0.000000000000000000 ) ) ;
#15 = CYLINDRICAL_SURFACE ( 'NONE', #8, 4.000000000000000000 ) ;
#16 = EDGE_CURVE ( 'NONE', #317, #164, #130, .T. ) ;
#17 = CALENDAR_DATE ( 2022, 10, 7 ) ;
#18 = DIRECTION ( 'NONE',  ( -1.000000000000000000, 1.224646799147351482E-16, 0.000000000000000000 ) ) ;
#19 = AXIS2_PLACEMENT_3D ( 'NONE', #76, #282, #140 ) ;
#20 = APPROVAL ( #128, 'NEURÈENÝ' ) ;
#21 = CARTESIAN_POINT ( 'NONE',  ( 0.000000000000000000, 0.000000000000000000, 165.0000000000000000 ) ) ;
#22 = CIRCLE ( 'NONE', #87, 7.000000000000000000 ) ;
#23 = DIRECTION ( 'NONE',  ( 1.000000000000000000, 0.000000000000000000, -0.000000000000000000 ) ) ;
#24 = ADVANCED_FACE ( 'NONE', ( #12 ), #15, .T. ) ;
#25 = AXIS2_PLACEMENT_3D ( 'NONE', #46, #108, #170 ) ;
#26 = CARTESIAN_POINT ( 'NONE',  ( 0.000000000000000000, 0.000000000000000000, 5.000000000000000000 ) ) ;
#27 = AXIS2_PLACEMENT_3D ( 'NONE', #286, #230, #145 ) ;
#28 = CARTESIAN_POINT ( 'NONE',  ( 0.000000000000000000, 0.000000000000000000, 165.0000000000000000 ) ) ;
#29 = APPROVAL ( #158, 'NEURÈENÝ' ) ;
#30 = FACE_OUTER_BOUND ( 'NONE', #127, .T. ) ;
#31 = CARTESIAN_POINT ( 'NONE',  ( 0.000000000000000000, 0.000000000000000000, 0.000000000000000000 ) ) ;
#32 = ORIENTED_EDGE ( 'NONE', *, *, #16, .F. ) ;
#33 = VECTOR ( 'NONE', #82, 1000.000000000000000 ) ;
#34 = DIRECTION ( 'NONE',  ( 0.000000000000000000, 0.000000000000000000, 1.000000000000000000 ) ) ;
#35 = ORIENTED_EDGE ( 'NONE', *, *, #168, .F. ) ;
#36 = FACE_BOUND ( 'NONE', #305, .T. ) ;
#37 = VERTEX_POINT ( 'NONE', #372 ) ;
#38 = ADVANCED_FACE ( 'NONE', ( #252 ), #167, .F. ) ;
#39 = DIRECTION ( 'NONE',  ( 1.000000000000000000, 0.000000000000000000, 0.000000000000000000 ) ) ;
#40 = APPLICATION_CONTEXT ( 'configuration controlled 3d designs of mechanical parts and assemblies' ) ;
#41 = ORIENTED_EDGE ( 'NONE', *, *, #283, .F. ) ;
#42 = AXIS2_PLACEMENT_3D ( 'NONE', #3, #60, #39 ) ;
#43 = COORDINATED_UNIVERSAL_TIME_OFFSET ( 1, 0, .AHEAD. ) ;
#44 = LINE ( 'NONE', #83, #59 ) ;
#45 = PERSON_AND_ORGANIZATION ( #360, #81 ) ;
#46 = CARTESIAN_POINT ( 'NONE',  ( 0.000000000000000000, 0.000000000000000000, 165.0000000000000000 ) ) ;
#47 = APPROVAL_ROLE ( '' ) ;
#48 = CYLINDRICAL_SURFACE ( 'NONE', #78, 2.500000000000000000 ) ;
#49 = CC_DESIGN_APPROVAL ( #20, ( #233 ) ) ;
#50 = ORIENTED_EDGE ( 'NONE', *, *, #297, .T. ) ;
#51 = DIRECTION ( 'NONE',  ( -0.000000000000000000, -0.000000000000000000, -1.000000000000000000 ) ) ;
#52 = DIRECTION ( 'NONE',  ( 0.000000000000000000, 0.000000000000000000, 1.000000000000000000 ) ) ;
#53 = DIRECTION ( 'NONE',  ( -0.000000000000000000, -0.000000000000000000, -1.000000000000000000 ) ) ;
#54 = DIRECTION ( 'NONE',  ( 0.000000000000000000, 0.000000000000000000, 1.000000000000000000 ) ) ;
#55 = AXIS2_PLACEMENT_3D ( 'NONE', #325, #378, #256 ) ;
#56 = FACE_OUTER_BOUND ( 'NONE', #212, .T. ) ;
#57 = CARTESIAN_POINT ( 'NONE',  ( 2.500000000000000000, 3.061616997868383141E-16, 165.0000000000000000 ) ) ;
#58 = DIRECTION ( 'NONE',  ( -0.000000000000000000, -0.000000000000000000, -1.000000000000000000 ) ) ;
#59 = VECTOR ( 'NONE', #228, 1000.000000000000000 ) ;
#60 = DIRECTION ( 'NONE',  ( 0.000000000000000000, 0.000000000000000000, 1.000000000000000000 ) ) ;
#61 = ORIENTED_EDGE ( 'NONE', *, *, #169, .F. ) ;
#62 = TOROIDAL_SURFACE ( 'NONE', #269, 4.500000000000000888, 0.5000000000000000000 ) ;
#63 =( LENGTH_UNIT ( ) NAMED_UNIT ( * ) SI_UNIT ( .MILLI., .METRE. ) );
#64 = ORIENTED_EDGE ( 'NONE', *, *, #297, .F. ) ;
#65 = CARTESIAN_POINT ( 'NONE',  ( 4.000000000000000000, 4.898587196589412829E-16, 165.0000000000000000 ) ) ;
#66 = ORIENTED_EDGE ( 'NONE', *, *, #283, .T. ) ;
#67 = ORIENTED_EDGE ( 'NONE', *, *, #168, .T. ) ;
#68 = CALENDAR_DATE ( 2022, 10, 7 ) ;
#69 = AXIS2_PLACEMENT_3D ( 'NONE', #174, #53, #377 ) ;
#70 = ORIENTED_EDGE ( 'NONE', *, *, #86, .F. ) ;
#71 = CALENDAR_DATE ( 2022, 10, 7 ) ;
#72 = EDGE_LOOP ( 'NONE', ( #96, #190 ) ) ;
#73 = ORIENTED_EDGE ( 'NONE', *, *, #368, .T. ) ;
#74 = VERTEX_POINT ( 'NONE', #107 ) ;
#75 = APPROVAL_PERSON_ORGANIZATION ( #270, #335, #47 ) ;
#76 = CARTESIAN_POINT ( 'NONE',  ( 0.000000000000000000, 0.000000000000000000, 165.0000000000000000 ) ) ;
#77 = CARTESIAN_POINT ( 'NONE',  ( 0.000000000000000000, 0.000000000000000000, 5.500000000000005329 ) ) ;
#78 = AXIS2_PLACEMENT_3D ( 'NONE', #276, #166, #279 ) ;
#79 = EDGE_CURVE ( 'NONE', #196, #317, #227, .T. ) ;
#80 = FACE_OUTER_BOUND ( 'NONE', #268, .T. ) ;
#81 = ORGANIZATION ( 'NEURÈENÝ', 'NEURÈENÝ', '' ) ;
#82 = DIRECTION ( 'NONE',  ( -0.000000000000000000, -0.000000000000000000, -1.000000000000000000 ) ) ;
#83 = CARTESIAN_POINT ( 'NONE',  ( 2.500000000000000000, 3.061616997868383141E-16, 165.0000000000000000 ) ) ;
#84 = EDGE_CURVE ( 'NONE', #339, #196, #225, .T. ) ;
#85 = DIRECTION ( 'NONE',  ( 1.000000000000000000, 0.000000000000000000, 0.000000000000000000 ) ) ;
#86 = EDGE_CURVE ( 'NONE', #339, #311, #288, .T. ) ;
#87 = AXIS2_PLACEMENT_3D ( 'NONE', #329, #154, #186 ) ;
#88 =( NAMED_UNIT ( * ) PLANE_ANGLE_UNIT ( ) SI_UNIT ( $, .RADIAN. ) );
#89 = DIRECTION ( 'NONE',  ( 0.000000000000000000, 0.000000000000000000, 1.000000000000000000 ) ) ;
#90 = ORIENTED_EDGE ( 'NONE', *, *, #313, .T. ) ;
#91 = EDGE_CURVE ( 'NONE', #240, #5, #44, .T. ) ;
#92 = DIRECTION ( 'NONE',  ( 0.000000000000000000, 0.000000000000000000, -1.000000000000000000 ) ) ;
#93 = VERTEX_POINT ( 'NONE', #376 ) ;
#94 = EDGE_CURVE ( 'NONE', #196, #244, #333, .T. ) ;
#95 = CARTESIAN_POINT ( 'NONE',  ( 4.000000000000000000, 4.898587196589412829E-16, 165.0000000000000000 ) ) ;
#96 = ORIENTED_EDGE ( 'NONE', *, *, #295, .F. ) ;
#97 = PLANE ( 'NONE',  #206 ) ;
#98 = CC_DESIGN_DATE_AND_TIME_ASSIGNMENT ( #165, #162, ( #233 ) ) ;
#99 = EDGE_LOOP ( 'NONE', ( #332, #9, #334, #159 ) ) ;
#100 = APPROVAL_ROLE ( '' ) ;
#101 = AXIS2_PLACEMENT_3D ( 'NONE', #291, #52, #289 ) ;
#102 = ORIENTED_EDGE ( 'NONE', *, *, #84, .T. ) ;
#103 = DATE_AND_TIME ( #71, #323 ) ;
#104 = ORIENTED_EDGE ( 'NONE', *, *, #163, .T. ) ;
#105 = EDGE_CURVE ( 'NONE', #164, #317, #358, .T. ) ;
#106 = PERSON_AND_ORGANIZATION ( #360, #81 ) ;
#107 = CARTESIAN_POINT ( 'NONE',  ( 7.000000000000000000, 8.572527594031473190E-16, 0.000000000000000000 ) ) ;
#108 = DIRECTION ( 'NONE',  ( 0.000000000000000000, 0.000000000000000000, -1.000000000000000000 ) ) ;
#109 = CIRCLE ( 'NONE', #157, 4.000000000000000000 ) ;
#110 = CC_DESIGN_SECURITY_CLASSIFICATION ( #187, ( #292 ) ) ;
#111 = CARTESIAN_POINT ( 'NONE',  ( 0.000000000000000000, 0.000000000000000000, 0.000000000000000000 ) ) ;
#112 = CARTESIAN_POINT ( 'NONE',  ( 0.000000000000000000, 0.000000000000000000, 5.000000000000000000 ) ) ;
#113 = AXIS2_PLACEMENT_3D ( 'NONE', #222, #281, #18 ) ;
#114 = DIRECTION ( 'NONE',  ( 1.000000000000000000, 0.000000000000000000, 0.000000000000000000 ) ) ;
#115 = APPROVAL_PERSON_ORGANIZATION ( #278, #29, #100 ) ;
#116 = ADVANCED_FACE ( 'NONE', ( #80 ), #199, .T. ) ;
#117 = CC_DESIGN_PERSON_AND_ORGANIZATION_ASSIGNMENT ( #45, #245, ( #233 ) ) ;
#118 = CARTESIAN_POINT ( 'NONE',  ( 4.000000000000000000, 4.898587196589412829E-16, 5.500000000000005329 ) ) ;
#119 = CIRCLE ( 'NONE', #349, 4.000000000000000000 ) ;
#120 = CARTESIAN_POINT ( 'NONE',  ( 4.500000000000000888, 0.000000000000000000, 5.500000000000005329 ) ) ;
#121 = DIRECTION ( 'NONE',  ( 1.000000000000000000, 0.000000000000000000, -0.000000000000000000 ) ) ;
#122 = VERTEX_POINT ( 'NONE', #232 ) ;
#123 = DIRECTION ( 'NONE',  ( 1.000000000000000000, 0.000000000000000000, 0.000000000000000000 ) ) ;
#124 = ORIENTED_EDGE ( 'NONE', *, *, #295, .T. ) ;
#125 = AXIS2_PLACEMENT_3D ( 'NONE', #120, #361, #357 ) ;
#126 = LOCAL_TIME ( 11, 9, 37.00000000000000000, #160 ) ;
#127 = EDGE_LOOP ( 'NONE', ( #215, #266 ) ) ;
#128 = APPROVAL_STATUS ( 'not_yet_approved' ) ;
#129 = EDGE_LOOP ( 'NONE', ( #210, #263, #50, #32 ) ) ;
#130 = CIRCLE ( 'NONE', #274, 4.500000000000000888 ) ;
#131 = ORIENTED_EDGE ( 'NONE', *, *, #79, .T. ) ;
#132 = EDGE_CURVE ( 'NONE', #311, #339, #109, .T. ) ;
#133 = APPROVAL_DATE_TIME ( #371, #335 ) ;
#134 = ORIENTED_EDGE ( 'NONE', *, *, #341, .T. ) ;
#135 = APPLICATION_PROTOCOL_DEFINITION ( 'international standard', 'config_control_design', 1994, #40 ) ;
#136 = ADVANCED_BREP_SHAPE_REPRESENTATION ( 'a8ec', ( #310, #306 ), #316 ) ;
#137 = DIRECTION ( 'NONE',  ( -1.000000000000000000, 0.000000000000000000, 0.000000000000000000 ) ) ;
#138 = COORDINATED_UNIVERSAL_TIME_OFFSET ( 1, 0, .AHEAD. ) ;
#139 = ORIENTED_EDGE ( 'NONE', *, *, #84, .F. ) ;
#140 = DIRECTION ( 'NONE',  ( 1.000000000000000000, 0.000000000000000000, 0.000000000000000000 ) ) ;
#141 = FACE_OUTER_BOUND ( 'NONE', #308, .T. ) ;
#142 = FACE_OUTER_BOUND ( 'NONE', #129, .T. ) ;
#143 = DIRECTION ( 'NONE',  ( -0.000000000000000000, -0.000000000000000000, -1.000000000000000000 ) ) ;
#144 = LOCAL_TIME ( 11, 9, 37.00000000000000000, #138 ) ;
#145 = DIRECTION ( 'NONE',  ( 1.000000000000000000, 0.000000000000000000, 0.000000000000000000 ) ) ;
#146 = DIRECTION ( 'NONE',  ( 0.000000000000000000, 0.000000000000000000, 1.000000000000000000 ) ) ;
#147 = APPLICATION_CONTEXT ( 'configuration controlled 3d designs of mechanical parts and assemblies' ) ;
#148 = ADVANCED_FACE ( 'NONE', ( #142 ), #299, .F. ) ;
#149 = CARTESIAN_POINT ( 'NONE',  ( -4.500000000000000888, 5.510910596163088569E-16, 5.000000000000002665 ) ) ;
#150 = ORIENTED_EDGE ( 'NONE', *, *, #362, .T. ) ;
#151 = CIRCLE ( 'NONE', #290, 2.500000000000000000 ) ;
#152 = CARTESIAN_POINT ( 'NONE',  ( 7.000000000000000000, 8.572527594031473190E-16, 5.000000000000000000 ) ) ;
#153 = EDGE_LOOP ( 'NONE', ( #41, #183, #237, #298 ) ) ;
#154 = DIRECTION ( 'NONE',  ( 0.000000000000000000, 0.000000000000000000, 1.000000000000000000 ) ) ;
#155 = DIRECTION ( 'NONE',  ( 0.000000000000000000, 0.000000000000000000, 1.000000000000000000 ) ) ;
#156 = DESIGN_CONTEXT ( 'detailed design', #40, 'design' ) ;
#157 = AXIS2_PLACEMENT_3D ( 'NONE', #28, #146, #85 ) ;
#158 = APPROVAL_STATUS ( 'not_yet_approved' ) ;
#159 = ORIENTED_EDGE ( 'NONE', *, *, #362, .F. ) ;
#160 = COORDINATED_UNIVERSAL_TIME_OFFSET ( 1, 0, .AHEAD. ) ;
#161 = CARTESIAN_POINT ( 'NONE',  ( -4.000000000000000000, 0.000000000000000000, 165.0000000000000000 ) ) ;
#162 = DATE_TIME_ROLE ( 'creation_date' ) ;
#163 = EDGE_CURVE ( 'NONE', #244, #196, #119, .T. ) ;
#164 = VERTEX_POINT ( 'NONE', #205 ) ;
#165 = DATE_AND_TIME ( #68, #242 ) ;
#166 = DIRECTION ( 'NONE',  ( 0.000000000000000000, 0.000000000000000000, -1.000000000000000000 ) ) ;
#167 = CYLINDRICAL_SURFACE ( 'NONE', #25, 2.500000000000000000 ) ;
#168 = EDGE_CURVE ( 'NONE', #240, #93, #223, .T. ) ;
#169 = EDGE_CURVE ( 'NONE', #359, #74, #350, .T. ) ;
#170 = DIRECTION ( 'NONE',  ( -1.000000000000000000, 0.000000000000000000, 0.000000000000000000 ) ) ;
#171 = DIRECTION ( 'NONE',  ( 0.000000000000000000, 0.000000000000000000, 1.000000000000000000 ) ) ;
#172 = CARTESIAN_POINT ( 'NONE',  ( -4.000000000000000000, 0.000000000000000000, 5.500000000000005329 ) ) ;
#173 = FACE_BOUND ( 'NONE', #370, .T. ) ;
#174 = CARTESIAN_POINT ( 'NONE',  ( 0.000000000000000000, 0.000000000000000000, 165.0000000000000000 ) ) ;
#175 = FACE_BOUND ( 'NONE', #72, .T. ) ;
#176 = EDGE_CURVE ( 'NONE', #74, #37, #264, .T. ) ;
#177 =( NAMED_UNIT ( * ) SI_UNIT ( $, .STERADIAN. ) SOLID_ANGLE_UNIT ( ) );
#178 = ORIENTED_EDGE ( 'NONE', *, *, #105, .F. ) ;
#179 = AXIS2_PLACEMENT_3D ( 'NONE', #226, #287, #348 ) ;
#180 = DIRECTION ( 'NONE',  ( -0.000000000000000000, -0.000000000000000000, -1.000000000000000000 ) ) ;
#181 = VECTOR ( 'NONE', #92, 1000.000000000000000 ) ;
#182 = CARTESIAN_POINT ( 'NONE',  ( -4.000000000000000000, 0.000000000000000000, 165.0000000000000000 ) ) ;
#183 = ORIENTED_EDGE ( 'NONE', *, *, #169, .T. ) ;
#184 = LINE ( 'NONE', #296, #181 ) ;
#185 = CC_DESIGN_PERSON_AND_ORGANIZATION_ASSIGNMENT ( #193, #217, ( #351 ) ) ;
#186 = DIRECTION ( 'NONE',  ( 1.000000000000000000, 0.000000000000000000, 0.000000000000000000 ) ) ;
#187 = SECURITY_CLASSIFICATION ( '', '', #373 ) ;
#188 = COORDINATED_UNIVERSAL_TIME_OFFSET ( 1, 0, .AHEAD. ) ;
#189 = ORIENTED_EDGE ( 'NONE', *, *, #368, .F. ) ;
#190 = ORIENTED_EDGE ( 'NONE', *, *, #285, .F. ) ;
#191 = DATE_AND_TIME ( #251, #144 ) ;
#192 = CARTESIAN_POINT ( 'NONE',  ( 2.500000000000000000, 3.061616997868383141E-16, 0.000000000000000000 ) ) ;
#193 = PERSON_AND_ORGANIZATION ( #360, #81 ) ;
#194 = ORIENTED_EDGE ( 'NONE', *, *, #132, .T. ) ;
#195 = DATE_AND_TIME ( #272, #126 ) ;
#196 = VERTEX_POINT ( 'NONE', #172 ) ;
#197 = CC_DESIGN_DATE_AND_TIME_ASSIGNMENT ( #103, #312, ( #187 ) ) ;
#198 = PLANE ( 'NONE',  #284 ) ;
#199 = CYLINDRICAL_SURFACE ( 'NONE', #69, 4.000000000000000000 ) ;
#200 = VECTOR ( 'NONE', #180, 1000.000000000000000 ) ;
#201 = CC_DESIGN_PERSON_AND_ORGANIZATION_ASSIGNMENT ( #220, #6, ( #292 ) ) ;
#202 = CARTESIAN_POINT ( 'NONE',  ( 0.000000000000000000, 0.000000000000000000, 0.000000000000000000 ) ) ;
#203 = CLOSED_SHELL ( 'NONE', ( #38, #229, #116, #221, #280, #320, #250, #24, #213, #148, #10 ) ) ;
#204 = DIRECTION ( 'NONE',  ( 1.000000000000000000, 0.000000000000000000, 0.000000000000000000 ) ) ;
#205 = CARTESIAN_POINT ( 'NONE',  ( 4.500000000000000888, 0.000000000000000000, 5.000000000000002665 ) ) ;
#206 = AXIS2_PLACEMENT_3D ( 'NONE', #236, #89, #121 ) ;
#207 = CC_DESIGN_APPROVAL ( #335, ( #292 ) ) ;
#208 = CARTESIAN_POINT ( 'NONE',  ( 0.000000000000000000, 0.000000000000000000, 0.000000000000000000 ) ) ;
#209 = DIRECTION ( 'NONE',  ( -0.000000000000000000, -0.000000000000000000, -1.000000000000000000 ) ) ;
#210 = ORIENTED_EDGE ( 'NONE', *, *, #79, .F. ) ;
#211 = FACE_OUTER_BOUND ( 'NONE', #219, .T. ) ;
#212 = EDGE_LOOP ( 'NONE', ( #301, #194 ) ) ;
#213 = ADVANCED_FACE ( 'NONE', ( #173, #56 ), #380, .T. ) ;
#214 = ORIENTED_EDGE ( 'NONE', *, *, #303, .T. ) ;
#215 = ORIENTED_EDGE ( 'NONE', *, *, #341, .F. ) ;
#216 = APPROVAL_PERSON_ORGANIZATION ( #307, #20, #248 ) ;
#217 = PERSON_AND_ORGANIZATION_ROLE ( 'design_owner' ) ;
#218 = ORIENTED_EDGE ( 'NONE', *, *, #303, .F. ) ;
#219 = EDGE_LOOP ( 'NONE', ( #73, #66 ) ) ;
#220 = PERSON_AND_ORGANIZATION ( #360, #81 ) ;
#221 = ADVANCED_FACE ( 'NONE', ( #293 ), #321, .T. ) ;
#222 = CARTESIAN_POINT ( 'NONE',  ( -4.500000000000000888, 5.510910596163089556E-16, 5.500000000000005329 ) ) ;
#223 = CIRCLE ( 'NONE', #27, 2.500000000000000000 ) ;
#224 = APPROVAL_STATUS ( 'not_yet_approved' ) ;
#225 = LINE ( 'NONE', #161, #239 ) ;
#226 = CARTESIAN_POINT ( 'NONE',  ( 0.000000000000000000, 0.000000000000000000, 5.500000000000005329 ) ) ;
#227 = CIRCLE ( 'NONE', #113, 0.5000000000000004441 ) ;
#228 = DIRECTION ( 'NONE',  ( 0.000000000000000000, 0.000000000000000000, -1.000000000000000000 ) ) ;
#229 = ADVANCED_FACE ( 'NONE', ( #379 ), #62, .F. ) ;
#230 = DIRECTION ( 'NONE',  ( 0.000000000000000000, 0.000000000000000000, 1.000000000000000000 ) ) ;
#231 = AXIS2_PLACEMENT_3D ( 'NONE', #265, #155, #123 ) ;
#232 = CARTESIAN_POINT ( 'NONE',  ( -7.000000000000000000, 0.000000000000000000, 5.000000000000000000 ) ) ;
#233 = PRODUCT_DEFINITION ( 'NEZNÁMÝ', '', #292, #156 ) ;
#234 = DIRECTION ( 'NONE',  ( 1.000000000000000000, 0.000000000000000000, 0.000000000000000000 ) ) ;
#235 = PRODUCT_DEFINITION_SHAPE ( 'NONE', 'NONE',  #233 ) ;
#236 = CARTESIAN_POINT ( 'NONE',  ( 0.000000000000000000, 0.000000000000000000, 5.000000000000000000 ) ) ;
#237 = ORIENTED_EDGE ( 'NONE', *, *, #176, .T. ) ;
#238 = CARTESIAN_POINT ( 'NONE',  ( -7.000000000000000000, 0.000000000000000000, 5.000000000000000000 ) ) ;
#239 = VECTOR ( 'NONE', #345, 1000.000000000000000 ) ;
#240 = VERTEX_POINT ( 'NONE', #57 ) ;
#241 = AXIS2_PLACEMENT_3D ( 'NONE', #26, #143, #257 ) ;
#242 = LOCAL_TIME ( 11, 9, 37.00000000000000000, #336 ) ;
#243 = CARTESIAN_POINT ( 'NONE',  ( 0.000000000000000000, 0.000000000000000000, 0.000000000000000000 ) ) ;
#244 = VERTEX_POINT ( 'NONE', #118 ) ;
#245 = PERSON_AND_ORGANIZATION_ROLE ( 'creator' ) ;
#246 = APPROVAL_DATE_TIME ( #191, #20 ) ;
#247 = APPROVAL_DATE_TIME ( #195, #29 ) ;
#248 = APPROVAL_ROLE ( '' ) ;
#249 = DIRECTION ( 'NONE',  ( 1.000000000000000000, 0.000000000000000000, 0.000000000000000000 ) ) ;
#250 = ADVANCED_FACE ( 'NONE', ( #175, #30 ), #198, .F. ) ;
#251 = CALENDAR_DATE ( 2022, 10, 7 ) ;
#252 = FACE_OUTER_BOUND ( 'NONE', #99, .T. ) ;
#253 = VECTOR ( 'NONE', #58, 1000.000000000000000 ) ;
#254 = ORIENTED_EDGE ( 'NONE', *, *, #132, .F. ) ;
#255 = CYLINDRICAL_SURFACE ( 'NONE', #322, 7.000000000000000000 ) ;
#256 = DIRECTION ( 'NONE',  ( 1.000000000000000000, 0.000000000000000000, 0.000000000000000000 ) ) ;
#257 = DIRECTION ( 'NONE',  ( -1.000000000000000000, 0.000000000000000000, 0.000000000000000000 ) ) ;
#258 = AXIS2_PLACEMENT_3D ( 'NONE', #202, #54, #259 ) ;
#259 = DIRECTION ( 'NONE',  ( 1.000000000000000000, 0.000000000000000000, 0.000000000000000000 ) ) ;
#260 = CC_DESIGN_PERSON_AND_ORGANIZATION_ASSIGNMENT ( #275, #11, ( #187 ) ) ;
#261 = DIRECTION ( 'NONE',  ( 1.000000000000000000, 0.000000000000000000, 0.000000000000000000 ) ) ;
#262 = CARTESIAN_POINT ( 'NONE',  ( 0.000000000000000000, 0.000000000000000000, 5.000000000000000000 ) ) ;
#263 = ORIENTED_EDGE ( 'NONE', *, *, #163, .F. ) ;
#264 = CIRCLE ( 'NONE', #258, 7.000000000000000000 ) ;
#265 = CARTESIAN_POINT ( 'NONE',  ( 0.000000000000000000, 0.000000000000000000, 5.000000000000000000 ) ) ;
#266 = ORIENTED_EDGE ( 'NONE', *, *, #176, .F. ) ;
#267 = LINE ( 'NONE', #238, #200 ) ;
#268 = EDGE_LOOP ( 'NONE', ( #254, #214, #104, #139 ) ) ;
#269 = AXIS2_PLACEMENT_3D ( 'NONE', #77, #327, #234 ) ;
#270 = PERSON_AND_ORGANIZATION ( #360, #81 ) ;
#271 = EDGE_LOOP ( 'NONE', ( #7, #67, #150, #124 ) ) ;
#272 = CALENDAR_DATE ( 2022, 10, 7 ) ;
#273 = EDGE_LOOP ( 'NONE', ( #218, #70, #102, #314 ) ) ;
#274 = AXIS2_PLACEMENT_3D ( 'NONE', #342, #337, #249 ) ;
#275 = PERSON_AND_ORGANIZATION ( #360, #81 ) ;
#276 = CARTESIAN_POINT ( 'NONE',  ( 0.000000000000000000, 0.000000000000000000, 165.0000000000000000 ) ) ;
#277 = AXIS2_PLACEMENT_3D ( 'NONE', #31, #302, #261 ) ;
#278 = PERSON_AND_ORGANIZATION ( #360, #81 ) ;
#279 = DIRECTION ( 'NONE',  ( -1.000000000000000000, 0.000000000000000000, 0.000000000000000000 ) ) ;
#280 = ADVANCED_FACE ( 'NONE', ( #141 ), #255, .T. ) ;
#281 = DIRECTION ( 'NONE',  ( 1.224646799147353207E-16, 1.000000000000000000, -0.000000000000000000 ) ) ;
#282 = DIRECTION ( 'NONE',  ( 0.000000000000000000, 0.000000000000000000, 1.000000000000000000 ) ) ;
#283 = EDGE_CURVE ( 'NONE', #359, #122, #375, .T. ) ;
#284 = AXIS2_PLACEMENT_3D ( 'NONE', #111, #171, #23 ) ;
#285 = EDGE_CURVE ( 'NONE', #5, #374, #151, .T. ) ;
#286 = CARTESIAN_POINT ( 'NONE',  ( 0.000000000000000000, 0.000000000000000000, 165.0000000000000000 ) ) ;
#287 = DIRECTION ( 'NONE',  ( 0.000000000000000000, 0.000000000000000000, 1.000000000000000000 ) ) ;
#288 = CIRCLE ( 'NONE', #19, 4.000000000000000000 ) ;
#289 = DIRECTION ( 'NONE',  ( 1.000000000000000000, 0.000000000000000000, -0.000000000000000000 ) ) ;
#290 = AXIS2_PLACEMENT_3D ( 'NONE', #243, #365, #356 ) ;
#291 = CARTESIAN_POINT ( 'NONE',  ( 0.000000000000000000, 0.000000000000000000, 165.0000000000000000 ) ) ;
#292 = PRODUCT_DEFINITION_FORMATION_WITH_SPECIFIED_SOURCE ( 'LIBOVOLNÝ', '', #351, .NOT_KNOWN. ) ;
#293 = FACE_OUTER_BOUND ( 'NONE', #153, .T. ) ;
#294 = ORIENTED_EDGE ( 'NONE', *, *, #352, .F. ) ;
#295 = EDGE_CURVE ( 'NONE', #374, #5, #315, .T. ) ;
#296 = CARTESIAN_POINT ( 'NONE',  ( -2.500000000000000000, 0.000000000000000000, 165.0000000000000000 ) ) ;
#297 = EDGE_CURVE ( 'NONE', #244, #164, #363, .T. ) ;
#298 = ORIENTED_EDGE ( 'NONE', *, *, #313, .F. ) ;
#299 = TOROIDAL_SURFACE ( 'NONE', #4, 4.500000000000000888, 0.5000000000000000000 ) ;
#300 = CIRCLE ( 'NONE', #231, 7.000000000000000000 ) ;
#301 = ORIENTED_EDGE ( 'NONE', *, *, #86, .T. ) ;
#302 = DIRECTION ( 'NONE',  ( -0.000000000000000000, -0.000000000000000000, -1.000000000000000000 ) ) ;
#303 = EDGE_CURVE ( 'NONE', #311, #244, #331, .T. ) ;
#304 = DIRECTION ( 'NONE',  ( 1.000000000000000000, 0.000000000000000000, 0.000000000000000000 ) ) ;
#305 = EDGE_LOOP ( 'NONE', ( #366, #343 ) ) ;
#306 = AXIS2_PLACEMENT_3D ( 'NONE', #208, #328, #14 ) ;
#307 = PERSON_AND_ORGANIZATION ( #360, #81 ) ;
#308 = EDGE_LOOP ( 'NONE', ( #61, #189, #90, #134 ) ) ;
#309 = MECHANICAL_CONTEXT ( 'NONE', #147, 'mechanical' ) ;
#310 = MANIFOLD_SOLID_BREP ( 'Odebrat vysunutím3', #203 ) ;
#311 = VERTEX_POINT ( 'NONE', #95 ) ;
#312 = DATE_TIME_ROLE ( 'classification_date' ) ;
#313 = EDGE_CURVE ( 'NONE', #122, #37, #267, .T. ) ;
#314 = ORIENTED_EDGE ( 'NONE', *, *, #94, .T. ) ;
#315 = CIRCLE ( 'NONE', #277, 2.500000000000000000 ) ;
#316 =( GEOMETRIC_REPRESENTATION_CONTEXT ( 3 ) GLOBAL_UNCERTAINTY_ASSIGNED_CONTEXT ( ( #364 ) ) GLOBAL_UNIT_ASSIGNED_CONTEXT ( ( #63, #88, #177 ) ) REPRESENTATION_CONTEXT ( 'NONE', 'WORKASPACE' ) );
#317 = VERTEX_POINT ( 'NONE', #149 ) ;
#318 = PERSON_AND_ORGANIZATION_ROLE ( 'creator' ) ;
#319 = FACE_OUTER_BOUND ( 'NONE', #271, .T. ) ;
#320 = ADVANCED_FACE ( 'NONE', ( #36, #211 ), #97, .T. ) ;
#321 = CYLINDRICAL_SURFACE ( 'NONE', #241, 7.000000000000000000 ) ;
#322 = AXIS2_PLACEMENT_3D ( 'NONE', #112, #209, #1 ) ;
#323 = LOCAL_TIME ( 11, 9, 37.00000000000000000, #188 ) ;
#324 = DIRECTION ( 'NONE',  ( 0.000000000000000000, 0.000000000000000000, 1.000000000000000000 ) ) ;
#325 = CARTESIAN_POINT ( 'NONE',  ( 0.000000000000000000, 0.000000000000000000, 5.000000000000000000 ) ) ;
#326 = CARTESIAN_POINT ( 'NONE',  ( 7.000000000000000000, 8.572527594031473190E-16, 5.000000000000000000 ) ) ;
#327 = DIRECTION ( 'NONE',  ( 0.000000000000000000, 0.000000000000000000, 1.000000000000000000 ) ) ;
#328 = DIRECTION ( 'NONE',  ( 0.000000000000000000, 0.000000000000000000, 1.000000000000000000 ) ) ;
#329 = CARTESIAN_POINT ( 'NONE',  ( 0.000000000000000000, 0.000000000000000000, 0.000000000000000000 ) ) ;
#330 = CARTESIAN_POINT ( 'NONE',  ( -2.500000000000000000, 0.000000000000000000, 0.000000000000000000 ) ) ;
#331 = LINE ( 'NONE', #65, #253 ) ;
#332 = ORIENTED_EDGE ( 'NONE', *, *, #352, .T. ) ;
#333 = CIRCLE ( 'NONE', #179, 4.000000000000000000 ) ;
#334 = ORIENTED_EDGE ( 'NONE', *, *, #285, .T. ) ;
#335 = APPROVAL ( #224, 'NEURÈENÝ' ) ;
#336 = COORDINATED_UNIVERSAL_TIME_OFFSET ( 1, 0, .AHEAD. ) ;
#337 = DIRECTION ( 'NONE',  ( -0.000000000000000000, -0.000000000000000000, -1.000000000000000000 ) ) ;
#338 = CIRCLE ( 'NONE', #42, 2.500000000000000000 ) ;
#339 = VERTEX_POINT ( 'NONE', #182 ) ;
#340 = CC_DESIGN_PERSON_AND_ORGANIZATION_ASSIGNMENT ( #106, #318, ( #292 ) ) ;
#341 = EDGE_CURVE ( 'NONE', #37, #74, #22, .T. ) ;
#342 = CARTESIAN_POINT ( 'NONE',  ( 0.000000000000000000, 0.000000000000000000, 5.000000000000000000 ) ) ;
#343 = ORIENTED_EDGE ( 'NONE', *, *, #16, .T. ) ;
#344 = LOCAL_TIME ( 11, 9, 37.00000000000000000, #43 ) ;
#345 = DIRECTION ( 'NONE',  ( -0.000000000000000000, -0.000000000000000000, -1.000000000000000000 ) ) ;
#346 = PRODUCT_RELATED_PRODUCT_CATEGORY ( 'detail', '', ( #351 ) ) ;
#347 = CARTESIAN_POINT ( 'NONE',  ( 0.000000000000000000, 0.000000000000000000, 5.500000000000005329 ) ) ;
#348 = DIRECTION ( 'NONE',  ( 1.000000000000000000, 0.000000000000000000, 0.000000000000000000 ) ) ;
#349 = AXIS2_PLACEMENT_3D ( 'NONE', #353, #324, #204 ) ;
#350 = LINE ( 'NONE', #326, #33 ) ;
#351 = PRODUCT ( 'a8ec', 'a8ec', '', ( #309 ) ) ;
#352 = EDGE_CURVE ( 'NONE', #93, #240, #338, .T. ) ;
#353 = CARTESIAN_POINT ( 'NONE',  ( 0.000000000000000000, 0.000000000000000000, 5.500000000000005329 ) ) ;
#354 = DIRECTION ( 'NONE',  ( 0.000000000000000000, 0.000000000000000000, 1.000000000000000000 ) ) ;
#355 = CC_DESIGN_APPROVAL ( #29, ( #187 ) ) ;
#356 = DIRECTION ( 'NONE',  ( 1.000000000000000000, 0.000000000000000000, 0.000000000000000000 ) ) ;
#357 = DIRECTION ( 'NONE',  ( 0.000000000000000000, 0.000000000000000000, -1.000000000000000000 ) ) ;
#358 = CIRCLE ( 'NONE', #55, 4.500000000000000888 ) ;
#359 = VERTEX_POINT ( 'NONE', #152 ) ;
#360 = PERSON ( 'NEURÈENÝ', 'NEURÈENÝ', 'NEURÈENÝ', ('NEURÈENÝ'), ('NEURÈENÝ'), ('NEURÈENÝ') ) ;
#361 = DIRECTION ( 'NONE',  ( 0.000000000000000000, -1.000000000000000000, 0.000000000000000000 ) ) ;
#362 = EDGE_CURVE ( 'NONE', #93, #374, #184, .T. ) ;
#363 = CIRCLE ( 'NONE', #125, 0.5000000000000004441 ) ;
#364 = UNCERTAINTY_MEASURE_WITH_UNIT (LENGTH_MEASURE( 1.000000000000000082E-05 ), #63, 'distance_accuracy_value', 'NONE');
#365 = DIRECTION ( 'NONE',  ( -0.000000000000000000, -0.000000000000000000, -1.000000000000000000 ) ) ;
#366 = ORIENTED_EDGE ( 'NONE', *, *, #105, .T. ) ;
#367 = EDGE_LOOP ( 'NONE', ( #2, #131, #178, #64 ) ) ;
#368 = EDGE_CURVE ( 'NONE', #122, #359, #300, .T. ) ;
#369 = SHAPE_DEFINITION_REPRESENTATION ( #235, #136 ) ;
#370 = EDGE_LOOP ( 'NONE', ( #294, #35 ) ) ;
#371 = DATE_AND_TIME ( #17, #344 ) ;
#372 = CARTESIAN_POINT ( 'NONE',  ( -7.000000000000000000, 0.000000000000000000, 0.000000000000000000 ) ) ;
#373 = SECURITY_CLASSIFICATION_LEVEL ( 'unclassified' ) ;
#374 = VERTEX_POINT ( 'NONE', #330 ) ;
#375 = CIRCLE ( 'NONE', #13, 7.000000000000000000 ) ;
#376 = CARTESIAN_POINT ( 'NONE',  ( -2.500000000000000000, 0.000000000000000000, 165.0000000000000000 ) ) ;
#377 = DIRECTION ( 'NONE',  ( -1.000000000000000000, 0.000000000000000000, 0.000000000000000000 ) ) ;
#378 = DIRECTION ( 'NONE',  ( -0.000000000000000000, -0.000000000000000000, -1.000000000000000000 ) ) ;
#379 = FACE_OUTER_BOUND ( 'NONE', #367, .T. ) ;
#380 = PLANE ( 'NONE',  #101 ) ;
#381 = APPLICATION_PROTOCOL_DEFINITION ( 'international standard', 'config_control_design', 1994, #147 ) ;
ENDSEC;
END-ISO-10303-21;
