ISO-10303-21;
HEADER;
FILE_DESCRIPTION (( 'STEP AP203' ),
    '1' );
FILE_NAME ('6f50.STEP',
    '2022-07-10T09:01:13',
    ( '' ),
    ( '' ),
    'SwSTEP 2.0',
    'SolidWorks 2019',
    '' );
FILE_SCHEMA (( 'CONFIG_CONTROL_DESIGN' ));
ENDSEC;

DATA;
#1 = ADVANCED_FACE ( 'NONE', ( #94, #325 ), #227, .F. ) ;
#2 = APPROVAL_STATUS ( 'not_yet_approved' ) ;
#3 = EDGE_LOOP ( 'NONE', ( #214, #35, #55, #322 ) ) ;
#4 = DATE_AND_TIME ( #40, #144 ) ;
#5 = ORIENTED_EDGE ( 'NONE', *, *, #318, .T. ) ;
#6 = APPROVAL_PERSON_ORGANIZATION ( #194, #297, #226 ) ;
#7 = DATE_AND_TIME ( #196, #184 ) ;
#8 = CARTESIAN_POINT ( 'NONE',  ( 0.000000000000000000, 0.000000000000000000, 7.000000000000000000 ) ) ;
#9 = ORIENTED_EDGE ( 'NONE', *, *, #65, .F. ) ;
#10 = DESIGN_CONTEXT ( 'detailed design', #248, 'design' ) ;
#11 = CARTESIAN_POINT ( 'NONE',  ( 0.000000000000000000, 0.000000000000000000, 157.0000000000000000 ) ) ;
#12 = VECTOR ( 'NONE', #27, 1000.000000000000000 ) ;
#13 = DIRECTION ( 'NONE',  ( -0.000000000000000000, -0.000000000000000000, -1.000000000000000000 ) ) ;
#14 = EDGE_CURVE ( 'NONE', #51, #110, #150, .T. ) ;
#15 = CARTESIAN_POINT ( 'NONE',  ( 0.000000000000000000, 0.000000000000000000, 7.000000000000000000 ) ) ;
#16 = DIRECTION ( 'NONE',  ( 0.000000000000000000, 0.000000000000000000, 1.000000000000000000 ) ) ;
#17 = CIRCLE ( 'NONE', #68, 0.7000000000000000666 ) ;
#18 = AXIS2_PLACEMENT_3D ( 'NONE', #206, #122, #361 ) ;
#19 = CARTESIAN_POINT ( 'NONE',  ( 0.000000000000000000, 0.000000000000000000, 7.700000000000012612 ) ) ;
#20 = CARTESIAN_POINT ( 'NONE',  ( 11.00000000000000000, 1.347111479062088405E-15, 7.000000000000000000 ) ) ;
#21 = ORIENTED_EDGE ( 'NONE', *, *, #14, .F. ) ;
#22 = DIRECTION ( 'NONE',  ( 0.000000000000000000, 0.000000000000000000, 1.000000000000000000 ) ) ;
#23 = SECURITY_CLASSIFICATION ( '', '', #321 ) ;
#24 = CARTESIAN_POINT ( 'NONE',  ( -11.00000000000000000, 0.000000000000000000, 7.000000000000000000 ) ) ;
#25 = AXIS2_PLACEMENT_3D ( 'NONE', #8, #195, #319 ) ;
#26 = ORIENTED_EDGE ( 'NONE', *, *, #249, .T. ) ;
#27 = DIRECTION ( 'NONE',  ( -0.000000000000000000, -0.000000000000000000, -1.000000000000000000 ) ) ;
#28 = DIRECTION ( 'NONE',  ( -0.000000000000000000, -0.000000000000000000, -1.000000000000000000 ) ) ;
#29 = DATE_AND_TIME ( #264, #228 ) ;
#30 = CIRCLE ( 'NONE', #261, 5.000000000000000000 ) ;
#31 = ORIENTED_EDGE ( 'NONE', *, *, #277, .F. ) ;
#32 = EDGE_CURVE ( 'NONE', #93, #231, #270, .T. ) ;
#33 = DATE_AND_TIME ( #262, #254 ) ;
#34 = ORIENTED_EDGE ( 'NONE', *, *, #338, .T. ) ;
#35 = ORIENTED_EDGE ( 'NONE', *, *, #70, .T. ) ;
#36 = EDGE_CURVE ( 'NONE', #231, #93, #204, .T. ) ;
#37 = PERSON_AND_ORGANIZATION ( #375, #209 ) ;
#38 = ORIENTED_EDGE ( 'NONE', *, *, #205, .F. ) ;
#39 = AXIS2_PLACEMENT_3D ( 'NONE', #354, #351, #198 ) ;
#40 = CALENDAR_DATE ( 2022, 10, 7 ) ;
#41 = EDGE_LOOP ( 'NONE', ( #113, #376, #368, #173 ) ) ;
#42 = DIRECTION ( 'NONE',  ( 1.000000000000000000, 0.000000000000000000, 0.000000000000000000 ) ) ;
#43 = DIRECTION ( 'NONE',  ( 0.000000000000000000, 0.000000000000000000, -1.000000000000000000 ) ) ;
#44 = VECTOR ( 'NONE', #218, 1000.000000000000000 ) ;
#45 = CARTESIAN_POINT ( 'NONE',  ( 11.00000000000000000, 1.347111479062088405E-15, 0.000000000000000000 ) ) ;
#46 = CARTESIAN_POINT ( 'NONE',  ( 0.000000000000000000, 0.000000000000000000, 157.0000000000000000 ) ) ;
#47 = CARTESIAN_POINT ( 'NONE',  ( 0.000000000000000000, 0.000000000000000000, 157.0000000000000000 ) ) ;
#48 = AXIS2_PLACEMENT_3D ( 'NONE', #359, #97, #332 ) ;
#49 = CYLINDRICAL_SURFACE ( 'NONE', #300, 11.00000000000000000 ) ;
#50 = DIRECTION ( 'NONE',  ( 0.000000000000000000, 0.000000000000000000, -1.000000000000000000 ) ) ;
#51 = VERTEX_POINT ( 'NONE', #327 ) ;
#52 = CC_DESIGN_PERSON_AND_ORGANIZATION_ASSIGNMENT ( #37, #286, ( #114 ) ) ;
#53 = DIRECTION ( 'NONE',  ( -0.000000000000000000, -0.000000000000000000, -1.000000000000000000 ) ) ;
#54 = DIRECTION ( 'NONE',  ( -0.000000000000000000, -0.000000000000000000, -1.000000000000000000 ) ) ;
#55 = ORIENTED_EDGE ( 'NONE', *, *, #323, .F. ) ;
#56 = EDGE_CURVE ( 'NONE', #343, #111, #257, .T. ) ;
#57 = CARTESIAN_POINT ( 'NONE',  ( 0.000000000000000000, 0.000000000000000000, 0.000000000000000000 ) ) ;
#58 = EDGE_LOOP ( 'NONE', ( #136, #21, #5, #234 ) ) ;
#59 = DIRECTION ( 'NONE',  ( 1.000000000000000000, 0.000000000000000000, 0.000000000000000000 ) ) ;
#60 = ORIENTED_EDGE ( 'NONE', *, *, #360, .F. ) ;
#61 = PERSON_AND_ORGANIZATION ( #375, #209 ) ;
#62 = ORIENTED_EDGE ( 'NONE', *, *, #249, .F. ) ;
#63 = APPLICATION_PROTOCOL_DEFINITION ( 'international standard', 'config_control_design', 1994, #248 ) ;
#64 = ORIENTED_EDGE ( 'NONE', *, *, #230, .F. ) ;
#65 = EDGE_CURVE ( 'NONE', #110, #51, #67, .T. ) ;
#66 = EDGE_LOOP ( 'NONE', ( #147, #379 ) ) ;
#67 = CIRCLE ( 'NONE', #293, 11.00000000000000000 ) ;
#68 = AXIS2_PLACEMENT_3D ( 'NONE', #370, #107, #50 ) ;
#69 = UNCERTAINTY_MEASURE_WITH_UNIT (LENGTH_MEASURE( 1.000000000000000082E-05 ), #186, 'distance_accuracy_value', 'NONE');
#70 = EDGE_CURVE ( 'NONE', #231, #203, #174, .T. ) ;
#71 = LINE ( 'NONE', #176, #44 ) ;
#72 = CARTESIAN_POINT ( 'NONE',  ( 5.000000000000000000, 6.123233995736766282E-16, 0.000000000000000000 ) ) ;
#73 = CYLINDRICAL_SURFACE ( 'NONE', #84, 7.000000000000000888 ) ;
#74 = AXIS2_PLACEMENT_3D ( 'NONE', #148, #298, #125 ) ;
#75 = FACE_OUTER_BOUND ( 'NONE', #41, .T. ) ;
#76 = FACE_OUTER_BOUND ( 'NONE', #224, .T. ) ;
#77 = DIRECTION ( 'NONE',  ( -0.000000000000000000, -0.000000000000000000, -1.000000000000000000 ) ) ;
#78 = EDGE_CURVE ( 'NONE', #250, #142, #242, .T. ) ;
#79 = DIRECTION ( 'NONE',  ( 1.000000000000000000, 0.000000000000000000, 0.000000000000000000 ) ) ;
#80 = ORIENTED_EDGE ( 'NONE', *, *, #205, .T. ) ;
#81 = CARTESIAN_POINT ( 'NONE',  ( 7.000000000000000888, 8.572527594031474176E-16, 157.0000000000000000 ) ) ;
#82 = CC_DESIGN_SECURITY_CLASSIFICATION ( #23, ( #269 ) ) ;
#83 = CARTESIAN_POINT ( 'NONE',  ( 0.000000000000000000, 0.000000000000000000, 0.000000000000000000 ) ) ;
#84 = AXIS2_PLACEMENT_3D ( 'NONE', #243, #13, #271 ) ;
#85 = ORIENTED_EDGE ( 'NONE', *, *, #236, .T. ) ;
#86 = EDGE_LOOP ( 'NONE', ( #80, #279 ) ) ;
#87 = EDGE_LOOP ( 'NONE', ( #310, #38, #290, #167 ) ) ;
#88 = CALENDAR_DATE ( 2022, 10, 7 ) ;
#89 = AXIS2_PLACEMENT_3D ( 'NONE', #280, #77, #313 ) ;
#90 = ADVANCED_FACE ( 'NONE', ( #266 ), #178, .F. ) ;
#91 = ORIENTED_EDGE ( 'NONE', *, *, #358, .F. ) ;
#92 = PERSON_AND_ORGANIZATION_ROLE ( 'design_owner' ) ;
#93 = VERTEX_POINT ( 'NONE', #273 ) ;
#94 = FACE_BOUND ( 'NONE', #381, .T. ) ;
#95 = VERTEX_POINT ( 'NONE', #45 ) ;
#96 = VECTOR ( 'NONE', #28, 1000.000000000000000 ) ;
#97 = DIRECTION ( 'NONE',  ( 0.000000000000000000, 0.000000000000000000, 1.000000000000000000 ) ) ;
#98 = DIRECTION ( 'NONE',  ( -1.000000000000000000, 0.000000000000000000, 0.000000000000000000 ) ) ;
#99 = CYLINDRICAL_SURFACE ( 'NONE', #371, 5.000000000000000000 ) ;
#100 = AXIS2_PLACEMENT_3D ( 'NONE', #378, #104, #211 ) ;
#101 = FACE_OUTER_BOUND ( 'NONE', #58, .T. ) ;
#102 = APPROVAL ( #291, 'NEURÈENÝ' ) ;
#103 = DIRECTION ( 'NONE',  ( -1.000000000000000000, 0.000000000000000000, 0.000000000000000000 ) ) ;
#104 = DIRECTION ( 'NONE',  ( -0.000000000000000000, -0.000000000000000000, -1.000000000000000000 ) ) ;
#105 = DIRECTION ( 'NONE',  ( -0.000000000000000000, -0.000000000000000000, -1.000000000000000000 ) ) ;
#106 = ORIENTED_EDGE ( 'NONE', *, *, #338, .F. ) ;
#107 = DIRECTION ( 'NONE',  ( 0.000000000000000000, -1.000000000000000000, 0.000000000000000000 ) ) ;
#108 = FACE_OUTER_BOUND ( 'NONE', #162, .T. ) ;
#109 = LOCAL_TIME ( 11, 1, 13.00000000000000000, #163 ) ;
#110 = VERTEX_POINT ( 'NONE', #272 ) ;
#111 = VERTEX_POINT ( 'NONE', #72 ) ;
#112 = APPROVAL_DATE_TIME ( #317, #102 ) ;
#113 = ORIENTED_EDGE ( 'NONE', *, *, #70, .F. ) ;
#114 = PRODUCT_DEFINITION ( 'NEZNÁMÝ', '', #269, #10 ) ;
#115 = DIRECTION ( 'NONE',  ( 0.000000000000000000, 0.000000000000000000, 1.000000000000000000 ) ) ;
#116 = AXIS2_PLACEMENT_3D ( 'NONE', #284, #212, #344 ) ;
#117 = VERTEX_POINT ( 'NONE', #207 ) ;
#118 = ORIENTED_EDGE ( 'NONE', *, *, #309, .T. ) ;
#119 = EDGE_LOOP ( 'NONE', ( #287, #91 ) ) ;
#120 = FACE_OUTER_BOUND ( 'NONE', #86, .T. ) ;
#121 = VECTOR ( 'NONE', #53, 1000.000000000000000 ) ;
#122 = DIRECTION ( 'NONE',  ( -0.000000000000000000, -0.000000000000000000, -1.000000000000000000 ) ) ;
#123 = ADVANCED_FACE ( 'NONE', ( #149 ), #99, .F. ) ;
#124 = DIRECTION ( 'NONE',  ( 1.000000000000000000, 0.000000000000000000, 0.000000000000000000 ) ) ;
#125 = DIRECTION ( 'NONE',  ( -1.000000000000000000, 1.224646799147351975E-16, 0.000000000000000000 ) ) ;
#126 = AXIS2_PLACEMENT_3D ( 'NONE', #47, #331, #208 ) ;
#127 = CYLINDRICAL_SURFACE ( 'NONE', #369, 11.00000000000000000 ) ;
#128 = ADVANCED_FACE ( 'NONE', ( #153, #120 ), #151, .T. ) ;
#129 = LINE ( 'NONE', #24, #96 ) ;
#130 = CARTESIAN_POINT ( 'NONE',  ( 0.000000000000000000, 0.000000000000000000, 7.000000000000000000 ) ) ;
#131 = AXIS2_PLACEMENT_3D ( 'NONE', #83, #183, #134 ) ;
#132 = AXIS2_PLACEMENT_3D ( 'NONE', #177, #305, #124 ) ;
#133 = CARTESIAN_POINT ( 'NONE',  ( 0.000000000000000000, 0.000000000000000000, 157.0000000000000000 ) ) ;
#134 = DIRECTION ( 'NONE',  ( 1.000000000000000000, 0.000000000000000000, 0.000000000000000000 ) ) ;
#135 = CARTESIAN_POINT ( 'NONE',  ( -7.000000000000000888, 0.000000000000000000, 7.700000000000012612 ) ) ;
#136 = ORIENTED_EDGE ( 'NONE', *, *, #289, .F. ) ;
#137 =( GEOMETRIC_REPRESENTATION_CONTEXT ( 3 ) GLOBAL_UNCERTAINTY_ASSIGNED_CONTEXT ( ( #69 ) ) GLOBAL_UNIT_ASSIGNED_CONTEXT ( ( #186, #311, #143 ) ) REPRESENTATION_CONTEXT ( 'NONE', 'WORKASPACE' ) );
#138 = ORIENTED_EDGE ( 'NONE', *, *, #78, .F. ) ;
#139 = ADVANCED_FACE ( 'NONE', ( #76 ), #73, .T. ) ;
#140 = CARTESIAN_POINT ( 'NONE',  ( 0.000000000000000000, 0.000000000000000000, 7.700000000000012612 ) ) ;
#141 = PERSON_AND_ORGANIZATION ( #375, #209 ) ;
#142 = VERTEX_POINT ( 'NONE', #335 ) ;
#143 =( NAMED_UNIT ( * ) SI_UNIT ( $, .STERADIAN. ) SOLID_ANGLE_UNIT ( ) );
#144 = LOCAL_TIME ( 11, 1, 13.00000000000000000, #166 ) ;
#145 = EDGE_LOOP ( 'NONE', ( #62, #106 ) ) ;
#146 = PERSON_AND_ORGANIZATION ( #375, #209 ) ;
#147 = ORIENTED_EDGE ( 'NONE', *, *, #14, .T. ) ;
#148 = CARTESIAN_POINT ( 'NONE',  ( -7.700000000000001066, 9.429780353434621002E-16, 7.700000000000012612 ) ) ;
#149 = FACE_OUTER_BOUND ( 'NONE', #156, .T. ) ;
#150 = CIRCLE ( 'NONE', #25, 11.00000000000000000 ) ;
#151 = PLANE ( 'NONE',  #126 ) ;
#152 = DIRECTION ( 'NONE',  ( -0.000000000000000000, -0.000000000000000000, -1.000000000000000000 ) ) ;
#153 = FACE_BOUND ( 'NONE', #145, .T. ) ;
#154 = AXIS2_PLACEMENT_3D ( 'NONE', #46, #16, #240 ) ;
#155 = FACE_OUTER_BOUND ( 'NONE', #3, .T. ) ;
#156 = EDGE_LOOP ( 'NONE', ( #26, #253, #292, #64 ) ) ;
#157 = DIRECTION ( 'NONE',  ( 0.000000000000000000, 0.000000000000000000, 1.000000000000000000 ) ) ;
#158 = DIRECTION ( 'NONE',  ( 1.000000000000000000, 0.000000000000000000, 0.000000000000000000 ) ) ;
#159 = CIRCLE ( 'NONE', #306, 5.000000000000000000 ) ;
#160 = AXIS2_PLACEMENT_3D ( 'NONE', #11, #43, #98 ) ;
#161 = PRODUCT ( '6f50', '6f50', '', ( #168 ) ) ;
#162 = EDGE_LOOP ( 'NONE', ( #9, #372, #256, #164 ) ) ;
#163 = COORDINATED_UNIVERSAL_TIME_OFFSET ( 1, 0, .AHEAD. ) ;
#164 = ORIENTED_EDGE ( 'NONE', *, *, #318, .F. ) ;
#165 = CC_DESIGN_PERSON_AND_ORGANIZATION_ASSIGNMENT ( #61, #232, ( #269 ) ) ;
#166 = COORDINATED_UNIVERSAL_TIME_OFFSET ( 1, 0, .AHEAD. ) ;
#167 = ORIENTED_EDGE ( 'NONE', *, *, #36, .T. ) ;
#168 = MECHANICAL_CONTEXT ( 'NONE', #285, 'mechanical' ) ;
#169 = DIRECTION ( 'NONE',  ( 0.000000000000000000, 0.000000000000000000, 1.000000000000000000 ) ) ;
#170 = EDGE_CURVE ( 'NONE', #233, #95, #363, .T. ) ;
#171 = APPROVAL_ROLE ( '' ) ;
#172 = CIRCLE ( 'NONE', #274, 7.700000000000001066 ) ;
#173 = ORIENTED_EDGE ( 'NONE', *, *, #309, .F. ) ;
#174 = CIRCLE ( 'NONE', #74, 0.7000000000000000666 ) ;
#175 = CC_DESIGN_PERSON_AND_ORGANIZATION_ASSIGNMENT ( #141, #201, ( #23 ) ) ;
#176 = CARTESIAN_POINT ( 'NONE',  ( -5.000000000000000000, 0.000000000000000000, 157.0000000000000000 ) ) ;
#177 = CARTESIAN_POINT ( 'NONE',  ( 0.000000000000000000, 0.000000000000000000, 0.000000000000000000 ) ) ;
#178 = CYLINDRICAL_SURFACE ( 'NONE', #160, 5.000000000000000000 ) ;
#179 = CC_DESIGN_APPROVAL ( #297, ( #269 ) ) ;
#180 = DIRECTION ( 'NONE',  ( 0.000000000000000000, 0.000000000000000000, 1.000000000000000000 ) ) ;
#181 = DIRECTION ( 'NONE',  ( 0.000000000000000000, 0.000000000000000000, 1.000000000000000000 ) ) ;
#182 = EDGE_CURVE ( 'NONE', #142, #231, #299, .T. ) ;
#183 = DIRECTION ( 'NONE',  ( 0.000000000000000000, 0.000000000000000000, 1.000000000000000000 ) ) ;
#184 = LOCAL_TIME ( 11, 1, 13.00000000000000000, #350 ) ;
#185 = CARTESIAN_POINT ( 'NONE',  ( 0.000000000000000000, 0.000000000000000000, 157.0000000000000000 ) ) ;
#186 =( LENGTH_UNIT ( ) NAMED_UNIT ( * ) SI_UNIT ( .MILLI., .METRE. ) );
#187 = CARTESIAN_POINT ( 'NONE',  ( 0.000000000000000000, 0.000000000000000000, 7.000000000000000000 ) ) ;
#188 = ADVANCED_FACE ( 'NONE', ( #365 ), #238, .T. ) ;
#189 = CC_DESIGN_APPROVAL ( #336, ( #23 ) ) ;
#190 = DIRECTION ( 'NONE',  ( 1.000000000000000000, 0.000000000000000000, 0.000000000000000000 ) ) ;
#191 = ADVANCED_FACE ( 'NONE', ( #75 ), #347, .F. ) ;
#192 = APPROVAL_ROLE ( '' ) ;
#193 = PRODUCT_RELATED_PRODUCT_CATEGORY ( 'detail', '', ( #161 ) ) ;
#194 = PERSON_AND_ORGANIZATION ( #375, #209 ) ;
#195 = DIRECTION ( 'NONE',  ( 0.000000000000000000, 0.000000000000000000, 1.000000000000000000 ) ) ;
#196 = CALENDAR_DATE ( 2022, 10, 7 ) ;
#197 = AXIS2_PLACEMENT_3D ( 'NONE', #19, #180, #304 ) ;
#198 = DIRECTION ( 'NONE',  ( 1.000000000000000000, 0.000000000000000000, 0.000000000000000000 ) ) ;
#199 = PERSON_AND_ORGANIZATION_ROLE ( 'creator' ) ;
#200 = ORIENTED_EDGE ( 'NONE', *, *, #56, .F. ) ;
#201 = PERSON_AND_ORGANIZATION_ROLE ( 'classification_officer' ) ;
#202 = DIRECTION ( 'NONE',  ( 1.000000000000000000, 0.000000000000000000, 0.000000000000000000 ) ) ;
#203 = VERTEX_POINT ( 'NONE', #237 ) ;
#204 = CIRCLE ( 'NONE', #334, 7.000000000000000888 ) ;
#205 = EDGE_CURVE ( 'NONE', #142, #250, #328, .T. ) ;
#206 = CARTESIAN_POINT ( 'NONE',  ( 0.000000000000000000, 0.000000000000000000, 157.0000000000000000 ) ) ;
#207 = CARTESIAN_POINT ( 'NONE',  ( -5.000000000000000000, 0.000000000000000000, 0.000000000000000000 ) ) ;
#208 = DIRECTION ( 'NONE',  ( 1.000000000000000000, 0.000000000000000000, -0.000000000000000000 ) ) ;
#209 = ORGANIZATION ( 'NEURÈENÝ', 'NEURÈENÝ', '' ) ;
#210 = CARTESIAN_POINT ( 'NONE',  ( 0.000000000000000000, 0.000000000000000000, 7.000000000000000000 ) ) ;
#211 = DIRECTION ( 'NONE',  ( 1.000000000000000000, 0.000000000000000000, 0.000000000000000000 ) ) ;
#212 = DIRECTION ( 'NONE',  ( 0.000000000000000000, 0.000000000000000000, 1.000000000000000000 ) ) ;
#213 = CIRCLE ( 'NONE', #100, 5.000000000000000000 ) ;
#214 = ORIENTED_EDGE ( 'NONE', *, *, #36, .F. ) ;
#215 = FACE_OUTER_BOUND ( 'NONE', #66, .T. ) ;
#216 = DIRECTION ( 'NONE',  ( 1.000000000000000000, 0.000000000000000000, 0.000000000000000000 ) ) ;
#217 = CC_DESIGN_PERSON_AND_ORGANIZATION_ASSIGNMENT ( #146, #199, ( #269 ) ) ;
#218 = DIRECTION ( 'NONE',  ( 0.000000000000000000, 0.000000000000000000, -1.000000000000000000 ) ) ;
#219 = AXIS2_PLACEMENT_3D ( 'NONE', #278, #157, #342 ) ;
#220 = PERSON_AND_ORGANIZATION ( #375, #209 ) ;
#221 = ORIENTED_EDGE ( 'NONE', *, *, #230, .T. ) ;
#222 = ADVANCED_FACE ( 'NONE', ( #101 ), #127, .T. ) ;
#223 = COORDINATED_UNIVERSAL_TIME_OFFSET ( 1, 0, .AHEAD. ) ;
#224 = EDGE_LOOP ( 'NONE', ( #138, #85, #276, #312 ) ) ;
#225 = MANIFOLD_SOLID_BREP ( 'Odebrat vysunutím3', #356 ) ;
#226 = APPROVAL_ROLE ( '' ) ;
#227 = PLANE ( 'NONE',  #301 ) ;
#228 = LOCAL_TIME ( 11, 1, 13.00000000000000000, #294 ) ;
#229 = APPROVAL_DATE_TIME ( #7, #297 ) ;
#230 = EDGE_CURVE ( 'NONE', #355, #117, #71, .T. ) ;
#231 = VERTEX_POINT ( 'NONE', #135 ) ;
#232 = PERSON_AND_ORGANIZATION_ROLE ( 'design_supplier' ) ;
#233 = VERTEX_POINT ( 'NONE', #377 ) ;
#234 = ORIENTED_EDGE ( 'NONE', *, *, #170, .T. ) ;
#235 = CARTESIAN_POINT ( 'NONE',  ( 0.000000000000000000, 0.000000000000000000, 157.0000000000000000 ) ) ;
#236 = EDGE_CURVE ( 'NONE', #250, #93, #374, .T. ) ;
#237 = CARTESIAN_POINT ( 'NONE',  ( -7.700000000000001066, 9.429780353434621002E-16, 7.000000000000006217 ) ) ;
#238 = CYLINDRICAL_SURFACE ( 'NONE', #18, 7.000000000000000888 ) ;
#239 = VECTOR ( 'NONE', #302, 1000.000000000000000 ) ;
#240 = DIRECTION ( 'NONE',  ( 1.000000000000000000, 0.000000000000000000, 0.000000000000000000 ) ) ;
#241 = APPROVAL_PERSON_ORGANIZATION ( #220, #102, #192 ) ;
#242 = CIRCLE ( 'NONE', #48, 7.000000000000000888 ) ;
#243 = CARTESIAN_POINT ( 'NONE',  ( 0.000000000000000000, 0.000000000000000000, 157.0000000000000000 ) ) ;
#244 = DIRECTION ( 'NONE',  ( 0.000000000000000000, 0.000000000000000000, 1.000000000000000000 ) ) ;
#245 = ADVANCED_FACE ( 'NONE', ( #155 ), #281, .F. ) ;
#246 = CARTESIAN_POINT ( 'NONE',  ( 7.700000000000001066, 0.000000000000000000, 7.000000000000006217 ) ) ;
#247 = CIRCLE ( 'NONE', #341, 5.000000000000000000 ) ;
#248 = APPLICATION_CONTEXT ( 'configuration controlled 3d designs of mechanical parts and assemblies' ) ;
#249 = EDGE_CURVE ( 'NONE', #355, #343, #247, .T. ) ;
#250 = VERTEX_POINT ( 'NONE', #275 ) ;
#251 = CARTESIAN_POINT ( 'NONE',  ( 0.000000000000000000, 0.000000000000000000, 0.000000000000000000 ) ) ;
#252 = PLANE ( 'NONE',  #219 ) ;
#253 = ORIENTED_EDGE ( 'NONE', *, *, #56, .T. ) ;
#254 = LOCAL_TIME ( 11, 1, 13.00000000000000000, #223 ) ;
#255 = APPROVAL_DATE_TIME ( #29, #336 ) ;
#256 = ORIENTED_EDGE ( 'NONE', *, *, #358, .T. ) ;
#257 = LINE ( 'NONE', #296, #239 ) ;
#258 = ADVANCED_FACE ( 'NONE', ( #339, #215 ), #252, .T. ) ;
#259 = PERSON_AND_ORGANIZATION ( #375, #209 ) ;
#260 = ORIENTED_EDGE ( 'NONE', *, *, #323, .T. ) ;
#261 = AXIS2_PLACEMENT_3D ( 'NONE', #251, #307, #190 ) ;
#262 = CALENDAR_DATE ( 2022, 10, 7 ) ;
#263 = DIRECTION ( 'NONE',  ( 1.000000000000000000, 0.000000000000000000, -0.000000000000000000 ) ) ;
#264 = CALENDAR_DATE ( 2022, 10, 7 ) ;
#265 = DIRECTION ( 'NONE',  ( 0.000000000000000000, 0.000000000000000000, 1.000000000000000000 ) ) ;
#266 = FACE_OUTER_BOUND ( 'NONE', #349, .T. ) ;
#267 = CC_DESIGN_DATE_AND_TIME_ASSIGNMENT ( #4, #380, ( #23 ) ) ;
#268 = ADVANCED_BREP_SHAPE_REPRESENTATION ( '6f50', ( #225, #314 ), #137 ) ;
#269 = PRODUCT_DEFINITION_FORMATION_WITH_SPECIFIED_SOURCE ( 'LIBOVOLNÝ', '', #161, .NOT_KNOWN. ) ;
#270 = CIRCLE ( 'NONE', #39, 7.000000000000000888 ) ;
#271 = DIRECTION ( 'NONE',  ( -1.000000000000000000, 0.000000000000000000, 0.000000000000000000 ) ) ;
#272 = CARTESIAN_POINT ( 'NONE',  ( 11.00000000000000000, 1.347111479062088405E-15, 7.000000000000000000 ) ) ;
#273 = CARTESIAN_POINT ( 'NONE',  ( 7.000000000000000888, 8.572527594031474176E-16, 7.700000000000012612 ) ) ;
#274 = AXIS2_PLACEMENT_3D ( 'NONE', #187, #54, #158 ) ;
#275 = CARTESIAN_POINT ( 'NONE',  ( 7.000000000000000888, 8.572527594031474176E-16, 157.0000000000000000 ) ) ;
#276 = ORIENTED_EDGE ( 'NONE', *, *, #32, .T. ) ;
#277 = EDGE_CURVE ( 'NONE', #111, #117, #213, .T. ) ;
#278 = CARTESIAN_POINT ( 'NONE',  ( 0.000000000000000000, 0.000000000000000000, 7.000000000000000000 ) ) ;
#279 = ORIENTED_EDGE ( 'NONE', *, *, #78, .T. ) ;
#280 = CARTESIAN_POINT ( 'NONE',  ( 0.000000000000000000, 0.000000000000000000, 7.000000000000000000 ) ) ;
#281 = TOROIDAL_SURFACE ( 'NONE', #116, 7.700000000000001066, 0.6999999999999999556 ) ;
#282 = VERTEX_POINT ( 'NONE', #246 ) ;
#283 = PRODUCT_DEFINITION_SHAPE ( 'NONE', 'NONE',  #114 ) ;
#284 = CARTESIAN_POINT ( 'NONE',  ( 0.000000000000000000, 0.000000000000000000, 7.700000000000012612 ) ) ;
#285 = APPLICATION_CONTEXT ( 'configuration controlled 3d designs of mechanical parts and assemblies' ) ;
#286 = PERSON_AND_ORGANIZATION_ROLE ( 'creator' ) ;
#287 = ORIENTED_EDGE ( 'NONE', *, *, #170, .F. ) ;
#288 = CARTESIAN_POINT ( 'NONE',  ( 0.000000000000000000, 0.000000000000000000, 0.000000000000000000 ) ) ;
#289 = EDGE_CURVE ( 'NONE', #110, #95, #308, .T. ) ;
#290 = ORIENTED_EDGE ( 'NONE', *, *, #182, .T. ) ;
#291 = APPROVAL_STATUS ( 'not_yet_approved' ) ;
#292 = ORIENTED_EDGE ( 'NONE', *, *, #277, .T. ) ;
#293 = AXIS2_PLACEMENT_3D ( 'NONE', #15, #181, #42 ) ;
#294 = COORDINATED_UNIVERSAL_TIME_OFFSET ( 1, 0, .AHEAD. ) ;
#295 = VECTOR ( 'NONE', #152, 1000.000000000000000 ) ;
#296 = CARTESIAN_POINT ( 'NONE',  ( 5.000000000000000000, 6.123233995736766282E-16, 157.0000000000000000 ) ) ;
#297 = APPROVAL ( #2, 'NEURÈENÝ' ) ;
#298 = DIRECTION ( 'NONE',  ( 1.224646799147353207E-16, 1.000000000000000000, -0.000000000000000000 ) ) ;
#299 = LINE ( 'NONE', #357, #295 ) ;
#300 = AXIS2_PLACEMENT_3D ( 'NONE', #130, #105, #367 ) ;
#301 = AXIS2_PLACEMENT_3D ( 'NONE', #288, #169, #263 ) ;
#302 = DIRECTION ( 'NONE',  ( 0.000000000000000000, 0.000000000000000000, -1.000000000000000000 ) ) ;
#303 = EDGE_CURVE ( 'NONE', #93, #282, #17, .T. ) ;
#304 = DIRECTION ( 'NONE',  ( 1.000000000000000000, 0.000000000000000000, 0.000000000000000000 ) ) ;
#305 = DIRECTION ( 'NONE',  ( 0.000000000000000000, 0.000000000000000000, 1.000000000000000000 ) ) ;
#306 = AXIS2_PLACEMENT_3D ( 'NONE', #133, #244, #216 ) ;
#307 = DIRECTION ( 'NONE',  ( -0.000000000000000000, -0.000000000000000000, -1.000000000000000000 ) ) ;
#308 = LINE ( 'NONE', #20, #121 ) ;
#309 = EDGE_CURVE ( 'NONE', #203, #282, #172, .T. ) ;
#310 = ORIENTED_EDGE ( 'NONE', *, *, #236, .F. ) ;
#311 =( NAMED_UNIT ( * ) PLANE_ANGLE_UNIT ( ) SI_UNIT ( $, .RADIAN. ) );
#312 = ORIENTED_EDGE ( 'NONE', *, *, #182, .F. ) ;
#313 = DIRECTION ( 'NONE',  ( 1.000000000000000000, 0.000000000000000000, 0.000000000000000000 ) ) ;
#314 = AXIS2_PLACEMENT_3D ( 'NONE', #57, #115, #59 ) ;
#315 = CARTESIAN_POINT ( 'NONE',  ( -5.000000000000000000, 0.000000000000000000, 157.0000000000000000 ) ) ;
#316 = EDGE_LOOP ( 'NONE', ( #260, #118 ) ) ;
#317 = DATE_AND_TIME ( #88, #109 ) ;
#318 = EDGE_CURVE ( 'NONE', #51, #233, #129, .T. ) ;
#319 = DIRECTION ( 'NONE',  ( 1.000000000000000000, 0.000000000000000000, 0.000000000000000000 ) ) ;
#320 = APPROVAL_PERSON_ORGANIZATION ( #324, #336, #171 ) ;
#321 = SECURITY_CLASSIFICATION_LEVEL ( 'unclassified' ) ;
#322 = ORIENTED_EDGE ( 'NONE', *, *, #303, .F. ) ;
#323 = EDGE_CURVE ( 'NONE', #282, #203, #346, .T. ) ;
#324 = PERSON_AND_ORGANIZATION ( #375, #209 ) ;
#325 = FACE_OUTER_BOUND ( 'NONE', #119, .T. ) ;
#326 = APPROVAL_STATUS ( 'not_yet_approved' ) ;
#327 = CARTESIAN_POINT ( 'NONE',  ( -11.00000000000000000, 0.000000000000000000, 7.000000000000000000 ) ) ;
#328 = CIRCLE ( 'NONE', #154, 7.000000000000000888 ) ;
#329 = DIRECTION ( 'NONE',  ( -1.000000000000000000, 0.000000000000000000, 0.000000000000000000 ) ) ;
#330 = SHAPE_DEFINITION_REPRESENTATION ( #283, #268 ) ;
#331 = DIRECTION ( 'NONE',  ( 0.000000000000000000, 0.000000000000000000, 1.000000000000000000 ) ) ;
#332 = DIRECTION ( 'NONE',  ( 1.000000000000000000, 0.000000000000000000, 0.000000000000000000 ) ) ;
#333 = CIRCLE ( 'NONE', #131, 11.00000000000000000 ) ;
#334 = AXIS2_PLACEMENT_3D ( 'NONE', #140, #265, #202 ) ;
#335 = CARTESIAN_POINT ( 'NONE',  ( -7.000000000000000888, 0.000000000000000000, 157.0000000000000000 ) ) ;
#336 = APPROVAL ( #326, 'NEURÈENÝ' ) ;
#337 = DIRECTION ( 'NONE',  ( -0.000000000000000000, -0.000000000000000000, -1.000000000000000000 ) ) ;
#338 = EDGE_CURVE ( 'NONE', #343, #355, #159, .T. ) ;
#339 = FACE_BOUND ( 'NONE', #316, .T. ) ;
#340 = CC_DESIGN_DATE_AND_TIME_ASSIGNMENT ( #33, #348, ( #114 ) ) ;
#341 = AXIS2_PLACEMENT_3D ( 'NONE', #185, #22, #79 ) ;
#342 = DIRECTION ( 'NONE',  ( 1.000000000000000000, 0.000000000000000000, -0.000000000000000000 ) ) ;
#343 = VERTEX_POINT ( 'NONE', #345 ) ;
#344 = DIRECTION ( 'NONE',  ( 1.000000000000000000, 0.000000000000000000, 0.000000000000000000 ) ) ;
#345 = CARTESIAN_POINT ( 'NONE',  ( 5.000000000000000000, 6.123233995736766282E-16, 157.0000000000000000 ) ) ;
#346 = CIRCLE ( 'NONE', #89, 7.700000000000001066 ) ;
#347 = TOROIDAL_SURFACE ( 'NONE', #197, 7.700000000000001066, 0.6999999999999999556 ) ;
#348 = DATE_TIME_ROLE ( 'creation_date' ) ;
#349 = EDGE_LOOP ( 'NONE', ( #200, #34, #221, #353 ) ) ;
#350 = COORDINATED_UNIVERSAL_TIME_OFFSET ( 1, 0, .AHEAD. ) ;
#351 = DIRECTION ( 'NONE',  ( 0.000000000000000000, 0.000000000000000000, 1.000000000000000000 ) ) ;
#352 = APPLICATION_PROTOCOL_DEFINITION ( 'international standard', 'config_control_design', 1994, #285 ) ;
#353 = ORIENTED_EDGE ( 'NONE', *, *, #360, .T. ) ;
#354 = CARTESIAN_POINT ( 'NONE',  ( 0.000000000000000000, 0.000000000000000000, 7.700000000000012612 ) ) ;
#355 = VERTEX_POINT ( 'NONE', #315 ) ;
#356 = CLOSED_SHELL ( 'NONE', ( #123, #245, #139, #373, #222, #258, #1, #188, #128, #191, #90 ) ) ;
#357 = CARTESIAN_POINT ( 'NONE',  ( -7.000000000000000888, 0.000000000000000000, 157.0000000000000000 ) ) ;
#358 = EDGE_CURVE ( 'NONE', #95, #233, #333, .T. ) ;
#359 = CARTESIAN_POINT ( 'NONE',  ( 0.000000000000000000, 0.000000000000000000, 157.0000000000000000 ) ) ;
#360 = EDGE_CURVE ( 'NONE', #117, #111, #30, .T. ) ;
#361 = DIRECTION ( 'NONE',  ( -1.000000000000000000, 0.000000000000000000, 0.000000000000000000 ) ) ;
#362 = CC_DESIGN_APPROVAL ( #102, ( #114 ) ) ;
#363 = CIRCLE ( 'NONE', #132, 11.00000000000000000 ) ;
#364 = DIRECTION ( 'NONE',  ( 0.000000000000000000, 0.000000000000000000, -1.000000000000000000 ) ) ;
#365 = FACE_OUTER_BOUND ( 'NONE', #87, .T. ) ;
#366 = CC_DESIGN_PERSON_AND_ORGANIZATION_ASSIGNMENT ( #259, #92, ( #161 ) ) ;
#367 = DIRECTION ( 'NONE',  ( -1.000000000000000000, 0.000000000000000000, 0.000000000000000000 ) ) ;
#368 = ORIENTED_EDGE ( 'NONE', *, *, #303, .T. ) ;
#369 = AXIS2_PLACEMENT_3D ( 'NONE', #210, #337, #103 ) ;
#370 = CARTESIAN_POINT ( 'NONE',  ( 7.700000000000001066, 0.000000000000000000, 7.700000000000012612 ) ) ;
#371 = AXIS2_PLACEMENT_3D ( 'NONE', #235, #364, #329 ) ;
#372 = ORIENTED_EDGE ( 'NONE', *, *, #289, .T. ) ;
#373 = ADVANCED_FACE ( 'NONE', ( #108 ), #49, .T. ) ;
#374 = LINE ( 'NONE', #81, #12 ) ;
#375 = PERSON ( 'NEURÈENÝ', 'NEURÈENÝ', 'NEURÈENÝ', ('NEURÈENÝ'), ('NEURÈENÝ'), ('NEURÈENÝ') ) ;
#376 = ORIENTED_EDGE ( 'NONE', *, *, #32, .F. ) ;
#377 = CARTESIAN_POINT ( 'NONE',  ( -11.00000000000000000, 0.000000000000000000, 0.000000000000000000 ) ) ;
#378 = CARTESIAN_POINT ( 'NONE',  ( 0.000000000000000000, 0.000000000000000000, 0.000000000000000000 ) ) ;
#379 = ORIENTED_EDGE ( 'NONE', *, *, #65, .T. ) ;
#380 = DATE_TIME_ROLE ( 'classification_date' ) ;
#381 = EDGE_LOOP ( 'NONE', ( #60, #31 ) ) ;
ENDSEC;
END-ISO-10303-21;
