ISO-10303-21;
HEADER;
FILE_DESCRIPTION (( 'STEP AP203' ),
    '1' );
FILE_NAME ('1cb2.STEP',
    '2022-07-10T09:19:40',
    ( '' ),
    ( '' ),
    'SwSTEP 2.0',
    'SolidWorks 2019',
    '' );
FILE_SCHEMA (( 'CONFIG_CONTROL_DESIGN' ));
ENDSEC;

DATA;
#1 = VECTOR ( 'NONE', #264, 1000.000000000000000 ) ;
#2 = CARTESIAN_POINT ( 'NONE',  ( 2.000000000000000000, 2.449293598294706414E-16, 153.0000000000000000 ) ) ;
#3 = SECURITY_CLASSIFICATION ( '', '', #147 ) ;
#4 = EDGE_CURVE ( 'NONE', #374, #59, #307, .T. ) ;
#5 = FACE_OUTER_BOUND ( 'NONE', #369, .T. ) ;
#6 = DIRECTION ( 'NONE',  ( -1.000000000000000000, 0.000000000000000000, 0.000000000000000000 ) ) ;
#7 = ADVANCED_FACE ( 'NONE', ( #354 ), #148, .T. ) ;
#8 = CARTESIAN_POINT ( 'NONE',  ( 4.000000000000000000, 4.898587196589412829E-16, 3.000000000000000000 ) ) ;
#9 = APPROVAL_PERSON_ORGANIZATION ( #102, #205, #42 ) ;
#10 = PERSON_AND_ORGANIZATION ( #15, #98 ) ;
#11 = DIRECTION ( 'NONE',  ( 1.000000000000000000, 0.000000000000000000, -0.000000000000000000 ) ) ;
#12 = DIRECTION ( 'NONE',  ( 0.000000000000000000, -1.000000000000000000, 0.000000000000000000 ) ) ;
#13 = ADVANCED_FACE ( 'NONE', ( #96 ), #355, .F. ) ;
#14 = AXIS2_PLACEMENT_3D ( 'NONE', #284, #38, #6 ) ;
#15 = PERSON ( 'NEURÈENÝ', 'NEURÈENÝ', 'NEURÈENÝ', ('NEURÈENÝ'), ('NEURÈENÝ'), ('NEURÈENÝ') ) ;
#16 = DIRECTION ( 'NONE',  ( 1.000000000000000000, 0.000000000000000000, 0.000000000000000000 ) ) ;
#17 = APPLICATION_CONTEXT ( 'configuration controlled 3d designs of mechanical parts and assemblies' ) ;
#18 = CARTESIAN_POINT ( 'NONE',  ( 0.000000000000000000, 0.000000000000000000, 153.0000000000000000 ) ) ;
#19 = CARTESIAN_POINT ( 'NONE',  ( 2.000000000000000000, 2.449293598294706414E-16, 153.0000000000000000 ) ) ;
#20 = DIRECTION ( 'NONE',  ( 0.000000000000000000, 0.000000000000000000, 1.000000000000000000 ) ) ;
#21 = ORIENTED_EDGE ( 'NONE', *, *, #283, .T. ) ;
#22 = COORDINATED_UNIVERSAL_TIME_OFFSET ( 1, 0, .AHEAD. ) ;
#23 = ORIENTED_EDGE ( 'NONE', *, *, #331, .T. ) ;
#24 = DATE_AND_TIME ( #367, #192 ) ;
#25 = EDGE_LOOP ( 'NONE', ( #138, #140, #196, #223 ) ) ;
#26 = EDGE_CURVE ( 'NONE', #108, #58, #54, .T. ) ;
#27 = DATE_TIME_ROLE ( 'creation_date' ) ;
#28 = AXIS2_PLACEMENT_3D ( 'NONE', #179, #293, #67 ) ;
#29 = ORIENTED_EDGE ( 'NONE', *, *, #331, .F. ) ;
#30 = CALENDAR_DATE ( 2022, 10, 7 ) ;
#31 = APPROVAL_PERSON_ORGANIZATION ( #313, #174, #200 ) ;
#32 = ORIENTED_EDGE ( 'NONE', *, *, #245, .T. ) ;
#33 = COORDINATED_UNIVERSAL_TIME_OFFSET ( 1, 0, .AHEAD. ) ;
#34 = DIRECTION ( 'NONE',  ( -0.000000000000000000, -0.000000000000000000, -1.000000000000000000 ) ) ;
#35 = APPROVAL_DATE_TIME ( #347, #205 ) ;
#36 = DIRECTION ( 'NONE',  ( -0.000000000000000000, -0.000000000000000000, -1.000000000000000000 ) ) ;
#37 = LINE ( 'NONE', #259, #326 ) ;
#38 = DIRECTION ( 'NONE',  ( 0.000000000000000000, 0.000000000000000000, -1.000000000000000000 ) ) ;
#39 = DIRECTION ( 'NONE',  ( -0.000000000000000000, -0.000000000000000000, -1.000000000000000000 ) ) ;
#40 = FACE_OUTER_BOUND ( 'NONE', #69, .T. ) ;
#41 = AXIS2_PLACEMENT_3D ( 'NONE', #18, #131, #246 ) ;
#42 = APPROVAL_ROLE ( '' ) ;
#43 = CARTESIAN_POINT ( 'NONE',  ( -2.299999999999999822, 2.816687638038912056E-16, 3.299999999999997158 ) ) ;
#44 = EDGE_CURVE ( 'NONE', #201, #251, #76, .T. ) ;
#45 = DIRECTION ( 'NONE',  ( 1.000000000000000000, 0.000000000000000000, 0.000000000000000000 ) ) ;
#46 = DIRECTION ( 'NONE',  ( 1.000000000000000000, 0.000000000000000000, -0.000000000000000000 ) ) ;
#47 = AXIS2_PLACEMENT_3D ( 'NONE', #57, #137, #110 ) ;
#48 = DIRECTION ( 'NONE',  ( -0.000000000000000000, -0.000000000000000000, -1.000000000000000000 ) ) ;
#49 = EDGE_CURVE ( 'NONE', #83, #277, #381, .T. ) ;
#50 = CARTESIAN_POINT ( 'NONE',  ( -1.000000000000000000, 0.000000000000000000, 153.0000000000000000 ) ) ;
#51 = EDGE_LOOP ( 'NONE', ( #311, #116, #29, #171 ) ) ;
#52 = CC_DESIGN_DATE_AND_TIME_ASSIGNMENT ( #378, #295, ( #3 ) ) ;
#53 = FACE_OUTER_BOUND ( 'NONE', #213, .T. ) ;
#54 = CIRCLE ( 'NONE', #28, 2.000000000000000000 ) ;
#55 = ORIENTED_EDGE ( 'NONE', *, *, #78, .T. ) ;
#56 = AXIS2_PLACEMENT_3D ( 'NONE', #159, #357, #11 ) ;
#57 = CARTESIAN_POINT ( 'NONE',  ( 0.000000000000000000, 0.000000000000000000, 153.0000000000000000 ) ) ;
#58 = VERTEX_POINT ( 'NONE', #350 ) ;
#59 = VERTEX_POINT ( 'NONE', #291 ) ;
#60 = DATE_AND_TIME ( #315, #297 ) ;
#61 = ORIENTED_EDGE ( 'NONE', *, *, #105, .F. ) ;
#62 = CIRCLE ( 'NONE', #368, 4.000000000000000000 ) ;
#63 = CARTESIAN_POINT ( 'NONE',  ( 0.000000000000000000, 0.000000000000000000, 153.0000000000000000 ) ) ;
#64 = CARTESIAN_POINT ( 'NONE',  ( 2.000000000000000000, 2.449293598294706414E-16, 3.299999999999997158 ) ) ;
#65 = ADVANCED_FACE ( 'NONE', ( #182 ), #151, .F. ) ;
#66 = DIRECTION ( 'NONE',  ( -1.000000000000000000, 0.000000000000000000, 0.000000000000000000 ) ) ;
#67 = DIRECTION ( 'NONE',  ( 1.000000000000000000, 0.000000000000000000, 0.000000000000000000 ) ) ;
#68 = TOROIDAL_SURFACE ( 'NONE', #250, 2.299999999999999822, 0.2999999999999999889 ) ;
#69 = EDGE_LOOP ( 'NONE', ( #276, #281, #273, #81 ) ) ;
#70 = EDGE_CURVE ( 'NONE', #201, #308, #204, .T. ) ;
#71 = CARTESIAN_POINT ( 'NONE',  ( -4.000000000000000000, 0.000000000000000000, 0.000000000000000000 ) ) ;
#72 = PRODUCT_DEFINITION ( 'NEZNÁMÝ', '', #243, #210 ) ;
#73 = CIRCLE ( 'NONE', #104, 4.000000000000000000 ) ;
#74 = DIRECTION ( 'NONE',  ( 1.000000000000000000, 0.000000000000000000, 0.000000000000000000 ) ) ;
#75 = DIRECTION ( 'NONE',  ( 1.000000000000000000, 0.000000000000000000, 0.000000000000000000 ) ) ;
#76 = CIRCLE ( 'NONE', #340, 1.000000000000000000 ) ;
#77 = CARTESIAN_POINT ( 'NONE',  ( 0.000000000000000000, 0.000000000000000000, 3.000000000000000000 ) ) ;
#78 = EDGE_CURVE ( 'NONE', #89, #277, #37, .T. ) ;
#79 = CC_DESIGN_APPROVAL ( #174, ( #243 ) ) ;
#80 =( NAMED_UNIT ( * ) PLANE_ANGLE_UNIT ( ) SI_UNIT ( $, .RADIAN. ) );
#81 = ORIENTED_EDGE ( 'NONE', *, *, #240, .F. ) ;
#82 = DIRECTION ( 'NONE',  ( 0.000000000000000000, 0.000000000000000000, 1.000000000000000000 ) ) ;
#83 = VERTEX_POINT ( 'NONE', #122 ) ;
#84 = AXIS2_PLACEMENT_3D ( 'NONE', #119, #118, #353 ) ;
#85 = ORIENTED_EDGE ( 'NONE', *, *, #44, .F. ) ;
#86 = AXIS2_PLACEMENT_3D ( 'NONE', #324, #101, #298 ) ;
#87 = CALENDAR_DATE ( 2022, 10, 7 ) ;
#88 = ORIENTED_EDGE ( 'NONE', *, *, #252, .T. ) ;
#89 = VERTEX_POINT ( 'NONE', #150 ) ;
#90 = CLOSED_SHELL ( 'NONE', ( #65, #352, #328, #95, #109, #358, #292, #7, #233, #153, #13 ) ) ;
#91 = DIRECTION ( 'NONE',  ( 1.000000000000000000, 0.000000000000000000, 0.000000000000000000 ) ) ;
#92 = TOROIDAL_SURFACE ( 'NONE', #160, 2.299999999999999822, 0.2999999999999999889 ) ;
#93 = CYLINDRICAL_SURFACE ( 'NONE', #214, 4.000000000000000000 ) ;
#94 = CARTESIAN_POINT ( 'NONE',  ( 4.000000000000000000, 4.898587196589412829E-16, 3.000000000000000000 ) ) ;
#95 = ADVANCED_FACE ( 'NONE', ( #262 ), #93, .T. ) ;
#96 = FACE_OUTER_BOUND ( 'NONE', #170, .T. ) ;
#97 = DIRECTION ( 'NONE',  ( 1.000000000000000000, 0.000000000000000000, 0.000000000000000000 ) ) ;
#98 = ORGANIZATION ( 'NEURÈENÝ', 'NEURÈENÝ', '' ) ;
#99 = APPROVAL ( #345, 'NEURÈENÝ' ) ;
#100 = CARTESIAN_POINT ( 'NONE',  ( 2.299999999999999822, 0.000000000000000000, 3.299999999999997158 ) ) ;
#101 = DIRECTION ( 'NONE',  ( -0.000000000000000000, -0.000000000000000000, -1.000000000000000000 ) ) ;
#102 = PERSON_AND_ORGANIZATION ( #15, #98 ) ;
#103 = FACE_OUTER_BOUND ( 'NONE', #249, .T. ) ;
#104 = AXIS2_PLACEMENT_3D ( 'NONE', #121, #234, #154 ) ;
#105 = EDGE_CURVE ( 'NONE', #279, #83, #152, .T. ) ;
#106 = CARTESIAN_POINT ( 'NONE',  ( 0.000000000000000000, 0.000000000000000000, 3.299999999999997158 ) ) ;
#107 = COORDINATED_UNIVERSAL_TIME_OFFSET ( 1, 0, .AHEAD. ) ;
#108 = VERTEX_POINT ( 'NONE', #64 ) ;
#109 = ADVANCED_FACE ( 'NONE', ( #5 ), #177, .T. ) ;
#110 = DIRECTION ( 'NONE',  ( 1.000000000000000000, 0.000000000000000000, 0.000000000000000000 ) ) ;
#111 = ORIENTED_EDGE ( 'NONE', *, *, #183, .T. ) ;
#112 = PERSON_AND_ORGANIZATION ( #15, #98 ) ;
#113 = ORIENTED_EDGE ( 'NONE', *, *, #4, .T. ) ;
#114 = AXIS2_PLACEMENT_3D ( 'NONE', #191, #365, #46 ) ;
#115 = PERSON_AND_ORGANIZATION_ROLE ( 'design_owner' ) ;
#116 = ORIENTED_EDGE ( 'NONE', *, *, #266, .T. ) ;
#117 = PERSON_AND_ORGANIZATION_ROLE ( 'classification_officer' ) ;
#118 = DIRECTION ( 'NONE',  ( 0.000000000000000000, 0.000000000000000000, 1.000000000000000000 ) ) ;
#119 = CARTESIAN_POINT ( 'NONE',  ( 0.000000000000000000, 0.000000000000000000, 153.0000000000000000 ) ) ;
#120 = DIRECTION ( 'NONE',  ( -0.000000000000000000, -0.000000000000000000, -1.000000000000000000 ) ) ;
#121 = CARTESIAN_POINT ( 'NONE',  ( 0.000000000000000000, 0.000000000000000000, 3.000000000000000000 ) ) ;
#122 = CARTESIAN_POINT ( 'NONE',  ( 4.000000000000000000, 4.898587196589412829E-16, 0.000000000000000000 ) ) ;
#123 = CARTESIAN_POINT ( 'NONE',  ( 0.000000000000000000, 0.000000000000000000, 153.0000000000000000 ) ) ;
#124 = CC_DESIGN_APPROVAL ( #99, ( #72 ) ) ;
#125 = APPROVAL_STATUS ( 'not_yet_approved' ) ;
#126 = CARTESIAN_POINT ( 'NONE',  ( -1.000000000000000000, 0.000000000000000000, 0.000000000000000000 ) ) ;
#127 = DIRECTION ( 'NONE',  ( 1.000000000000000000, 0.000000000000000000, 0.000000000000000000 ) ) ;
#128 = EDGE_CURVE ( 'NONE', #374, #108, #260, .T. ) ;
#129 = DIRECTION ( 'NONE',  ( 1.224646799147353207E-16, 1.000000000000000000, -0.000000000000000000 ) ) ;
#130 = AXIS2_PLACEMENT_3D ( 'NONE', #287, #36, #66 ) ;
#131 = DIRECTION ( 'NONE',  ( -0.000000000000000000, -0.000000000000000000, -1.000000000000000000 ) ) ;
#132 =( LENGTH_UNIT ( ) NAMED_UNIT ( * ) SI_UNIT ( .MILLI., .METRE. ) );
#133 = LINE ( 'NONE', #50, #356 ) ;
#134 = VERTEX_POINT ( 'NONE', #232 ) ;
#135 = CIRCLE ( 'NONE', #296, 1.000000000000000000 ) ;
#136 = CIRCLE ( 'NONE', #215, 2.299999999999999822 ) ;
#137 = DIRECTION ( 'NONE',  ( 0.000000000000000000, 0.000000000000000000, 1.000000000000000000 ) ) ;
#138 = ORIENTED_EDGE ( 'NONE', *, *, #4, .F. ) ;
#139 = APPROVAL_DATE_TIME ( #24, #99 ) ;
#140 = ORIENTED_EDGE ( 'NONE', *, *, #128, .T. ) ;
#141 = FACE_OUTER_BOUND ( 'NONE', #51, .T. ) ;
#142 = EDGE_LOOP ( 'NONE', ( #168, #344, #32, #144 ) ) ;
#143 = EDGE_CURVE ( 'NONE', #89, #279, #73, .T. ) ;
#144 = ORIENTED_EDGE ( 'NONE', *, *, #379, .F. ) ;
#145 = CARTESIAN_POINT ( 'NONE',  ( 0.000000000000000000, 0.000000000000000000, 153.0000000000000000 ) ) ;
#146 = AXIS2_PLACEMENT_3D ( 'NONE', #63, #34, #203 ) ;
#147 = SECURITY_CLASSIFICATION_LEVEL ( 'unclassified' ) ;
#148 = CYLINDRICAL_SURFACE ( 'NONE', #146, 2.000000000000000000 ) ;
#149 = VECTOR ( 'NONE', #330, 1000.000000000000000 ) ;
#150 = CARTESIAN_POINT ( 'NONE',  ( -4.000000000000000000, 0.000000000000000000, 3.000000000000000000 ) ) ;
#151 = CYLINDRICAL_SURFACE ( 'NONE', #14, 1.000000000000000000 ) ;
#152 = LINE ( 'NONE', #94, #1 ) ;
#153 = ADVANCED_FACE ( 'NONE', ( #40 ), #68, .F. ) ;
#154 = DIRECTION ( 'NONE',  ( 1.000000000000000000, 0.000000000000000000, 0.000000000000000000 ) ) ;
#155 = VECTOR ( 'NONE', #120, 1000.000000000000000 ) ;
#156 = COORDINATED_UNIVERSAL_TIME_OFFSET ( 1, 0, .AHEAD. ) ;
#157 = DIRECTION ( 'NONE',  ( -1.000000000000000000, 1.224646799147353207E-16, 0.000000000000000000 ) ) ;
#158 = CARTESIAN_POINT ( 'NONE',  ( 0.000000000000000000, 0.000000000000000000, 0.000000000000000000 ) ) ;
#159 = CARTESIAN_POINT ( 'NONE',  ( 0.000000000000000000, 0.000000000000000000, 153.0000000000000000 ) ) ;
#160 = AXIS2_PLACEMENT_3D ( 'NONE', #193, #82, #306 ) ;
#161 = DIRECTION ( 'NONE',  ( 1.000000000000000000, 0.000000000000000000, 0.000000000000000000 ) ) ;
#162 = PRODUCT ( '1cb2', '1cb2', '', ( #219 ) ) ;
#163 = EDGE_LOOP ( 'NONE', ( #372, #258, #111, #256 ) ) ;
#164 = MANIFOLD_SOLID_BREP ( 'Odebrat vysunutím3', #90 ) ;
#165 = VERTEX_POINT ( 'NONE', #244 ) ;
#166 = AXIS2_PLACEMENT_3D ( 'NONE', #218, #302, #161 ) ;
#167 = APPLICATION_PROTOCOL_DEFINITION ( 'international standard', 'config_control_design', 1994, #17 ) ;
#168 = ORIENTED_EDGE ( 'NONE', *, *, #376, .T. ) ;
#169 = PERSON_AND_ORGANIZATION ( #15, #98 ) ;
#170 = EDGE_LOOP ( 'NONE', ( #268, #224, #220, #316 ) ) ;
#171 = ORIENTED_EDGE ( 'NONE', *, *, #290, .F. ) ;
#172 = CIRCLE ( 'NONE', #47, 1.000000000000000000 ) ;
#173 = DIRECTION ( 'NONE',  ( 0.000000000000000000, 0.000000000000000000, 1.000000000000000000 ) ) ;
#174 = APPROVAL ( #278, 'NEURÈENÝ' ) ;
#175 = EDGE_CURVE ( 'NONE', #58, #108, #310, .T. ) ;
#176 = PERSON_AND_ORGANIZATION ( #15, #98 ) ;
#177 = CYLINDRICAL_SURFACE ( 'NONE', #130, 4.000000000000000000 ) ;
#178 = VECTOR ( 'NONE', #317, 1000.000000000000000 ) ;
#179 = CARTESIAN_POINT ( 'NONE',  ( 0.000000000000000000, 0.000000000000000000, 3.299999999999997158 ) ) ;
#180 = AXIS2_PLACEMENT_3D ( 'NONE', #43, #129, #157 ) ;
#181 = CARTESIAN_POINT ( 'NONE',  ( 0.000000000000000000, 0.000000000000000000, 153.0000000000000000 ) ) ;
#182 = FACE_OUTER_BOUND ( 'NONE', #142, .T. ) ;
#183 = EDGE_CURVE ( 'NONE', #59, #58, #188, .T. ) ;
#184 = DIRECTION ( 'NONE',  ( 1.000000000000000000, 0.000000000000000000, 0.000000000000000000 ) ) ;
#185 = CC_DESIGN_PERSON_AND_ORGANIZATION_ASSIGNMENT ( #10, #186, ( #243 ) ) ;
#186 = PERSON_AND_ORGANIZATION_ROLE ( 'design_supplier' ) ;
#187 = CC_DESIGN_SECURITY_CLASSIFICATION ( #3, ( #243 ) ) ;
#188 = LINE ( 'NONE', #294, #149 ) ;
#189 = DIRECTION ( 'NONE',  ( 0.000000000000000000, 0.000000000000000000, 1.000000000000000000 ) ) ;
#190 = CARTESIAN_POINT ( 'NONE',  ( 1.000000000000000000, 1.224646799147353207E-16, 0.000000000000000000 ) ) ;
#191 = CARTESIAN_POINT ( 'NONE',  ( 0.000000000000000000, 0.000000000000000000, 0.000000000000000000 ) ) ;
#192 = LOCAL_TIME ( 11, 19, 40.00000000000000000, #22 ) ;
#193 = CARTESIAN_POINT ( 'NONE',  ( 0.000000000000000000, 0.000000000000000000, 3.299999999999997158 ) ) ;
#194 = ORIENTED_EDGE ( 'NONE', *, *, #376, .F. ) ;
#195 = EDGE_LOOP ( 'NONE', ( #314, #113 ) ) ;
#196 = ORIENTED_EDGE ( 'NONE', *, *, #26, .T. ) ;
#197 = AXIS2_PLACEMENT_3D ( 'NONE', #253, #20, #370 ) ;
#198 = DATE_AND_TIME ( #87, #275 ) ;
#199 = ORIENTED_EDGE ( 'NONE', *, *, #143, .F. ) ;
#200 = APPROVAL_ROLE ( '' ) ;
#201 = VERTEX_POINT ( 'NONE', #299 ) ;
#202 = AXIS2_PLACEMENT_3D ( 'NONE', #123, #270, #16 ) ;
#203 = DIRECTION ( 'NONE',  ( -1.000000000000000000, 0.000000000000000000, 0.000000000000000000 ) ) ;
#204 = LINE ( 'NONE', #289, #178 ) ;
#205 = APPROVAL ( #125, 'NEURÈENÝ' ) ;
#206 = VERTEX_POINT ( 'NONE', #126 ) ;
#207 = AXIS2_PLACEMENT_3D ( 'NONE', #158, #242, #216 ) ;
#208 = CARTESIAN_POINT ( 'NONE',  ( 0.000000000000000000, 0.000000000000000000, 3.000000000000000000 ) ) ;
#209 = DIRECTION ( 'NONE',  ( 0.000000000000000000, 0.000000000000000000, -1.000000000000000000 ) ) ;
#210 = DESIGN_CONTEXT ( 'detailed design', #312, 'design' ) ;
#211 = CARTESIAN_POINT ( 'NONE',  ( 0.000000000000000000, 0.000000000000000000, 3.299999999999997158 ) ) ;
#212 = CC_DESIGN_PERSON_AND_ORGANIZATION_ASSIGNMENT ( #241, #323, ( #243 ) ) ;
#213 = EDGE_LOOP ( 'NONE', ( #377, #88 ) ) ;
#214 = AXIS2_PLACEMENT_3D ( 'NONE', #208, #39, #319 ) ;
#215 = AXIS2_PLACEMENT_3D ( 'NONE', #265, #267, #45 ) ;
#216 = DIRECTION ( 'NONE',  ( 1.000000000000000000, 0.000000000000000000, 0.000000000000000000 ) ) ;
#217 = DIRECTION ( 'NONE',  ( 0.000000000000000000, 0.000000000000000000, 1.000000000000000000 ) ) ;
#218 = CARTESIAN_POINT ( 'NONE',  ( 0.000000000000000000, 0.000000000000000000, 3.000000000000000000 ) ) ;
#219 = MECHANICAL_CONTEXT ( 'NONE', #17, 'mechanical' ) ;
#220 = ORIENTED_EDGE ( 'NONE', *, *, #379, .T. ) ;
#221 = LOCAL_TIME ( 11, 19, 40.00000000000000000, #156 ) ;
#222 = EDGE_CURVE ( 'NONE', #206, #308, #135, .T. ) ;
#223 = ORIENTED_EDGE ( 'NONE', *, *, #183, .F. ) ;
#224 = ORIENTED_EDGE ( 'NONE', *, *, #44, .T. ) ;
#225 = PERSON_AND_ORGANIZATION_ROLE ( 'creator' ) ;
#226 = ORIENTED_EDGE ( 'NONE', *, *, #49, .F. ) ;
#227 = AXIS2_PLACEMENT_3D ( 'NONE', #106, #239, #127 ) ;
#228 = EDGE_LOOP ( 'NONE', ( #194, #85 ) ) ;
#229 = DIRECTION ( 'NONE',  ( 0.000000000000000000, 0.000000000000000000, -1.000000000000000000 ) ) ;
#230 = ADVANCED_BREP_SHAPE_REPRESENTATION ( '1cb2', ( #164, #237 ), #257 ) ;
#231 = CARTESIAN_POINT ( 'NONE',  ( 0.000000000000000000, 0.000000000000000000, 0.000000000000000000 ) ) ;
#232 = CARTESIAN_POINT ( 'NONE',  ( -2.299999999999999822, 2.816687638038912056E-16, 2.999999999999998668 ) ) ;
#233 = ADVANCED_FACE ( 'NONE', ( #325, #366 ), #361, .T. ) ;
#234 = DIRECTION ( 'NONE',  ( 0.000000000000000000, 0.000000000000000000, 1.000000000000000000 ) ) ;
#235 = DIRECTION ( 'NONE',  ( 0.000000000000000000, 0.000000000000000000, 1.000000000000000000 ) ) ;
#236 = CC_DESIGN_PERSON_AND_ORGANIZATION_ASSIGNMENT ( #337, #115, ( #162 ) ) ;
#237 = AXIS2_PLACEMENT_3D ( 'NONE', #274, #247, #309 ) ;
#238 = CARTESIAN_POINT ( 'NONE',  ( 0.000000000000000000, 0.000000000000000000, 0.000000000000000000 ) ) ;
#239 = DIRECTION ( 'NONE',  ( 0.000000000000000000, 0.000000000000000000, 1.000000000000000000 ) ) ;
#240 = EDGE_CURVE ( 'NONE', #134, #165, #136, .T. ) ;
#241 = PERSON_AND_ORGANIZATION ( #15, #98 ) ;
#242 = DIRECTION ( 'NONE',  ( 0.000000000000000000, 0.000000000000000000, 1.000000000000000000 ) ) ;
#243 = PRODUCT_DEFINITION_FORMATION_WITH_SPECIFIED_SOURCE ( 'LIBOVOLNÝ', '', #162, .NOT_KNOWN. ) ;
#244 = CARTESIAN_POINT ( 'NONE',  ( 2.299999999999999822, 0.000000000000000000, 2.999999999999998668 ) ) ;
#245 = EDGE_CURVE ( 'NONE', #308, #206, #343, .T. ) ;
#246 = DIRECTION ( 'NONE',  ( -1.000000000000000000, 0.000000000000000000, 0.000000000000000000 ) ) ;
#247 = DIRECTION ( 'NONE',  ( 0.000000000000000000, 0.000000000000000000, 1.000000000000000000 ) ) ;
#248 =( NAMED_UNIT ( * ) SI_UNIT ( $, .STERADIAN. ) SOLID_ANGLE_UNIT ( ) );
#249 = EDGE_LOOP ( 'NONE', ( #348, #226 ) ) ;
#250 = AXIS2_PLACEMENT_3D ( 'NONE', #211, #217, #74 ) ;
#251 = VERTEX_POINT ( 'NONE', #333 ) ;
#252 = EDGE_CURVE ( 'NONE', #279, #89, #62, .T. ) ;
#253 = CARTESIAN_POINT ( 'NONE',  ( 0.000000000000000000, 0.000000000000000000, 3.000000000000000000 ) ) ;
#254 = ORIENTED_EDGE ( 'NONE', *, *, #240, .T. ) ;
#255 = APPROVAL_ROLE ( '' ) ;
#256 = ORIENTED_EDGE ( 'NONE', *, *, #175, .T. ) ;
#257 =( GEOMETRIC_REPRESENTATION_CONTEXT ( 3 ) GLOBAL_UNCERTAINTY_ASSIGNED_CONTEXT ( ( #359 ) ) GLOBAL_UNIT_ASSIGNED_CONTEXT ( ( #132, #80, #248 ) ) REPRESENTATION_CONTEXT ( 'NONE', 'WORKASPACE' ) );
#258 = ORIENTED_EDGE ( 'NONE', *, *, #285, .F. ) ;
#259 = CARTESIAN_POINT ( 'NONE',  ( -4.000000000000000000, 0.000000000000000000, 3.000000000000000000 ) ) ;
#260 = LINE ( 'NONE', #2, #155 ) ;
#261 = LOCAL_TIME ( 11, 19, 40.00000000000000000, #33 ) ;
#262 = FACE_OUTER_BOUND ( 'NONE', #305, .T. ) ;
#263 = ORIENTED_EDGE ( 'NONE', *, *, #252, .F. ) ;
#264 = DIRECTION ( 'NONE',  ( -0.000000000000000000, -0.000000000000000000, -1.000000000000000000 ) ) ;
#265 = CARTESIAN_POINT ( 'NONE',  ( 0.000000000000000000, 0.000000000000000000, 3.000000000000000000 ) ) ;
#266 = EDGE_CURVE ( 'NONE', #58, #134, #364, .T. ) ;
#267 = DIRECTION ( 'NONE',  ( -0.000000000000000000, -0.000000000000000000, -1.000000000000000000 ) ) ;
#268 = ORIENTED_EDGE ( 'NONE', *, *, #70, .F. ) ;
#269 = CC_DESIGN_DATE_AND_TIME_ASSIGNMENT ( #198, #27, ( #72 ) ) ;
#270 = DIRECTION ( 'NONE',  ( 0.000000000000000000, 0.000000000000000000, 1.000000000000000000 ) ) ;
#271 = CIRCLE ( 'NONE', #202, 2.000000000000000000 ) ;
#272 = CYLINDRICAL_SURFACE ( 'NONE', #41, 2.000000000000000000 ) ;
#273 = ORIENTED_EDGE ( 'NONE', *, *, #290, .T. ) ;
#274 = CARTESIAN_POINT ( 'NONE',  ( 0.000000000000000000, 0.000000000000000000, 0.000000000000000000 ) ) ;
#275 = LOCAL_TIME ( 11, 19, 40.00000000000000000, #342 ) ;
#276 = ORIENTED_EDGE ( 'NONE', *, *, #266, .F. ) ;
#277 = VERTEX_POINT ( 'NONE', #71 ) ;
#278 = APPROVAL_STATUS ( 'not_yet_approved' ) ;
#279 = VERTEX_POINT ( 'NONE', #8 ) ;
#280 = PRODUCT_DEFINITION_SHAPE ( 'NONE', 'NONE',  #72 ) ;
#281 = ORIENTED_EDGE ( 'NONE', *, *, #26, .F. ) ;
#282 = CIRCLE ( 'NONE', #318, 0.2999999999999999334 ) ;
#283 = EDGE_CURVE ( 'NONE', #277, #83, #334, .T. ) ;
#284 = CARTESIAN_POINT ( 'NONE',  ( 0.000000000000000000, 0.000000000000000000, 153.0000000000000000 ) ) ;
#285 = EDGE_CURVE ( 'NONE', #59, #374, #271, .T. ) ;
#286 = CALENDAR_DATE ( 2022, 10, 7 ) ;
#287 = CARTESIAN_POINT ( 'NONE',  ( 0.000000000000000000, 0.000000000000000000, 3.000000000000000000 ) ) ;
#288 = AXIS2_PLACEMENT_3D ( 'NONE', #145, #229, #321 ) ;
#289 = CARTESIAN_POINT ( 'NONE',  ( 1.000000000000000000, 1.224646799147353207E-16, 153.0000000000000000 ) ) ;
#290 = EDGE_CURVE ( 'NONE', #108, #165, #282, .T. ) ;
#291 = CARTESIAN_POINT ( 'NONE',  ( -2.000000000000000000, 0.000000000000000000, 153.0000000000000000 ) ) ;
#292 = ADVANCED_FACE ( 'NONE', ( #363, #103 ), #329, .F. ) ;
#293 = DIRECTION ( 'NONE',  ( 0.000000000000000000, 0.000000000000000000, 1.000000000000000000 ) ) ;
#294 = CARTESIAN_POINT ( 'NONE',  ( -2.000000000000000000, 0.000000000000000000, 153.0000000000000000 ) ) ;
#295 = DATE_TIME_ROLE ( 'classification_date' ) ;
#296 = AXIS2_PLACEMENT_3D ( 'NONE', #238, #48, #184 ) ;
#297 = LOCAL_TIME ( 11, 19, 40.00000000000000000, #107 ) ;
#298 = DIRECTION ( 'NONE',  ( 1.000000000000000000, 0.000000000000000000, 0.000000000000000000 ) ) ;
#299 = CARTESIAN_POINT ( 'NONE',  ( 1.000000000000000000, 1.224646799147353207E-16, 153.0000000000000000 ) ) ;
#300 = FACE_OUTER_BOUND ( 'NONE', #25, .T. ) ;
#301 = APPROVAL_PERSON_ORGANIZATION ( #169, #99, #255 ) ;
#302 = DIRECTION ( 'NONE',  ( -0.000000000000000000, -0.000000000000000000, -1.000000000000000000 ) ) ;
#303 = PLANE ( 'NONE',  #197 ) ;
#304 = CC_DESIGN_PERSON_AND_ORGANIZATION_ASSIGNMENT ( #112, #225, ( #72 ) ) ;
#305 = EDGE_LOOP ( 'NONE', ( #263, #341, #375, #338 ) ) ;
#306 = DIRECTION ( 'NONE',  ( 1.000000000000000000, 0.000000000000000000, 0.000000000000000000 ) ) ;
#307 = CIRCLE ( 'NONE', #84, 2.000000000000000000 ) ;
#308 = VERTEX_POINT ( 'NONE', #190 ) ;
#309 = DIRECTION ( 'NONE',  ( 1.000000000000000000, 0.000000000000000000, 0.000000000000000000 ) ) ;
#310 = CIRCLE ( 'NONE', #227, 2.000000000000000000 ) ;
#311 = ORIENTED_EDGE ( 'NONE', *, *, #175, .F. ) ;
#312 = APPLICATION_CONTEXT ( 'configuration controlled 3d designs of mechanical parts and assemblies' ) ;
#313 = PERSON_AND_ORGANIZATION ( #15, #98 ) ;
#314 = ORIENTED_EDGE ( 'NONE', *, *, #285, .T. ) ;
#315 = CALENDAR_DATE ( 2022, 10, 7 ) ;
#316 = ORIENTED_EDGE ( 'NONE', *, *, #222, .T. ) ;
#317 = DIRECTION ( 'NONE',  ( 0.000000000000000000, 0.000000000000000000, -1.000000000000000000 ) ) ;
#318 = AXIS2_PLACEMENT_3D ( 'NONE', #100, #12, #209 ) ;
#319 = DIRECTION ( 'NONE',  ( -1.000000000000000000, 0.000000000000000000, 0.000000000000000000 ) ) ;
#320 = EDGE_LOOP ( 'NONE', ( #23, #254 ) ) ;
#321 = DIRECTION ( 'NONE',  ( -1.000000000000000000, 0.000000000000000000, 0.000000000000000000 ) ) ;
#322 = CIRCLE ( 'NONE', #166, 2.299999999999999822 ) ;
#323 = PERSON_AND_ORGANIZATION_ROLE ( 'creator' ) ;
#324 = CARTESIAN_POINT ( 'NONE',  ( 0.000000000000000000, 0.000000000000000000, 0.000000000000000000 ) ) ;
#325 = FACE_BOUND ( 'NONE', #228, .T. ) ;
#326 = VECTOR ( 'NONE', #380, 1000.000000000000000 ) ;
#327 = EDGE_LOOP ( 'NONE', ( #336, #346 ) ) ;
#328 = ADVANCED_FACE ( 'NONE', ( #300 ), #272, .T. ) ;
#329 = PLANE ( 'NONE',  #114 ) ;
#330 = DIRECTION ( 'NONE',  ( -0.000000000000000000, -0.000000000000000000, -1.000000000000000000 ) ) ;
#331 = EDGE_CURVE ( 'NONE', #165, #134, #322, .T. ) ;
#332 = AXIS2_PLACEMENT_3D ( 'NONE', #231, #173, #97 ) ;
#333 = CARTESIAN_POINT ( 'NONE',  ( -1.000000000000000000, 0.000000000000000000, 153.0000000000000000 ) ) ;
#334 = CIRCLE ( 'NONE', #207, 4.000000000000000000 ) ;
#335 = FACE_BOUND ( 'NONE', #320, .T. ) ;
#336 = ORIENTED_EDGE ( 'NONE', *, *, #222, .F. ) ;
#337 = PERSON_AND_ORGANIZATION ( #15, #98 ) ;
#338 = ORIENTED_EDGE ( 'NONE', *, *, #78, .F. ) ;
#339 = DIRECTION ( 'NONE',  ( 0.000000000000000000, 0.000000000000000000, -1.000000000000000000 ) ) ;
#340 = AXIS2_PLACEMENT_3D ( 'NONE', #181, #235, #91 ) ;
#341 = ORIENTED_EDGE ( 'NONE', *, *, #105, .T. ) ;
#342 = COORDINATED_UNIVERSAL_TIME_OFFSET ( 1, 0, .AHEAD. ) ;
#343 = CIRCLE ( 'NONE', #86, 1.000000000000000000 ) ;
#344 = ORIENTED_EDGE ( 'NONE', *, *, #70, .T. ) ;
#345 = APPROVAL_STATUS ( 'not_yet_approved' ) ;
#346 = ORIENTED_EDGE ( 'NONE', *, *, #245, .F. ) ;
#347 = DATE_AND_TIME ( #30, #221 ) ;
#348 = ORIENTED_EDGE ( 'NONE', *, *, #283, .F. ) ;
#349 = SHAPE_DEFINITION_REPRESENTATION ( #280, #230 ) ;
#350 = CARTESIAN_POINT ( 'NONE',  ( -2.000000000000000000, 0.000000000000000000, 3.299999999999997158 ) ) ;
#351 = CC_DESIGN_APPROVAL ( #205, ( #3 ) ) ;
#352 = ADVANCED_FACE ( 'NONE', ( #141 ), #92, .F. ) ;
#353 = DIRECTION ( 'NONE',  ( 1.000000000000000000, 0.000000000000000000, 0.000000000000000000 ) ) ;
#354 = FACE_OUTER_BOUND ( 'NONE', #163, .T. ) ;
#355 = CYLINDRICAL_SURFACE ( 'NONE', #288, 1.000000000000000000 ) ;
#356 = VECTOR ( 'NONE', #339, 1000.000000000000000 ) ;
#357 = DIRECTION ( 'NONE',  ( 0.000000000000000000, 0.000000000000000000, 1.000000000000000000 ) ) ;
#358 = ADVANCED_FACE ( 'NONE', ( #335, #53 ), #303, .T. ) ;
#359 = UNCERTAINTY_MEASURE_WITH_UNIT (LENGTH_MEASURE( 1.000000000000000082E-05 ), #132, 'distance_accuracy_value', 'NONE');
#360 = PRODUCT_RELATED_PRODUCT_CATEGORY ( 'detail', '', ( #162 ) ) ;
#361 = PLANE ( 'NONE',  #56 ) ;
#362 = APPROVAL_DATE_TIME ( #60, #174 ) ;
#363 = FACE_BOUND ( 'NONE', #327, .T. ) ;
#364 = CIRCLE ( 'NONE', #180, 0.2999999999999999334 ) ;
#365 = DIRECTION ( 'NONE',  ( 0.000000000000000000, 0.000000000000000000, 1.000000000000000000 ) ) ;
#366 = FACE_OUTER_BOUND ( 'NONE', #195, .T. ) ;
#367 = CALENDAR_DATE ( 2022, 10, 7 ) ;
#368 = AXIS2_PLACEMENT_3D ( 'NONE', #77, #189, #75 ) ;
#369 = EDGE_LOOP ( 'NONE', ( #61, #199, #55, #21 ) ) ;
#370 = DIRECTION ( 'NONE',  ( 1.000000000000000000, 0.000000000000000000, -0.000000000000000000 ) ) ;
#371 = CC_DESIGN_PERSON_AND_ORGANIZATION_ASSIGNMENT ( #176, #117, ( #3 ) ) ;
#372 = ORIENTED_EDGE ( 'NONE', *, *, #128, .F. ) ;
#373 = APPLICATION_PROTOCOL_DEFINITION ( 'international standard', 'config_control_design', 1994, #312 ) ;
#374 = VERTEX_POINT ( 'NONE', #19 ) ;
#375 = ORIENTED_EDGE ( 'NONE', *, *, #49, .T. ) ;
#376 = EDGE_CURVE ( 'NONE', #251, #201, #172, .T. ) ;
#377 = ORIENTED_EDGE ( 'NONE', *, *, #143, .T. ) ;
#378 = DATE_AND_TIME ( #286, #261 ) ;
#379 = EDGE_CURVE ( 'NONE', #251, #206, #133, .T. ) ;
#380 = DIRECTION ( 'NONE',  ( -0.000000000000000000, -0.000000000000000000, -1.000000000000000000 ) ) ;
#381 = CIRCLE ( 'NONE', #332, 4.000000000000000000 ) ;
ENDSEC;
END-ISO-10303-21;
