ISO-10303-21;
HEADER;
FILE_DESCRIPTION (( 'STEP AP203' ),
    '1' );
FILE_NAME ('515d.STEP',
    '2022-07-10T09:00:47',
    ( '' ),
    ( '' ),
    'SwSTEP 2.0',
    'SolidWorks 2019',
    '' );
FILE_SCHEMA (( 'CONFIG_CONTROL_DESIGN' ));
ENDSEC;

DATA;
#1 = EDGE_CURVE ( 'NONE', #328, #107, #92, .T. ) ;
#2 = ORIENTED_EDGE ( 'NONE', *, *, #188, .T. ) ;
#3 = AXIS2_PLACEMENT_3D ( 'NONE', #31, #170, #362 ) ;
#4 = DIRECTION ( 'NONE',  ( -0.000000000000000000, -0.000000000000000000, -1.000000000000000000 ) ) ;
#5 = LINE ( 'NONE', #363, #42 ) ;
#6 = CYLINDRICAL_SURFACE ( 'NONE', #373, 11.00000000000000000 ) ;
#7 = DIRECTION ( 'NONE',  ( 0.000000000000000000, 0.000000000000000000, 1.000000000000000000 ) ) ;
#8 = PERSON_AND_ORGANIZATION ( #268, #138 ) ;
#9 = VERTEX_POINT ( 'NONE', #124 ) ;
#10 = ORIENTED_EDGE ( 'NONE', *, *, #188, .F. ) ;
#11 = CALENDAR_DATE ( 2022, 10, 7 ) ;
#12 = UNCERTAINTY_MEASURE_WITH_UNIT (LENGTH_MEASURE( 1.000000000000000082E-05 ), #227, 'distance_accuracy_value', 'NONE');
#13 = ORIENTED_EDGE ( 'NONE', *, *, #329, .F. ) ;
#14 = LOCAL_TIME ( 11, 0, 47.00000000000000000, #241 ) ;
#15 = PERSON_AND_ORGANIZATION ( #268, #138 ) ;
#16 = APPROVAL_STATUS ( 'not_yet_approved' ) ;
#17 = CIRCLE ( 'NONE', #224, 5.000000000000000000 ) ;
#18 = CARTESIAN_POINT ( 'NONE',  ( 0.000000000000000000, 0.000000000000000000, 0.000000000000000000 ) ) ;
#19 = LOCAL_TIME ( 11, 0, 47.00000000000000000, #244 ) ;
#20 = ADVANCED_FACE ( 'NONE', ( #56 ), #99, .T. ) ;
#21 = EDGE_LOOP ( 'NONE', ( #312, #296 ) ) ;
#22 = CARTESIAN_POINT ( 'NONE',  ( 0.000000000000000000, 0.000000000000000000, 7.000000000000000000 ) ) ;
#23 = DIRECTION ( 'NONE',  ( -1.000000000000000000, 0.000000000000000000, 0.000000000000000000 ) ) ;
#24 = FACE_OUTER_BOUND ( 'NONE', #205, .T. ) ;
#25 = APPROVAL ( #372, 'NEURÈENÝ' ) ;
#26 = ORIENTED_EDGE ( 'NONE', *, *, #137, .T. ) ;
#27 = LINE ( 'NONE', #53, #280 ) ;
#28 = DIRECTION ( 'NONE',  ( -0.000000000000000000, -0.000000000000000000, -1.000000000000000000 ) ) ;
#29 = DIRECTION ( 'NONE',  ( -1.000000000000000000, 0.000000000000000000, 0.000000000000000000 ) ) ;
#30 = CC_DESIGN_SECURITY_CLASSIFICATION ( #134, ( #352 ) ) ;
#31 = CARTESIAN_POINT ( 'NONE',  ( 0.000000000000000000, 0.000000000000000000, 207.0000000000000284 ) ) ;
#32 = PRODUCT ( '515d', '515d', '', ( #68 ) ) ;
#33 = DIRECTION ( 'NONE',  ( -0.000000000000000000, -0.000000000000000000, -1.000000000000000000 ) ) ;
#34 = CARTESIAN_POINT ( 'NONE',  ( 5.000000000000000000, 6.123233995736765296E-16, 207.0000000000000284 ) ) ;
#35 = DIRECTION ( 'NONE',  ( 0.000000000000000000, 0.000000000000000000, 1.000000000000000000 ) ) ;
#36 = TOROIDAL_SURFACE ( 'NONE', #43, 7.700000000000001066, 0.6999999999999999556 ) ;
#37 = PERSON_AND_ORGANIZATION ( #268, #138 ) ;
#38 = APPROVAL_DATE_TIME ( #364, #308 ) ;
#39 = APPROVAL_ROLE ( '' ) ;
#40 = DATE_AND_TIME ( #307, #14 ) ;
#41 = ORIENTED_EDGE ( 'NONE', *, *, #252, .T. ) ;
#42 = VECTOR ( 'NONE', #65, 1000.000000000000000 ) ;
#43 = AXIS2_PLACEMENT_3D ( 'NONE', #249, #159, #220 ) ;
#44 = MANIFOLD_SOLID_BREP ( 'Odebrat vysunutím3', #164 ) ;
#45 = ORIENTED_EDGE ( 'NONE', *, *, #148, .T. ) ;
#46 = ADVANCED_FACE ( 'NONE', ( #360 ), #208, .F. ) ;
#47 = ORIENTED_EDGE ( 'NONE', *, *, #310, .F. ) ;
#48 = ADVANCED_FACE ( 'NONE', ( #59 ), #180, .F. ) ;
#49 = FACE_OUTER_BOUND ( 'NONE', #125, .T. ) ;
#50 = AXIS2_PLACEMENT_3D ( 'NONE', #234, #223, #111 ) ;
#51 = EDGE_CURVE ( 'NONE', #328, #152, #17, .T. ) ;
#52 = EDGE_LOOP ( 'NONE', ( #2, #337 ) ) ;
#53 = CARTESIAN_POINT ( 'NONE',  ( 7.000000000000000888, 8.572527594031474176E-16, 207.0000000000000284 ) ) ;
#54 = ORIENTED_EDGE ( 'NONE', *, *, #369, .T. ) ;
#55 = CARTESIAN_POINT ( 'NONE',  ( 0.000000000000000000, 0.000000000000000000, 7.000000000000000000 ) ) ;
#56 = FACE_OUTER_BOUND ( 'NONE', #235, .T. ) ;
#57 = AXIS2_PLACEMENT_3D ( 'NONE', #22, #190, #254 ) ;
#58 = DIRECTION ( 'NONE',  ( 0.000000000000000000, 0.000000000000000000, -1.000000000000000000 ) ) ;
#59 = FACE_OUTER_BOUND ( 'NONE', #101, .T. ) ;
#60 = DIRECTION ( 'NONE',  ( 1.000000000000000000, 0.000000000000000000, -0.000000000000000000 ) ) ;
#61 = CARTESIAN_POINT ( 'NONE',  ( 0.000000000000000000, 0.000000000000000000, 7.700000000000012612 ) ) ;
#62 = EDGE_CURVE ( 'NONE', #228, #107, #279, .T. ) ;
#63 = DIRECTION ( 'NONE',  ( 1.000000000000000000, 0.000000000000000000, 0.000000000000000000 ) ) ;
#64 = AXIS2_PLACEMENT_3D ( 'NONE', #365, #293, #29 ) ;
#65 = DIRECTION ( 'NONE',  ( -0.000000000000000000, -0.000000000000000000, -1.000000000000000000 ) ) ;
#66 = AXIS2_PLACEMENT_3D ( 'NONE', #106, #284, #84 ) ;
#67 = PERSON_AND_ORGANIZATION_ROLE ( 'creator' ) ;
#68 = MECHANICAL_CONTEXT ( 'NONE', #184, 'mechanical' ) ;
#69 = PERSON_AND_ORGANIZATION_ROLE ( 'design_owner' ) ;
#70 = ORIENTED_EDGE ( 'NONE', *, *, #336, .F. ) ;
#71 = EDGE_CURVE ( 'NONE', #349, #88, #5, .T. ) ;
#72 = ORIENTED_EDGE ( 'NONE', *, *, #1, .F. ) ;
#73 = EDGE_CURVE ( 'NONE', #83, #380, #366, .T. ) ;
#74 = CIRCLE ( 'NONE', #318, 5.000000000000000000 ) ;
#75 = FACE_BOUND ( 'NONE', #21, .T. ) ;
#76 = AXIS2_PLACEMENT_3D ( 'NONE', #250, #219, #313 ) ;
#77 = DIRECTION ( 'NONE',  ( 0.000000000000000000, 0.000000000000000000, 1.000000000000000000 ) ) ;
#78 = CC_DESIGN_APPROVAL ( #120, ( #91 ) ) ;
#79 = PRODUCT_RELATED_PRODUCT_CATEGORY ( 'detail', '', ( #32 ) ) ;
#80 = ORIENTED_EDGE ( 'NONE', *, *, #195, .T. ) ;
#81 = DIRECTION ( 'NONE',  ( 0.000000000000000000, -1.000000000000000000, 0.000000000000000000 ) ) ;
#82 = ADVANCED_FACE ( 'NONE', ( #97 ), #334, .T. ) ;
#83 = VERTEX_POINT ( 'NONE', #182 ) ;
#84 = DIRECTION ( 'NONE',  ( 1.000000000000000000, 0.000000000000000000, -0.000000000000000000 ) ) ;
#85 = DIRECTION ( 'NONE',  ( -1.000000000000000000, 0.000000000000000000, 0.000000000000000000 ) ) ;
#86 = AXIS2_PLACEMENT_3D ( 'NONE', #18, #347, #162 ) ;
#87 = AXIS2_PLACEMENT_3D ( 'NONE', #181, #278, #103 ) ;
#88 = VERTEX_POINT ( 'NONE', #247 ) ;
#89 = ORIENTED_EDGE ( 'NONE', *, *, #71, .T. ) ;
#90 = ADVANCED_FACE ( 'NONE', ( #341 ), #163, .F. ) ;
#91 = PRODUCT_DEFINITION ( 'NEZNÁMÝ', '', #352, #209 ) ;
#92 = LINE ( 'NONE', #204, #376 ) ;
#93 = VECTOR ( 'NONE', #139, 1000.000000000000000 ) ;
#94 = CARTESIAN_POINT ( 'NONE',  ( -5.000000000000000000, 0.000000000000000000, 207.0000000000000284 ) ) ;
#95 = CARTESIAN_POINT ( 'NONE',  ( 0.000000000000000000, 0.000000000000000000, 207.0000000000000284 ) ) ;
#96 = CARTESIAN_POINT ( 'NONE',  ( 0.000000000000000000, 0.000000000000000000, 0.000000000000000000 ) ) ;
#97 = FACE_OUTER_BOUND ( 'NONE', #283, .T. ) ;
#98 = ADVANCED_FACE ( 'NONE', ( #24 ), #261, .T. ) ;
#99 = CYLINDRICAL_SURFACE ( 'NONE', #64, 7.000000000000000888 ) ;
#100 =( GEOMETRIC_REPRESENTATION_CONTEXT ( 3 ) GLOBAL_UNCERTAINTY_ASSIGNED_CONTEXT ( ( #12 ) ) GLOBAL_UNIT_ASSIGNED_CONTEXT ( ( #227, #116, #269 ) ) REPRESENTATION_CONTEXT ( 'NONE', 'WORKASPACE' ) );
#101 = EDGE_LOOP ( 'NONE', ( #225, #290, #47, #171 ) ) ;
#102 = COORDINATED_UNIVERSAL_TIME_OFFSET ( 1, 0, .AHEAD. ) ;
#103 = DIRECTION ( 'NONE',  ( 1.000000000000000000, 0.000000000000000000, 0.000000000000000000 ) ) ;
#104 = PERSON_AND_ORGANIZATION_ROLE ( 'design_supplier' ) ;
#105 = CIRCLE ( 'NONE', #173, 7.700000000000001066 ) ;
#106 = CARTESIAN_POINT ( 'NONE',  ( 0.000000000000000000, 0.000000000000000000, 7.000000000000000000 ) ) ;
#107 = VERTEX_POINT ( 'NONE', #112 ) ;
#108 = PLANE ( 'NONE',  #76 ) ;
#109 = CC_DESIGN_APPROVAL ( #25, ( #134 ) ) ;
#110 = CARTESIAN_POINT ( 'NONE',  ( 7.700000000000001066, 0.000000000000000000, 7.700000000000012612 ) ) ;
#111 = DIRECTION ( 'NONE',  ( 1.000000000000000000, 0.000000000000000000, 0.000000000000000000 ) ) ;
#112 = CARTESIAN_POINT ( 'NONE',  ( 5.000000000000000000, 6.123233995736765296E-16, 0.000000000000000000 ) ) ;
#113 = ORIENTED_EDGE ( 'NONE', *, *, #300, .F. ) ;
#114 = VECTOR ( 'NONE', #58, 1000.000000000000000 ) ;
#115 = ORIENTED_EDGE ( 'NONE', *, *, #51, .T. ) ;
#116 =( NAMED_UNIT ( * ) PLANE_ANGLE_UNIT ( ) SI_UNIT ( $, .RADIAN. ) );
#117 = CARTESIAN_POINT ( 'NONE',  ( 0.000000000000000000, 0.000000000000000000, 207.0000000000000284 ) ) ;
#118 = DIRECTION ( 'NONE',  ( 1.000000000000000000, 0.000000000000000000, 0.000000000000000000 ) ) ;
#119 = DIRECTION ( 'NONE',  ( 1.000000000000000000, 0.000000000000000000, 0.000000000000000000 ) ) ;
#120 = APPROVAL ( #128, 'NEURÈENÝ' ) ;
#121 = ORIENTED_EDGE ( 'NONE', *, *, #213, .F. ) ;
#122 = FACE_BOUND ( 'NONE', #314, .T. ) ;
#123 = EDGE_CURVE ( 'NONE', #83, #238, #233, .T. ) ;
#124 = CARTESIAN_POINT ( 'NONE',  ( 11.00000000000000000, 1.347111479062088405E-15, 0.000000000000000000 ) ) ;
#125 = EDGE_LOOP ( 'NONE', ( #54, #199 ) ) ;
#126 = CIRCLE ( 'NONE', #326, 7.700000000000001066 ) ;
#127 = EDGE_LOOP ( 'NONE', ( #345, #275 ) ) ;
#128 = APPROVAL_STATUS ( 'not_yet_approved' ) ;
#129 = PERSON_AND_ORGANIZATION ( #268, #138 ) ;
#130 = PERSON_AND_ORGANIZATION ( #268, #138 ) ;
#131 = EDGE_CURVE ( 'NONE', #9, #88, #288, .T. ) ;
#132 = CC_DESIGN_PERSON_AND_ORGANIZATION_ASSIGNMENT ( #129, #104, ( #352 ) ) ;
#133 = CIRCLE ( 'NONE', #151, 5.000000000000000000 ) ;
#134 = SECURITY_CLASSIFICATION ( '', '', #183 ) ;
#135 = DIRECTION ( 'NONE',  ( 0.000000000000000000, 0.000000000000000000, 1.000000000000000000 ) ) ;
#136 = ORIENTED_EDGE ( 'NONE', *, *, #1, .T. ) ;
#137 = EDGE_CURVE ( 'NONE', #145, #380, #311, .T. ) ;
#138 = ORGANIZATION ( 'NEURÈENÝ', 'NEURÈENÝ', '' ) ;
#139 = DIRECTION ( 'NONE',  ( -0.000000000000000000, -0.000000000000000000, -1.000000000000000000 ) ) ;
#140 = ORIENTED_EDGE ( 'NONE', *, *, #71, .F. ) ;
#141 = DIRECTION ( 'NONE',  ( -0.000000000000000000, -0.000000000000000000, -1.000000000000000000 ) ) ;
#142 = DIRECTION ( 'NONE',  ( 0.000000000000000000, 0.000000000000000000, -1.000000000000000000 ) ) ;
#143 = ORIENTED_EDGE ( 'NONE', *, *, #300, .T. ) ;
#144 = CIRCLE ( 'NONE', #50, 11.00000000000000000 ) ;
#145 = VERTEX_POINT ( 'NONE', #259 ) ;
#146 = CARTESIAN_POINT ( 'NONE',  ( 11.00000000000000000, 1.347111479062088405E-15, 7.000000000000000000 ) ) ;
#147 = DIRECTION ( 'NONE',  ( -1.000000000000000000, 0.000000000000000000, 0.000000000000000000 ) ) ;
#148 = EDGE_CURVE ( 'NONE', #380, #83, #218, .T. ) ;
#149 = CARTESIAN_POINT ( 'NONE',  ( 7.000000000000000888, 8.572527594031474176E-16, 207.0000000000000284 ) ) ;
#150 = DIRECTION ( 'NONE',  ( 0.000000000000000000, 0.000000000000000000, -1.000000000000000000 ) ) ;
#151 = AXIS2_PLACEMENT_3D ( 'NONE', #197, #135, #194 ) ;
#152 = VERTEX_POINT ( 'NONE', #319 ) ;
#153 = CC_DESIGN_DATE_AND_TIME_ASSIGNMENT ( #301, #276, ( #91 ) ) ;
#154 = PERSON_AND_ORGANIZATION ( #268, #138 ) ;
#155 = AXIS2_PLACEMENT_3D ( 'NONE', #381, #7, #60 ) ;
#156 = APPROVAL_DATE_TIME ( #40, #25 ) ;
#157 = ORIENTED_EDGE ( 'NONE', *, *, #62, .F. ) ;
#158 = CIRCLE ( 'NONE', #3, 7.000000000000000888 ) ;
#159 = DIRECTION ( 'NONE',  ( 0.000000000000000000, 0.000000000000000000, 1.000000000000000000 ) ) ;
#160 = CC_DESIGN_PERSON_AND_ORGANIZATION_ASSIGNMENT ( #8, #186, ( #352 ) ) ;
#161 = ORIENTED_EDGE ( 'NONE', *, *, #123, .T. ) ;
#162 = DIRECTION ( 'NONE',  ( 1.000000000000000000, 0.000000000000000000, 0.000000000000000000 ) ) ;
#163 = CYLINDRICAL_SURFACE ( 'NONE', #324, 5.000000000000000000 ) ;
#164 = CLOSED_SHELL ( 'NONE', ( #46, #48, #20, #305, #82, #210, #377, #98, #221, #169, #90 ) ) ;
#165 = ORIENTED_EDGE ( 'NONE', *, *, #287, .T. ) ;
#166 = AXIS2_PLACEMENT_3D ( 'NONE', #346, #77, #198 ) ;
#167 = CARTESIAN_POINT ( 'NONE',  ( -5.000000000000000000, 0.000000000000000000, 0.000000000000000000 ) ) ;
#168 = CC_DESIGN_APPROVAL ( #308, ( #352 ) ) ;
#169 = ADVANCED_FACE ( 'NONE', ( #323 ), #36, .F. ) ;
#170 = DIRECTION ( 'NONE',  ( 0.000000000000000000, 0.000000000000000000, 1.000000000000000000 ) ) ;
#171 = ORIENTED_EDGE ( 'NONE', *, *, #123, .F. ) ;
#172 = AXIS2_PLACEMENT_3D ( 'NONE', #175, #33, #147 ) ;
#173 = AXIS2_PLACEMENT_3D ( 'NONE', #297, #295, #119 ) ;
#174 = APPROVAL_PERSON_ORGANIZATION ( #339, #25, #187 ) ;
#175 = CARTESIAN_POINT ( 'NONE',  ( 0.000000000000000000, 0.000000000000000000, 7.000000000000000000 ) ) ;
#176 = CARTESIAN_POINT ( 'NONE',  ( 11.00000000000000000, 1.347111479062088405E-15, 7.000000000000000000 ) ) ;
#177 = CARTESIAN_POINT ( 'NONE',  ( 0.000000000000000000, 0.000000000000000000, 7.700000000000012612 ) ) ;
#178 = FACE_OUTER_BOUND ( 'NONE', #196, .T. ) ;
#179 = DIRECTION ( 'NONE',  ( 0.000000000000000000, 0.000000000000000000, 1.000000000000000000 ) ) ;
#180 = TOROIDAL_SURFACE ( 'NONE', #262, 7.700000000000001066, 0.6999999999999999556 ) ;
#181 = CARTESIAN_POINT ( 'NONE',  ( 0.000000000000000000, 0.000000000000000000, 0.000000000000000000 ) ) ;
#182 = CARTESIAN_POINT ( 'NONE',  ( 7.000000000000000888, 8.572527594031474176E-16, 7.700000000000012612 ) ) ;
#183 = SECURITY_CLASSIFICATION_LEVEL ( 'unclassified' ) ;
#184 = APPLICATION_CONTEXT ( 'configuration controlled 3d designs of mechanical parts and assemblies' ) ;
#185 = CALENDAR_DATE ( 2022, 10, 7 ) ;
#186 = PERSON_AND_ORGANIZATION_ROLE ( 'creator' ) ;
#187 = APPROVAL_ROLE ( '' ) ;
#188 = EDGE_CURVE ( 'NONE', #349, #374, #144, .T. ) ;
#189 = VERTEX_POINT ( 'NONE', #350 ) ;
#190 = DIRECTION ( 'NONE',  ( 0.000000000000000000, 0.000000000000000000, 1.000000000000000000 ) ) ;
#191 = ORIENTED_EDGE ( 'NONE', *, *, #329, .T. ) ;
#192 = CIRCLE ( 'NONE', #57, 11.00000000000000000 ) ;
#193 = LOCAL_TIME ( 11, 0, 47.00000000000000000, #277 ) ;
#194 = DIRECTION ( 'NONE',  ( 1.000000000000000000, 0.000000000000000000, 0.000000000000000000 ) ) ;
#195 = EDGE_CURVE ( 'NONE', #152, #328, #133, .T. ) ;
#196 = EDGE_LOOP ( 'NONE', ( #121, #143, #354, #140 ) ) ;
#197 = CARTESIAN_POINT ( 'NONE',  ( 0.000000000000000000, 0.000000000000000000, 207.0000000000000284 ) ) ;
#198 = DIRECTION ( 'NONE',  ( 1.000000000000000000, 0.000000000000000000, 0.000000000000000000 ) ) ;
#199 = ORIENTED_EDGE ( 'NONE', *, *, #229, .T. ) ;
#200 = DIRECTION ( 'NONE',  ( 1.000000000000000000, 0.000000000000000000, 0.000000000000000000 ) ) ;
#201 = DIRECTION ( 'NONE',  ( 0.000000000000000000, 0.000000000000000000, -1.000000000000000000 ) ) ;
#202 = CARTESIAN_POINT ( 'NONE',  ( 7.700000000000001066, 0.000000000000000000, 7.000000000000006217 ) ) ;
#203 = DIRECTION ( 'NONE',  ( -1.000000000000000000, 1.224646799147351975E-16, 0.000000000000000000 ) ) ;
#204 = CARTESIAN_POINT ( 'NONE',  ( 5.000000000000000000, 6.123233995736765296E-16, 207.0000000000000284 ) ) ;
#205 = EDGE_LOOP ( 'NONE', ( #211, #332, #26, #45 ) ) ;
#206 = LINE ( 'NONE', #176, #294 ) ;
#207 = AXIS2_PLACEMENT_3D ( 'NONE', #95, #150, #231 ) ;
#208 = CYLINDRICAL_SURFACE ( 'NONE', #207, 5.000000000000000000 ) ;
#209 = DESIGN_CONTEXT ( 'detailed design', #282, 'design' ) ;
#210 = ADVANCED_FACE ( 'NONE', ( #75, #378 ), #258, .T. ) ;
#211 = ORIENTED_EDGE ( 'NONE', *, *, #252, .F. ) ;
#212 = PERSON_AND_ORGANIZATION ( #268, #138 ) ;
#213 = EDGE_CURVE ( 'NONE', #374, #349, #192, .T. ) ;
#214 = DATE_TIME_ROLE ( 'classification_date' ) ;
#215 = CIRCLE ( 'NONE', #242, 7.000000000000000888 ) ;
#216 = APPROVAL_ROLE ( '' ) ;
#217 = EDGE_CURVE ( 'NONE', #88, #9, #243, .T. ) ;
#218 = CIRCLE ( 'NONE', #166, 7.000000000000000888 ) ;
#219 = DIRECTION ( 'NONE',  ( 0.000000000000000000, 0.000000000000000000, 1.000000000000000000 ) ) ;
#220 = DIRECTION ( 'NONE',  ( 1.000000000000000000, 0.000000000000000000, 0.000000000000000000 ) ) ;
#221 = ADVANCED_FACE ( 'NONE', ( #315, #49 ), #108, .T. ) ;
#222 = EDGE_LOOP ( 'NONE', ( #80, #136, #165, #13 ) ) ;
#223 = DIRECTION ( 'NONE',  ( 0.000000000000000000, 0.000000000000000000, 1.000000000000000000 ) ) ;
#224 = AXIS2_PLACEMENT_3D ( 'NONE', #298, #331, #325 ) ;
#225 = ORIENTED_EDGE ( 'NONE', *, *, #148, .F. ) ;
#226 = AXIS2_PLACEMENT_3D ( 'NONE', #110, #81, #255 ) ;
#227 =( LENGTH_UNIT ( ) NAMED_UNIT ( * ) SI_UNIT ( .MILLI., .METRE. ) );
#228 = VERTEX_POINT ( 'NONE', #167 ) ;
#229 = EDGE_CURVE ( 'NONE', #270, #145, #215, .T. ) ;
#230 = CARTESIAN_POINT ( 'NONE',  ( -7.000000000000000888, 0.000000000000000000, 7.700000000000012612 ) ) ;
#231 = DIRECTION ( 'NONE',  ( -1.000000000000000000, 0.000000000000000000, 0.000000000000000000 ) ) ;
#232 = LINE ( 'NONE', #94, #114 ) ;
#233 = CIRCLE ( 'NONE', #226, 0.7000000000000000666 ) ;
#234 = CARTESIAN_POINT ( 'NONE',  ( 0.000000000000000000, 0.000000000000000000, 7.000000000000000000 ) ) ;
#235 = EDGE_LOOP ( 'NONE', ( #240, #41, #292, #251 ) ) ;
#236 = ORIENTED_EDGE ( 'NONE', *, *, #217, .T. ) ;
#237 = APPLICATION_PROTOCOL_DEFINITION ( 'international standard', 'config_control_design', 1994, #184 ) ;
#238 = VERTEX_POINT ( 'NONE', #202 ) ;
#239 = COORDINATED_UNIVERSAL_TIME_OFFSET ( 1, 0, .AHEAD. ) ;
#240 = ORIENTED_EDGE ( 'NONE', *, *, #229, .F. ) ;
#241 = COORDINATED_UNIVERSAL_TIME_OFFSET ( 1, 0, .AHEAD. ) ;
#242 = AXIS2_PLACEMENT_3D ( 'NONE', #117, #333, #63 ) ;
#243 = CIRCLE ( 'NONE', #86, 11.00000000000000000 ) ;
#244 = COORDINATED_UNIVERSAL_TIME_OFFSET ( 1, 0, .AHEAD. ) ;
#245 = CC_DESIGN_DATE_AND_TIME_ASSIGNMENT ( #303, #214, ( #134 ) ) ;
#246 = CALENDAR_DATE ( 2022, 10, 7 ) ;
#247 = CARTESIAN_POINT ( 'NONE',  ( -11.00000000000000000, 0.000000000000000000, 0.000000000000000000 ) ) ;
#248 = SHAPE_DEFINITION_REPRESENTATION ( #322, #317 ) ;
#249 = CARTESIAN_POINT ( 'NONE',  ( 0.000000000000000000, 0.000000000000000000, 7.700000000000012612 ) ) ;
#250 = CARTESIAN_POINT ( 'NONE',  ( 0.000000000000000000, 0.000000000000000000, 207.0000000000000284 ) ) ;
#251 = ORIENTED_EDGE ( 'NONE', *, *, #137, .F. ) ;
#252 = EDGE_CURVE ( 'NONE', #270, #83, #27, .T. ) ;
#253 = EDGE_LOOP ( 'NONE', ( #357, #343, #161, #70 ) ) ;
#254 = DIRECTION ( 'NONE',  ( 1.000000000000000000, 0.000000000000000000, 0.000000000000000000 ) ) ;
#255 = DIRECTION ( 'NONE',  ( 0.000000000000000000, 0.000000000000000000, -1.000000000000000000 ) ) ;
#256 = CIRCLE ( 'NONE', #306, 0.7000000000000000666 ) ;
#257 = CARTESIAN_POINT ( 'NONE',  ( 0.000000000000000000, 0.000000000000000000, 207.0000000000000284 ) ) ;
#258 = PLANE ( 'NONE',  #66 ) ;
#259 = CARTESIAN_POINT ( 'NONE',  ( -7.000000000000000888, 0.000000000000000000, 207.0000000000000284 ) ) ;
#260 = CARTESIAN_POINT ( 'NONE',  ( -11.00000000000000000, 0.000000000000000000, 7.000000000000000000 ) ) ;
#261 = CYLINDRICAL_SURFACE ( 'NONE', #351, 7.000000000000000888 ) ;
#262 = AXIS2_PLACEMENT_3D ( 'NONE', #177, #35, #118 ) ;
#263 = DIRECTION ( 'NONE',  ( -0.000000000000000000, -0.000000000000000000, -1.000000000000000000 ) ) ;
#264 = CC_DESIGN_PERSON_AND_ORGANIZATION_ASSIGNMENT ( #154, #67, ( #91 ) ) ;
#265 = FACE_OUTER_BOUND ( 'NONE', #127, .T. ) ;
#266 = CARTESIAN_POINT ( 'NONE',  ( 0.000000000000000000, 0.000000000000000000, 0.000000000000000000 ) ) ;
#267 = CARTESIAN_POINT ( 'NONE',  ( -7.700000000000001066, 9.429780353434621002E-16, 7.700000000000012612 ) ) ;
#268 = PERSON ( 'NEURÈENÝ', 'NEURÈENÝ', 'NEURÈENÝ', ('NEURÈENÝ'), ('NEURÈENÝ'), ('NEURÈENÝ') ) ;
#269 =( NAMED_UNIT ( * ) SI_UNIT ( $, .STERADIAN. ) SOLID_ANGLE_UNIT ( ) );
#270 = VERTEX_POINT ( 'NONE', #149 ) ;
#271 = APPROVAL_DATE_TIME ( #304, #120 ) ;
#272 = EDGE_CURVE ( 'NONE', #380, #189, #256, .T. ) ;
#273 = ORIENTED_EDGE ( 'NONE', *, *, #62, .T. ) ;
#274 = AXIS2_PLACEMENT_3D ( 'NONE', #61, #179, #299 ) ;
#275 = ORIENTED_EDGE ( 'NONE', *, *, #131, .F. ) ;
#276 = DATE_TIME_ROLE ( 'creation_date' ) ;
#277 = COORDINATED_UNIVERSAL_TIME_OFFSET ( 1, 0, .AHEAD. ) ;
#278 = DIRECTION ( 'NONE',  ( 0.000000000000000000, 0.000000000000000000, 1.000000000000000000 ) ) ;
#279 = CIRCLE ( 'NONE', #335, 5.000000000000000000 ) ;
#280 = VECTOR ( 'NONE', #355, 1000.000000000000000 ) ;
#281 = LOCAL_TIME ( 11, 0, 47.00000000000000000, #102 ) ;
#282 = APPLICATION_CONTEXT ( 'configuration controlled 3d designs of mechanical parts and assemblies' ) ;
#283 = EDGE_LOOP ( 'NONE', ( #113, #10, #89, #236 ) ) ;
#284 = DIRECTION ( 'NONE',  ( 0.000000000000000000, 0.000000000000000000, 1.000000000000000000 ) ) ;
#285 = CARTESIAN_POINT ( 'NONE',  ( 0.000000000000000000, 0.000000000000000000, 207.0000000000000284 ) ) ;
#286 = ORIENTED_EDGE ( 'NONE', *, *, #195, .F. ) ;
#287 = EDGE_CURVE ( 'NONE', #107, #228, #74, .T. ) ;
#288 = CIRCLE ( 'NONE', #340, 11.00000000000000000 ) ;
#289 = DIRECTION ( 'NONE',  ( 1.000000000000000000, 0.000000000000000000, 0.000000000000000000 ) ) ;
#290 = ORIENTED_EDGE ( 'NONE', *, *, #272, .T. ) ;
#291 = DIRECTION ( 'NONE',  ( -1.000000000000000000, 0.000000000000000000, 0.000000000000000000 ) ) ;
#292 = ORIENTED_EDGE ( 'NONE', *, *, #73, .T. ) ;
#293 = DIRECTION ( 'NONE',  ( -0.000000000000000000, -0.000000000000000000, -1.000000000000000000 ) ) ;
#294 = VECTOR ( 'NONE', #141, 1000.000000000000000 ) ;
#295 = DIRECTION ( 'NONE',  ( -0.000000000000000000, -0.000000000000000000, -1.000000000000000000 ) ) ;
#296 = ORIENTED_EDGE ( 'NONE', *, *, #336, .T. ) ;
#297 = CARTESIAN_POINT ( 'NONE',  ( 0.000000000000000000, 0.000000000000000000, 7.000000000000000000 ) ) ;
#298 = CARTESIAN_POINT ( 'NONE',  ( 0.000000000000000000, 0.000000000000000000, 207.0000000000000284 ) ) ;
#299 = DIRECTION ( 'NONE',  ( 1.000000000000000000, 0.000000000000000000, 0.000000000000000000 ) ) ;
#300 = EDGE_CURVE ( 'NONE', #374, #9, #206, .T. ) ;
#301 = DATE_AND_TIME ( #246, #358 ) ;
#302 = APPROVAL_PERSON_ORGANIZATION ( #212, #308, #216 ) ;
#303 = DATE_AND_TIME ( #185, #281 ) ;
#304 = DATE_AND_TIME ( #11, #19 ) ;
#305 = ADVANCED_FACE ( 'NONE', ( #178 ), #6, .T. ) ;
#306 = AXIS2_PLACEMENT_3D ( 'NONE', #267, #321, #203 ) ;
#307 = CALENDAR_DATE ( 2022, 10, 7 ) ;
#308 = APPROVAL ( #16, 'NEURÈENÝ' ) ;
#309 = EDGE_LOOP ( 'NONE', ( #286, #361 ) ) ;
#310 = EDGE_CURVE ( 'NONE', #238, #189, #105, .T. ) ;
#311 = LINE ( 'NONE', #348, #93 ) ;
#312 = ORIENTED_EDGE ( 'NONE', *, *, #310, .T. ) ;
#313 = DIRECTION ( 'NONE',  ( 1.000000000000000000, 0.000000000000000000, -0.000000000000000000 ) ) ;
#314 = EDGE_LOOP ( 'NONE', ( #157, #320 ) ) ;
#315 = FACE_BOUND ( 'NONE', #309, .T. ) ;
#316 = DIRECTION ( 'NONE',  ( 0.000000000000000000, 0.000000000000000000, 1.000000000000000000 ) ) ;
#317 = ADVANCED_BREP_SHAPE_REPRESENTATION ( '515d', ( #44, #87 ), #100 ) ;
#318 = AXIS2_PLACEMENT_3D ( 'NONE', #96, #28, #200 ) ;
#319 = CARTESIAN_POINT ( 'NONE',  ( -5.000000000000000000, 0.000000000000000000, 207.0000000000000284 ) ) ;
#320 = ORIENTED_EDGE ( 'NONE', *, *, #287, .F. ) ;
#321 = DIRECTION ( 'NONE',  ( 1.224646799147353207E-16, 1.000000000000000000, -0.000000000000000000 ) ) ;
#322 = PRODUCT_DEFINITION_SHAPE ( 'NONE', 'NONE',  #91 ) ;
#323 = FACE_OUTER_BOUND ( 'NONE', #253, .T. ) ;
#324 = AXIS2_PLACEMENT_3D ( 'NONE', #285, #142, #85 ) ;
#325 = DIRECTION ( 'NONE',  ( 1.000000000000000000, 0.000000000000000000, 0.000000000000000000 ) ) ;
#326 = AXIS2_PLACEMENT_3D ( 'NONE', #353, #263, #359 ) ;
#327 = PLANE ( 'NONE',  #155 ) ;
#328 = VERTEX_POINT ( 'NONE', #34 ) ;
#329 = EDGE_CURVE ( 'NONE', #152, #228, #232, .T. ) ;
#330 = DIRECTION ( 'NONE',  ( -0.000000000000000000, -0.000000000000000000, -1.000000000000000000 ) ) ;
#331 = DIRECTION ( 'NONE',  ( 0.000000000000000000, 0.000000000000000000, 1.000000000000000000 ) ) ;
#332 = ORIENTED_EDGE ( 'NONE', *, *, #369, .F. ) ;
#333 = DIRECTION ( 'NONE',  ( 0.000000000000000000, 0.000000000000000000, 1.000000000000000000 ) ) ;
#334 = CYLINDRICAL_SURFACE ( 'NONE', #172, 11.00000000000000000 ) ;
#335 = AXIS2_PLACEMENT_3D ( 'NONE', #266, #4, #356 ) ;
#336 = EDGE_CURVE ( 'NONE', #189, #238, #126, .T. ) ;
#337 = ORIENTED_EDGE ( 'NONE', *, *, #213, .T. ) ;
#338 = CC_DESIGN_PERSON_AND_ORGANIZATION_ASSIGNMENT ( #37, #370, ( #134 ) ) ;
#339 = PERSON_AND_ORGANIZATION ( #268, #138 ) ;
#340 = AXIS2_PLACEMENT_3D ( 'NONE', #344, #316, #289 ) ;
#341 = FACE_OUTER_BOUND ( 'NONE', #375, .T. ) ;
#342 = APPLICATION_PROTOCOL_DEFINITION ( 'international standard', 'config_control_design', 1994, #282 ) ;
#343 = ORIENTED_EDGE ( 'NONE', *, *, #73, .F. ) ;
#344 = CARTESIAN_POINT ( 'NONE',  ( 0.000000000000000000, 0.000000000000000000, 0.000000000000000000 ) ) ;
#345 = ORIENTED_EDGE ( 'NONE', *, *, #217, .F. ) ;
#346 = CARTESIAN_POINT ( 'NONE',  ( 0.000000000000000000, 0.000000000000000000, 7.700000000000012612 ) ) ;
#347 = DIRECTION ( 'NONE',  ( 0.000000000000000000, 0.000000000000000000, 1.000000000000000000 ) ) ;
#348 = CARTESIAN_POINT ( 'NONE',  ( -7.000000000000000888, 0.000000000000000000, 207.0000000000000284 ) ) ;
#349 = VERTEX_POINT ( 'NONE', #260 ) ;
#350 = CARTESIAN_POINT ( 'NONE',  ( -7.700000000000001066, 9.429780353434621002E-16, 7.000000000000006217 ) ) ;
#351 = AXIS2_PLACEMENT_3D ( 'NONE', #257, #379, #23 ) ;
#352 = PRODUCT_DEFINITION_FORMATION_WITH_SPECIFIED_SOURCE ( 'LIBOVOLNÝ', '', #32, .NOT_KNOWN. ) ;
#353 = CARTESIAN_POINT ( 'NONE',  ( 0.000000000000000000, 0.000000000000000000, 7.000000000000000000 ) ) ;
#354 = ORIENTED_EDGE ( 'NONE', *, *, #131, .T. ) ;
#355 = DIRECTION ( 'NONE',  ( -0.000000000000000000, -0.000000000000000000, -1.000000000000000000 ) ) ;
#356 = DIRECTION ( 'NONE',  ( 1.000000000000000000, 0.000000000000000000, 0.000000000000000000 ) ) ;
#357 = ORIENTED_EDGE ( 'NONE', *, *, #272, .F. ) ;
#358 = LOCAL_TIME ( 11, 0, 47.00000000000000000, #239 ) ;
#359 = DIRECTION ( 'NONE',  ( 1.000000000000000000, 0.000000000000000000, 0.000000000000000000 ) ) ;
#360 = FACE_OUTER_BOUND ( 'NONE', #222, .T. ) ;
#361 = ORIENTED_EDGE ( 'NONE', *, *, #51, .F. ) ;
#362 = DIRECTION ( 'NONE',  ( 1.000000000000000000, 0.000000000000000000, 0.000000000000000000 ) ) ;
#363 = CARTESIAN_POINT ( 'NONE',  ( -11.00000000000000000, 0.000000000000000000, 7.000000000000000000 ) ) ;
#364 = DATE_AND_TIME ( #371, #193 ) ;
#365 = CARTESIAN_POINT ( 'NONE',  ( 0.000000000000000000, 0.000000000000000000, 207.0000000000000284 ) ) ;
#366 = CIRCLE ( 'NONE', #274, 7.000000000000000888 ) ;
#367 = CC_DESIGN_PERSON_AND_ORGANIZATION_ASSIGNMENT ( #15, #69, ( #32 ) ) ;
#368 = APPROVAL_PERSON_ORGANIZATION ( #130, #120, #39 ) ;
#369 = EDGE_CURVE ( 'NONE', #145, #270, #158, .T. ) ;
#370 = PERSON_AND_ORGANIZATION_ROLE ( 'classification_officer' ) ;
#371 = CALENDAR_DATE ( 2022, 10, 7 ) ;
#372 = APPROVAL_STATUS ( 'not_yet_approved' ) ;
#373 = AXIS2_PLACEMENT_3D ( 'NONE', #55, #330, #291 ) ;
#374 = VERTEX_POINT ( 'NONE', #146 ) ;
#375 = EDGE_LOOP ( 'NONE', ( #72, #115, #191, #273 ) ) ;
#376 = VECTOR ( 'NONE', #201, 1000.000000000000000 ) ;
#377 = ADVANCED_FACE ( 'NONE', ( #122, #265 ), #327, .F. ) ;
#378 = FACE_OUTER_BOUND ( 'NONE', #52, .T. ) ;
#379 = DIRECTION ( 'NONE',  ( -0.000000000000000000, -0.000000000000000000, -1.000000000000000000 ) ) ;
#380 = VERTEX_POINT ( 'NONE', #230 ) ;
#381 = CARTESIAN_POINT ( 'NONE',  ( 0.000000000000000000, 0.000000000000000000, 0.000000000000000000 ) ) ;
ENDSEC;
END-ISO-10303-21;
