ISO-10303-21;
HEADER;
FILE_DESCRIPTION (( 'STEP AP203' ),
    '1' );
FILE_NAME ('c9aa.STEP',
    '2022-07-10T09:16:02',
    ( '' ),
    ( '' ),
    'SwSTEP 2.0',
    'SolidWorks 2019',
    '' );
FILE_SCHEMA (( 'CONFIG_CONTROL_DESIGN' ));
ENDSEC;

DATA;
#1 = PERSON ( 'NEURÈENÝ', 'NEURÈENÝ', 'NEURÈENÝ', ('NEURÈENÝ'), ('NEURÈENÝ'), ('NEURÈENÝ') ) ;
#2 = DIRECTION ( 'NONE',  ( 1.000000000000000000, 0.000000000000000000, 0.000000000000000000 ) ) ;
#3 = ADVANCED_FACE ( 'NONE', ( #39, #301 ), #277, .F. ) ;
#4 = DIRECTION ( 'NONE',  ( 0.000000000000000000, 0.000000000000000000, -1.000000000000000000 ) ) ;
#5 = CIRCLE ( 'NONE', #365, 2.799999999999999822 ) ;
#6 = ORIENTED_EDGE ( 'NONE', *, *, #48, .F. ) ;
#7 = DATE_TIME_ROLE ( 'classification_date' ) ;
#8 = VERTEX_POINT ( 'NONE', #364 ) ;
#9 = PERSON_AND_ORGANIZATION_ROLE ( 'design_supplier' ) ;
#10 = AXIS2_PLACEMENT_3D ( 'NONE', #287, #253, #21 ) ;
#11 = DIRECTION ( 'NONE',  ( 1.000000000000000000, 0.000000000000000000, 0.000000000000000000 ) ) ;
#12 = CALENDAR_DATE ( 2022, 10, 7 ) ;
#13 = DIRECTION ( 'NONE',  ( 0.000000000000000000, 0.000000000000000000, 1.000000000000000000 ) ) ;
#14 = APPROVAL ( #68, 'NEURÈENÝ' ) ;
#15 = APPROVAL_DATE_TIME ( #278, #14 ) ;
#16 = DIRECTION ( 'NONE',  ( 0.000000000000000000, 0.000000000000000000, 1.000000000000000000 ) ) ;
#17 = VECTOR ( 'NONE', #204, 1000.000000000000000 ) ;
#18 = DESIGN_CONTEXT ( 'detailed design', #334, 'design' ) ;
#19 = LINE ( 'NONE', #127, #222 ) ;
#20 = AXIS2_PLACEMENT_3D ( 'NONE', #53, #345, #105 ) ;
#21 = DIRECTION ( 'NONE',  ( -1.000000000000000000, 0.000000000000000000, 0.000000000000000000 ) ) ;
#22 = DIRECTION ( 'NONE',  ( 1.000000000000000000, 0.000000000000000000, 0.000000000000000000 ) ) ;
#23 = ORIENTED_EDGE ( 'NONE', *, *, #291, .F. ) ;
#24 = CC_DESIGN_APPROVAL ( #131, ( #360 ) ) ;
#25 = FACE_BOUND ( 'NONE', #275, .T. ) ;
#26 = EDGE_LOOP ( 'NONE', ( #91, #36, #299, #338 ) ) ;
#27 = DIRECTION ( 'NONE',  ( 0.000000000000000000, 0.000000000000000000, 1.000000000000000000 ) ) ;
#28 = CARTESIAN_POINT ( 'NONE',  ( 5.000000000000000000, 6.123233995736766282E-16, 3.000000000000000000 ) ) ;
#29 = VERTEX_POINT ( 'NONE', #332 ) ;
#30 = CIRCLE ( 'NONE', #35, 2.500000000000000000 ) ;
#31 = PRODUCT_DEFINITION ( 'NEZNÁMÝ', '', #158, #18 ) ;
#32 = DIRECTION ( 'NONE',  ( 0.000000000000000000, -1.000000000000000000, 0.000000000000000000 ) ) ;
#33 = PLANE ( 'NONE',  #49 ) ;
#34 = CARTESIAN_POINT ( 'NONE',  ( -1.600000000000000089, 0.000000000000000000, 178.0000000000000000 ) ) ;
#35 = AXIS2_PLACEMENT_3D ( 'NONE', #272, #271, #2 ) ;
#36 = ORIENTED_EDGE ( 'NONE', *, *, #263, .T. ) ;
#37 = AXIS2_PLACEMENT_3D ( 'NONE', #317, #52, #110 ) ;
#38 = PERSON_AND_ORGANIZATION_ROLE ( 'creator' ) ;
#39 = FACE_BOUND ( 'NONE', #151, .T. ) ;
#40 = COORDINATED_UNIVERSAL_TIME_OFFSET ( 1, 0, .AHEAD. ) ;
#41 = DIRECTION ( 'NONE',  ( 1.000000000000000000, 0.000000000000000000, 0.000000000000000000 ) ) ;
#42 = APPLICATION_PROTOCOL_DEFINITION ( 'international standard', 'config_control_design', 1994, #274 ) ;
#43 = AXIS2_PLACEMENT_3D ( 'NONE', #191, #100, #41 ) ;
#44 = DIRECTION ( 'NONE',  ( 0.000000000000000000, 0.000000000000000000, 1.000000000000000000 ) ) ;
#45 = APPROVAL_PERSON_ORGANIZATION ( #89, #14, #237 ) ;
#46 = CARTESIAN_POINT ( 'NONE',  ( 0.000000000000000000, 0.000000000000000000, 0.000000000000000000 ) ) ;
#47 = CARTESIAN_POINT ( 'NONE',  ( 0.000000000000000000, 0.000000000000000000, 178.0000000000000000 ) ) ;
#48 = EDGE_CURVE ( 'NONE', #214, #269, #189, .T. ) ;
#49 = AXIS2_PLACEMENT_3D ( 'NONE', #179, #146, #65 ) ;
#50 = CARTESIAN_POINT ( 'NONE',  ( 0.000000000000000000, 0.000000000000000000, 178.0000000000000000 ) ) ;
#51 = CC_DESIGN_APPROVAL ( #147, ( #31 ) ) ;
#52 = DIRECTION ( 'NONE',  ( 0.000000000000000000, 0.000000000000000000, 1.000000000000000000 ) ) ;
#53 = CARTESIAN_POINT ( 'NONE',  ( 0.000000000000000000, 0.000000000000000000, 0.000000000000000000 ) ) ;
#54 = CARTESIAN_POINT ( 'NONE',  ( 0.000000000000000000, 0.000000000000000000, 3.000000000000000000 ) ) ;
#55 = CLOSED_SHELL ( 'NONE', ( #282, #374, #369, #148, #227, #280, #3, #178, #81, #331, #106 ) ) ;
#56 = EDGE_CURVE ( 'NONE', #333, #214, #30, .T. ) ;
#57 = CARTESIAN_POINT ( 'NONE',  ( 1.600000000000000089, 1.959434878635765230E-16, 0.000000000000000000 ) ) ;
#58 = ORIENTED_EDGE ( 'NONE', *, *, #192, .F. ) ;
#59 = FACE_OUTER_BOUND ( 'NONE', #26, .T. ) ;
#60 = EDGE_CURVE ( 'NONE', #93, #29, #245, .T. ) ;
#61 = CALENDAR_DATE ( 2022, 10, 7 ) ;
#62 = CIRCLE ( 'NONE', #281, 1.600000000000000089 ) ;
#63 = AXIS2_PLACEMENT_3D ( 'NONE', #312, #156, #187 ) ;
#64 = DIRECTION ( 'NONE',  ( 1.000000000000000000, 0.000000000000000000, 0.000000000000000000 ) ) ;
#65 = DIRECTION ( 'NONE',  ( 1.000000000000000000, 0.000000000000000000, -0.000000000000000000 ) ) ;
#66 = VERTEX_POINT ( 'NONE', #90 ) ;
#67 = CIRCLE ( 'NONE', #235, 0.2999999999999999334 ) ;
#68 = APPROVAL_STATUS ( 'not_yet_approved' ) ;
#69 = EDGE_LOOP ( 'NONE', ( #320, #138, #262, #6 ) ) ;
#70 = MECHANICAL_CONTEXT ( 'NONE', #274, 'mechanical' ) ;
#71 = CYLINDRICAL_SURFACE ( 'NONE', #210, 5.000000000000000000 ) ;
#72 = APPROVAL_STATUS ( 'not_yet_approved' ) ;
#73 = CARTESIAN_POINT ( 'NONE',  ( -1.600000000000000089, 0.000000000000000000, 178.0000000000000000 ) ) ;
#74 = CALENDAR_DATE ( 2022, 10, 7 ) ;
#75 = CARTESIAN_POINT ( 'NONE',  ( 1.600000000000000089, 1.959434878635765230E-16, 178.0000000000000000 ) ) ;
#76 = FACE_OUTER_BOUND ( 'NONE', #118, .T. ) ;
#77 = CARTESIAN_POINT ( 'NONE',  ( 0.000000000000000000, 0.000000000000000000, 3.000000000000000000 ) ) ;
#78 = FACE_OUTER_BOUND ( 'NONE', #322, .T. ) ;
#79 = CARTESIAN_POINT ( 'NONE',  ( 0.000000000000000000, 0.000000000000000000, 3.000000000000000000 ) ) ;
#80 = EDGE_LOOP ( 'NONE', ( #297, #351 ) ) ;
#81 = ADVANCED_FACE ( 'NONE', ( #211, #177 ), #33, .T. ) ;
#82 = ORIENTED_EDGE ( 'NONE', *, *, #293, .T. ) ;
#83 =( LENGTH_UNIT ( ) NAMED_UNIT ( * ) SI_UNIT ( .MILLI., .METRE. ) );
#84 = AXIS2_PLACEMENT_3D ( 'NONE', #117, #44, #224 ) ;
#85 = DIRECTION ( 'NONE',  ( 1.000000000000000000, 0.000000000000000000, 0.000000000000000000 ) ) ;
#86 = ORIENTED_EDGE ( 'NONE', *, *, #219, .T. ) ;
#87 = EDGE_CURVE ( 'NONE', #232, #66, #302, .T. ) ;
#88 = PERSON_AND_ORGANIZATION_ROLE ( 'classification_officer' ) ;
#89 = PERSON_AND_ORGANIZATION ( #1, #241 ) ;
#90 = CARTESIAN_POINT ( 'NONE',  ( -1.600000000000000089, 0.000000000000000000, 0.000000000000000000 ) ) ;
#91 = ORIENTED_EDGE ( 'NONE', *, *, #165, .T. ) ;
#92 = EDGE_CURVE ( 'NONE', #112, #295, #163, .T. ) ;
#93 = VERTEX_POINT ( 'NONE', #194 ) ;
#94 = ORIENTED_EDGE ( 'NONE', *, *, #319, .F. ) ;
#95 = PERSON_AND_ORGANIZATION_ROLE ( 'design_owner' ) ;
#96 = ORIENTED_EDGE ( 'NONE', *, *, #107, .T. ) ;
#97 = AXIS2_PLACEMENT_3D ( 'NONE', #298, #199, #290 ) ;
#98 = EDGE_CURVE ( 'NONE', #115, #8, #266, .T. ) ;
#99 = FACE_OUTER_BOUND ( 'NONE', #167, .T. ) ;
#100 = DIRECTION ( 'NONE',  ( -0.000000000000000000, -0.000000000000000000, -1.000000000000000000 ) ) ;
#101 = DIRECTION ( 'NONE',  ( -1.000000000000000000, 0.000000000000000000, 0.000000000000000000 ) ) ;
#102 = CARTESIAN_POINT ( 'NONE',  ( -2.799999999999999822, 3.429011037612589276E-16, 2.999999999999998668 ) ) ;
#103 = DIRECTION ( 'NONE',  ( -0.000000000000000000, -0.000000000000000000, -1.000000000000000000 ) ) ;
#104 = AXIS2_PLACEMENT_3D ( 'NONE', #341, #16, #126 ) ;
#105 = DIRECTION ( 'NONE',  ( 1.000000000000000000, 0.000000000000000000, 0.000000000000000000 ) ) ;
#106 = ADVANCED_FACE ( 'NONE', ( #371 ), #311, .F. ) ;
#107 = EDGE_CURVE ( 'NONE', #66, #292, #155, .T. ) ;
#108 = CARTESIAN_POINT ( 'NONE',  ( -2.500000000000000000, 0.000000000000000000, 3.299999999999997158 ) ) ;
#109 = ORIENTED_EDGE ( 'NONE', *, *, #92, .F. ) ;
#110 = DIRECTION ( 'NONE',  ( 1.000000000000000000, 0.000000000000000000, 0.000000000000000000 ) ) ;
#111 = CARTESIAN_POINT ( 'NONE',  ( -2.799999999999999822, 3.429011037612588783E-16, 3.299999999999997158 ) ) ;
#112 = VERTEX_POINT ( 'NONE', #157 ) ;
#113 = DIRECTION ( 'NONE',  ( -0.000000000000000000, -0.000000000000000000, -1.000000000000000000 ) ) ;
#114 = ORIENTED_EDGE ( 'NONE', *, *, #263, .F. ) ;
#115 = VERTEX_POINT ( 'NONE', #186 ) ;
#116 = AXIS2_PLACEMENT_3D ( 'NONE', #380, #264, #236 ) ;
#117 = CARTESIAN_POINT ( 'NONE',  ( 0.000000000000000000, 0.000000000000000000, 3.000000000000000000 ) ) ;
#118 = EDGE_LOOP ( 'NONE', ( #142, #336, #198, #205 ) ) ;
#119 = SHAPE_DEFINITION_REPRESENTATION ( #285, #154 ) ;
#120 = ORIENTED_EDGE ( 'NONE', *, *, #48, .T. ) ;
#121 = CC_DESIGN_PERSON_AND_ORGANIZATION_ASSIGNMENT ( #366, #88, ( #360 ) ) ;
#122 = AXIS2_PLACEMENT_3D ( 'NONE', #309, #226, #101 ) ;
#123 = PERSON_AND_ORGANIZATION_ROLE ( 'creator' ) ;
#124 = CARTESIAN_POINT ( 'NONE',  ( -2.500000000000000000, 0.000000000000000000, 178.0000000000000000 ) ) ;
#125 = CARTESIAN_POINT ( 'NONE',  ( 0.000000000000000000, 0.000000000000000000, 178.0000000000000000 ) ) ;
#126 = DIRECTION ( 'NONE',  ( 1.000000000000000000, 0.000000000000000000, 0.000000000000000000 ) ) ;
#127 = CARTESIAN_POINT ( 'NONE',  ( -5.000000000000000000, 0.000000000000000000, 3.000000000000000000 ) ) ;
#128 = AXIS2_PLACEMENT_3D ( 'NONE', #166, #169, #22 ) ;
#129 = DIRECTION ( 'NONE',  ( -0.000000000000000000, -0.000000000000000000, -1.000000000000000000 ) ) ;
#130 = DIRECTION ( 'NONE',  ( 0.000000000000000000, 0.000000000000000000, 1.000000000000000000 ) ) ;
#131 = APPROVAL ( #246, 'NEURÈENÝ' ) ;
#132 = ORIENTED_EDGE ( 'NONE', *, *, #220, .T. ) ;
#133 = AXIS2_PLACEMENT_3D ( 'NONE', #239, #358, #64 ) ;
#134 = DIRECTION ( 'NONE',  ( -1.000000000000000000, 0.000000000000000000, 0.000000000000000000 ) ) ;
#135 = ORIENTED_EDGE ( 'NONE', *, *, #308, .T. ) ;
#136 = CIRCLE ( 'NONE', #184, 5.000000000000000000 ) ;
#137 = CYLINDRICAL_SURFACE ( 'NONE', #97, 1.600000000000000089 ) ;
#138 = ORIENTED_EDGE ( 'NONE', *, *, #268, .T. ) ;
#139 = DIRECTION ( 'NONE',  ( -0.000000000000000000, -0.000000000000000000, -1.000000000000000000 ) ) ;
#140 = EDGE_LOOP ( 'NONE', ( #242, #109, #359, #349 ) ) ;
#141 = FACE_OUTER_BOUND ( 'NONE', #304, .T. ) ;
#142 = ORIENTED_EDGE ( 'NONE', *, *, #255, .F. ) ;
#143 = CIRCLE ( 'NONE', #294, 2.799999999999999822 ) ;
#144 = SECURITY_CLASSIFICATION_LEVEL ( 'unclassified' ) ;
#145 = DIRECTION ( 'NONE',  ( 0.000000000000000000, 0.000000000000000000, -1.000000000000000000 ) ) ;
#146 = DIRECTION ( 'NONE',  ( 0.000000000000000000, 0.000000000000000000, 1.000000000000000000 ) ) ;
#147 = APPROVAL ( #72, 'NEURÈENÝ' ) ;
#148 = ADVANCED_FACE ( 'NONE', ( #99 ), #71, .T. ) ;
#149 = ORIENTED_EDGE ( 'NONE', *, *, #255, .T. ) ;
#150 = COORDINATED_UNIVERSAL_TIME_OFFSET ( 1, 0, .AHEAD. ) ;
#151 = EDGE_LOOP ( 'NONE', ( #202, #94 ) ) ;
#152 = CALENDAR_DATE ( 2022, 10, 7 ) ;
#153 = CARTESIAN_POINT ( 'NONE',  ( 0.000000000000000000, 0.000000000000000000, 3.000000000000000000 ) ) ;
#154 = ADVANCED_BREP_SHAPE_REPRESENTATION ( 'c9aa', ( #201, #63 ), #225 ) ;
#155 = CIRCLE ( 'NONE', #43, 1.600000000000000089 ) ;
#156 = DIRECTION ( 'NONE',  ( 0.000000000000000000, 0.000000000000000000, 1.000000000000000000 ) ) ;
#157 = CARTESIAN_POINT ( 'NONE',  ( -5.000000000000000000, 0.000000000000000000, 3.000000000000000000 ) ) ;
#158 = PRODUCT_DEFINITION_FORMATION_WITH_SPECIFIED_SOURCE ( 'LIBOVOLNÝ', '', #207, .NOT_KNOWN. ) ;
#159 = DATE_AND_TIME ( #250, #342 ) ;
#160 = DIRECTION ( 'NONE',  ( -1.000000000000000000, 0.000000000000000000, 0.000000000000000000 ) ) ;
#161 = EDGE_CURVE ( 'NONE', #29, #333, #217, .T. ) ;
#162 = CYLINDRICAL_SURFACE ( 'NONE', #10, 2.500000000000000000 ) ;
#163 = CIRCLE ( 'NONE', #84, 5.000000000000000000 ) ;
#164 = CYLINDRICAL_SURFACE ( 'NONE', #335, 5.000000000000000000 ) ;
#165 = EDGE_CURVE ( 'NONE', #232, #324, #346, .T. ) ;
#166 = CARTESIAN_POINT ( 'NONE',  ( 0.000000000000000000, 0.000000000000000000, 3.299999999999997158 ) ) ;
#167 = EDGE_LOOP ( 'NONE', ( #23, #300, #86, #58 ) ) ;
#168 = VECTOR ( 'NONE', #188, 1000.000000000000000 ) ;
#169 = DIRECTION ( 'NONE',  ( 0.000000000000000000, 0.000000000000000000, 1.000000000000000000 ) ) ;
#170 = ORIENTED_EDGE ( 'NONE', *, *, #87, .T. ) ;
#171 = CC_DESIGN_SECURITY_CLASSIFICATION ( #360, ( #158 ) ) ;
#172 = DIRECTION ( 'NONE',  ( 1.000000000000000000, 0.000000000000000000, -0.000000000000000000 ) ) ;
#173 = DATE_AND_TIME ( #61, #193 ) ;
#174 = AXIS2_PLACEMENT_3D ( 'NONE', #47, #368, #343 ) ;
#175 = ORIENTED_EDGE ( 'NONE', *, *, #161, .F. ) ;
#176 = PRODUCT_RELATED_PRODUCT_CATEGORY ( 'detail', '', ( #207 ) ) ;
#177 = FACE_OUTER_BOUND ( 'NONE', #200, .T. ) ;
#178 = ADVANCED_FACE ( 'NONE', ( #76 ), #162, .T. ) ;
#179 = CARTESIAN_POINT ( 'NONE',  ( 0.000000000000000000, 0.000000000000000000, 178.0000000000000000 ) ) ;
#180 = ORIENTED_EDGE ( 'NONE', *, *, #293, .F. ) ;
#181 = CIRCLE ( 'NONE', #376, 2.500000000000000000 ) ;
#182 = CC_DESIGN_DATE_AND_TIME_ASSIGNMENT ( #206, #7, ( #360 ) ) ;
#183 = PERSON_AND_ORGANIZATION ( #1, #241 ) ;
#184 = AXIS2_PLACEMENT_3D ( 'NONE', #54, #27, #259 ) ;
#185 = EDGE_LOOP ( 'NONE', ( #362, #243 ) ) ;
#186 = CARTESIAN_POINT ( 'NONE',  ( -5.000000000000000000, 0.000000000000000000, 0.000000000000000000 ) ) ;
#187 = DIRECTION ( 'NONE',  ( 1.000000000000000000, 0.000000000000000000, 0.000000000000000000 ) ) ;
#188 = DIRECTION ( 'NONE',  ( -0.000000000000000000, -0.000000000000000000, -1.000000000000000000 ) ) ;
#189 = CIRCLE ( 'NONE', #288, 0.2999999999999999334 ) ;
#190 = APPROVAL_ROLE ( '' ) ;
#191 = CARTESIAN_POINT ( 'NONE',  ( 0.000000000000000000, 0.000000000000000000, 0.000000000000000000 ) ) ;
#192 = EDGE_CURVE ( 'NONE', #112, #115, #19, .T. ) ;
#193 = LOCAL_TIME ( 11, 16, 2.000000000000000000, #209 ) ;
#194 = CARTESIAN_POINT ( 'NONE',  ( 2.500000000000000000, 3.061616997868383141E-16, 178.0000000000000000 ) ) ;
#195 = FACE_OUTER_BOUND ( 'NONE', #69, .T. ) ;
#196 = TOROIDAL_SURFACE ( 'NONE', #128, 2.799999999999999822, 0.2999999999999999889 ) ;
#197 = DIRECTION ( 'NONE',  ( 1.000000000000000000, 0.000000000000000000, 0.000000000000000000 ) ) ;
#198 = ORIENTED_EDGE ( 'NONE', *, *, #161, .T. ) ;
#199 = DIRECTION ( 'NONE',  ( 0.000000000000000000, 0.000000000000000000, -1.000000000000000000 ) ) ;
#200 = EDGE_LOOP ( 'NONE', ( #260, #329 ) ) ;
#201 = MANIFOLD_SOLID_BREP ( 'Odebrat vysunutím3', #55 ) ;
#202 = ORIENTED_EDGE ( 'NONE', *, *, #107, .F. ) ;
#203 = AXIS2_PLACEMENT_3D ( 'NONE', #296, #130, #172 ) ;
#204 = DIRECTION ( 'NONE',  ( 0.000000000000000000, 0.000000000000000000, -1.000000000000000000 ) ) ;
#205 = ORIENTED_EDGE ( 'NONE', *, *, #56, .T. ) ;
#206 = DATE_AND_TIME ( #74, #223 ) ;
#207 = PRODUCT ( 'c9aa', 'c9aa', '', ( #70 ) ) ;
#208 = CC_DESIGN_DATE_AND_TIME_ASSIGNMENT ( #159, #286, ( #31 ) ) ;
#209 = COORDINATED_UNIVERSAL_TIME_OFFSET ( 1, 0, .AHEAD. ) ;
#210 = AXIS2_PLACEMENT_3D ( 'NONE', #77, #313, #344 ) ;
#211 = FACE_BOUND ( 'NONE', #80, .T. ) ;
#212 = EDGE_LOOP ( 'NONE', ( #114, #132, #170, #96 ) ) ;
#213 = VERTEX_POINT ( 'NONE', #102 ) ;
#214 = VERTEX_POINT ( 'NONE', #339 ) ;
#215 = CARTESIAN_POINT ( 'NONE',  ( 2.799999999999999822, 0.000000000000000000, 3.299999999999997158 ) ) ;
#216 = PERSON_AND_ORGANIZATION ( #1, #241 ) ;
#217 = LINE ( 'NONE', #124, #315 ) ;
#218 = APPROVAL_DATE_TIME ( #283, #147 ) ;
#219 = EDGE_CURVE ( 'NONE', #8, #115, #352, .T. ) ;
#220 = EDGE_CURVE ( 'NONE', #324, #232, #62, .T. ) ;
#221 = LINE ( 'NONE', #75, #17 ) ;
#222 = VECTOR ( 'NONE', #289, 1000.000000000000000 ) ;
#223 = LOCAL_TIME ( 11, 16, 2.000000000000000000, #150 ) ;
#224 = DIRECTION ( 'NONE',  ( 1.000000000000000000, 0.000000000000000000, 0.000000000000000000 ) ) ;
#225 =( GEOMETRIC_REPRESENTATION_CONTEXT ( 3 ) GLOBAL_UNCERTAINTY_ASSIGNED_CONTEXT ( ( #367 ) ) GLOBAL_UNIT_ASSIGNED_CONTEXT ( ( #83, #231, #323 ) ) REPRESENTATION_CONTEXT ( 'NONE', 'WORKASPACE' ) );
#226 = DIRECTION ( 'NONE',  ( 0.000000000000000000, 0.000000000000000000, -1.000000000000000000 ) ) ;
#227 = ADVANCED_FACE ( 'NONE', ( #314 ), #164, .T. ) ;
#228 = CARTESIAN_POINT ( 'NONE',  ( 5.000000000000000000, 6.123233995736766282E-16, 3.000000000000000000 ) ) ;
#229 = AXIS2_PLACEMENT_3D ( 'NONE', #46, #257, #372 ) ;
#230 = AXIS2_PLACEMENT_3D ( 'NONE', #381, #113, #134 ) ;
#231 =( NAMED_UNIT ( * ) PLANE_ANGLE_UNIT ( ) SI_UNIT ( $, .RADIAN. ) );
#232 = VERTEX_POINT ( 'NONE', #73 ) ;
#233 = FACE_OUTER_BOUND ( 'NONE', #355, .T. ) ;
#234 = ORIENTED_EDGE ( 'NONE', *, *, #92, .T. ) ;
#235 = AXIS2_PLACEMENT_3D ( 'NONE', #111, #325, #375 ) ;
#236 = DIRECTION ( 'NONE',  ( 1.000000000000000000, 0.000000000000000000, 0.000000000000000000 ) ) ;
#237 = APPROVAL_ROLE ( '' ) ;
#238 = EDGE_CURVE ( 'NONE', #295, #8, #258, .T. ) ;
#239 = CARTESIAN_POINT ( 'NONE',  ( 0.000000000000000000, 0.000000000000000000, 178.0000000000000000 ) ) ;
#240 = CARTESIAN_POINT ( 'NONE',  ( 0.000000000000000000, 0.000000000000000000, 0.000000000000000000 ) ) ;
#241 = ORGANIZATION ( 'NEURÈENÝ', 'NEURÈENÝ', '' ) ;
#242 = ORIENTED_EDGE ( 'NONE', *, *, #238, .F. ) ;
#243 = ORIENTED_EDGE ( 'NONE', *, *, #219, .F. ) ;
#244 = DIRECTION ( 'NONE',  ( 0.000000000000000000, 0.000000000000000000, 1.000000000000000000 ) ) ;
#245 = CIRCLE ( 'NONE', #133, 2.500000000000000000 ) ;
#246 = APPROVAL_STATUS ( 'not_yet_approved' ) ;
#247 = CC_DESIGN_APPROVAL ( #14, ( #158 ) ) ;
#248 = CARTESIAN_POINT ( 'NONE',  ( 2.500000000000000000, 3.061616997868383141E-16, 178.0000000000000000 ) ) ;
#249 = CC_DESIGN_PERSON_AND_ORGANIZATION_ASSIGNMENT ( #183, #9, ( #158 ) ) ;
#250 = CALENDAR_DATE ( 2022, 10, 7 ) ;
#251 = EDGE_CURVE ( 'NONE', #29, #93, #181, .T. ) ;
#252 = LINE ( 'NONE', #248, #168 ) ;
#253 = DIRECTION ( 'NONE',  ( -0.000000000000000000, -0.000000000000000000, -1.000000000000000000 ) ) ;
#254 = VECTOR ( 'NONE', #4, 1000.000000000000000 ) ;
#255 = EDGE_CURVE ( 'NONE', #93, #214, #252, .T. ) ;
#256 = LOCAL_TIME ( 11, 16, 2.000000000000000000, #270 ) ;
#257 = DIRECTION ( 'NONE',  ( 0.000000000000000000, 0.000000000000000000, 1.000000000000000000 ) ) ;
#258 = LINE ( 'NONE', #228, #328 ) ;
#259 = DIRECTION ( 'NONE',  ( 1.000000000000000000, 0.000000000000000000, 0.000000000000000000 ) ) ;
#260 = ORIENTED_EDGE ( 'NONE', *, *, #251, .T. ) ;
#261 = APPROVAL_PERSON_ORGANIZATION ( #216, #131, #190 ) ;
#262 = ORIENTED_EDGE ( 'NONE', *, *, #303, .F. ) ;
#263 = EDGE_CURVE ( 'NONE', #324, #292, #221, .T. ) ;
#264 = DIRECTION ( 'NONE',  ( 0.000000000000000000, 0.000000000000000000, 1.000000000000000000 ) ) ;
#265 = ORIENTED_EDGE ( 'NONE', *, *, #60, .F. ) ;
#266 = CIRCLE ( 'NONE', #104, 5.000000000000000000 ) ;
#267 = CYLINDRICAL_SURFACE ( 'NONE', #230, 2.500000000000000000 ) ;
#268 = EDGE_CURVE ( 'NONE', #333, #213, #67, .T. ) ;
#269 = VERTEX_POINT ( 'NONE', #350 ) ;
#270 = COORDINATED_UNIVERSAL_TIME_OFFSET ( 1, 0, .AHEAD. ) ;
#271 = DIRECTION ( 'NONE',  ( 0.000000000000000000, 0.000000000000000000, 1.000000000000000000 ) ) ;
#272 = CARTESIAN_POINT ( 'NONE',  ( 0.000000000000000000, 0.000000000000000000, 3.299999999999997158 ) ) ;
#273 = DIRECTION ( 'NONE',  ( 1.000000000000000000, 0.000000000000000000, -0.000000000000000000 ) ) ;
#274 = APPLICATION_CONTEXT ( 'configuration controlled 3d designs of mechanical parts and assemblies' ) ;
#275 = EDGE_LOOP ( 'NONE', ( #378, #135 ) ) ;
#276 = PERSON_AND_ORGANIZATION ( #1, #241 ) ;
#277 = PLANE ( 'NONE',  #370 ) ;
#278 = DATE_AND_TIME ( #12, #256 ) ;
#279 = DIRECTION ( 'NONE',  ( 0.000000000000000000, 0.000000000000000000, 1.000000000000000000 ) ) ;
#280 = ADVANCED_FACE ( 'NONE', ( #25, #233 ), #321, .T. ) ;
#281 = AXIS2_PLACEMENT_3D ( 'NONE', #50, #13, #284 ) ;
#282 = ADVANCED_FACE ( 'NONE', ( #59 ), #137, .F. ) ;
#283 = DATE_AND_TIME ( #152, #330 ) ;
#284 = DIRECTION ( 'NONE',  ( 1.000000000000000000, 0.000000000000000000, 0.000000000000000000 ) ) ;
#285 = PRODUCT_DEFINITION_SHAPE ( 'NONE', 'NONE',  #31 ) ;
#286 = DATE_TIME_ROLE ( 'creation_date' ) ;
#287 = CARTESIAN_POINT ( 'NONE',  ( 0.000000000000000000, 0.000000000000000000, 178.0000000000000000 ) ) ;
#288 = AXIS2_PLACEMENT_3D ( 'NONE', #215, #32, #145 ) ;
#289 = DIRECTION ( 'NONE',  ( -0.000000000000000000, -0.000000000000000000, -1.000000000000000000 ) ) ;
#290 = DIRECTION ( 'NONE',  ( -1.000000000000000000, 0.000000000000000000, 0.000000000000000000 ) ) ;
#291 = EDGE_CURVE ( 'NONE', #295, #112, #136, .T. ) ;
#292 = VERTEX_POINT ( 'NONE', #57 ) ;
#293 = EDGE_CURVE ( 'NONE', #214, #333, #316, .T. ) ;
#294 = AXIS2_PLACEMENT_3D ( 'NONE', #79, #139, #197 ) ;
#295 = VERTEX_POINT ( 'NONE', #28 ) ;
#296 = CARTESIAN_POINT ( 'NONE',  ( 0.000000000000000000, 0.000000000000000000, 3.000000000000000000 ) ) ;
#297 = ORIENTED_EDGE ( 'NONE', *, *, #165, .F. ) ;
#298 = CARTESIAN_POINT ( 'NONE',  ( 0.000000000000000000, 0.000000000000000000, 178.0000000000000000 ) ) ;
#299 = ORIENTED_EDGE ( 'NONE', *, *, #319, .T. ) ;
#300 = ORIENTED_EDGE ( 'NONE', *, *, #238, .T. ) ;
#301 = FACE_OUTER_BOUND ( 'NONE', #185, .T. ) ;
#302 = LINE ( 'NONE', #34, #254 ) ;
#303 = EDGE_CURVE ( 'NONE', #269, #213, #143, .T. ) ;
#304 = EDGE_LOOP ( 'NONE', ( #265, #149, #82, #175 ) ) ;
#305 = APPROVAL_DATE_TIME ( #173, #131 ) ;
#306 = ORIENTED_EDGE ( 'NONE', *, *, #268, .F. ) ;
#307 = PERSON_AND_ORGANIZATION ( #1, #241 ) ;
#308 = EDGE_CURVE ( 'NONE', #213, #269, #5, .T. ) ;
#309 = CARTESIAN_POINT ( 'NONE',  ( 0.000000000000000000, 0.000000000000000000, 178.0000000000000000 ) ) ;
#310 = APPLICATION_PROTOCOL_DEFINITION ( 'international standard', 'config_control_design', 1994, #334 ) ;
#311 = CYLINDRICAL_SURFACE ( 'NONE', #122, 1.600000000000000089 ) ;
#312 = CARTESIAN_POINT ( 'NONE',  ( 0.000000000000000000, 0.000000000000000000, 0.000000000000000000 ) ) ;
#313 = DIRECTION ( 'NONE',  ( -0.000000000000000000, -0.000000000000000000, -1.000000000000000000 ) ) ;
#314 = FACE_OUTER_BOUND ( 'NONE', #140, .T. ) ;
#315 = VECTOR ( 'NONE', #103, 1000.000000000000000 ) ;
#316 = CIRCLE ( 'NONE', #116, 2.500000000000000000 ) ;
#317 = CARTESIAN_POINT ( 'NONE',  ( 0.000000000000000000, 0.000000000000000000, 3.299999999999997158 ) ) ;
#318 = DIRECTION ( 'NONE',  ( -0.000000000000000000, -0.000000000000000000, -1.000000000000000000 ) ) ;
#319 = EDGE_CURVE ( 'NONE', #292, #66, #348, .T. ) ;
#320 = ORIENTED_EDGE ( 'NONE', *, *, #56, .F. ) ;
#321 = PLANE ( 'NONE',  #203 ) ;
#322 = EDGE_LOOP ( 'NONE', ( #306, #180, #120, #326 ) ) ;
#323 =( NAMED_UNIT ( * ) SI_UNIT ( $, .STERADIAN. ) SOLID_ANGLE_UNIT ( ) );
#324 = VERTEX_POINT ( 'NONE', #379 ) ;
#325 = DIRECTION ( 'NONE',  ( 1.224646799147353207E-16, 1.000000000000000000, -0.000000000000000000 ) ) ;
#326 = ORIENTED_EDGE ( 'NONE', *, *, #308, .F. ) ;
#327 = PERSON_AND_ORGANIZATION ( #1, #241 ) ;
#328 = VECTOR ( 'NONE', #373, 1000.000000000000000 ) ;
#329 = ORIENTED_EDGE ( 'NONE', *, *, #60, .T. ) ;
#330 = LOCAL_TIME ( 11, 16, 2.000000000000000000, #356 ) ;
#331 = ADVANCED_FACE ( 'NONE', ( #78 ), #196, .F. ) ;
#332 = CARTESIAN_POINT ( 'NONE',  ( -2.500000000000000000, 0.000000000000000000, 178.0000000000000000 ) ) ;
#333 = VERTEX_POINT ( 'NONE', #108 ) ;
#334 = APPLICATION_CONTEXT ( 'configuration controlled 3d designs of mechanical parts and assemblies' ) ;
#335 = AXIS2_PLACEMENT_3D ( 'NONE', #153, #129, #160 ) ;
#336 = ORIENTED_EDGE ( 'NONE', *, *, #251, .F. ) ;
#337 = CC_DESIGN_PERSON_AND_ORGANIZATION_ASSIGNMENT ( #340, #123, ( #158 ) ) ;
#338 = ORIENTED_EDGE ( 'NONE', *, *, #87, .F. ) ;
#339 = CARTESIAN_POINT ( 'NONE',  ( 2.500000000000000000, 3.061616997868383141E-16, 3.299999999999997158 ) ) ;
#340 = PERSON_AND_ORGANIZATION ( #1, #241 ) ;
#341 = CARTESIAN_POINT ( 'NONE',  ( 0.000000000000000000, 0.000000000000000000, 0.000000000000000000 ) ) ;
#342 = LOCAL_TIME ( 11, 16, 2.000000000000000000, #40 ) ;
#343 = DIRECTION ( 'NONE',  ( 1.000000000000000000, 0.000000000000000000, 0.000000000000000000 ) ) ;
#344 = DIRECTION ( 'NONE',  ( -1.000000000000000000, 0.000000000000000000, 0.000000000000000000 ) ) ;
#345 = DIRECTION ( 'NONE',  ( -0.000000000000000000, -0.000000000000000000, -1.000000000000000000 ) ) ;
#346 = CIRCLE ( 'NONE', #174, 1.600000000000000089 ) ;
#347 = CC_DESIGN_PERSON_AND_ORGANIZATION_ASSIGNMENT ( #327, #38, ( #31 ) ) ;
#348 = CIRCLE ( 'NONE', #20, 1.600000000000000089 ) ;
#349 = ORIENTED_EDGE ( 'NONE', *, *, #98, .T. ) ;
#350 = CARTESIAN_POINT ( 'NONE',  ( 2.799999999999999822, 0.000000000000000000, 2.999999999999998668 ) ) ;
#351 = ORIENTED_EDGE ( 'NONE', *, *, #220, .F. ) ;
#352 = CIRCLE ( 'NONE', #229, 5.000000000000000000 ) ;
#353 = CARTESIAN_POINT ( 'NONE',  ( 0.000000000000000000, 0.000000000000000000, 3.000000000000000000 ) ) ;
#354 = TOROIDAL_SURFACE ( 'NONE', #37, 2.799999999999999822, 0.2999999999999999889 ) ;
#355 = EDGE_LOOP ( 'NONE', ( #234, #361 ) ) ;
#356 = COORDINATED_UNIVERSAL_TIME_OFFSET ( 1, 0, .AHEAD. ) ;
#357 = APPROVAL_ROLE ( '' ) ;
#358 = DIRECTION ( 'NONE',  ( 0.000000000000000000, 0.000000000000000000, 1.000000000000000000 ) ) ;
#359 = ORIENTED_EDGE ( 'NONE', *, *, #192, .T. ) ;
#360 = SECURITY_CLASSIFICATION ( '', '', #144 ) ;
#361 = ORIENTED_EDGE ( 'NONE', *, *, #291, .T. ) ;
#362 = ORIENTED_EDGE ( 'NONE', *, *, #98, .F. ) ;
#363 = CC_DESIGN_PERSON_AND_ORGANIZATION_ASSIGNMENT ( #276, #95, ( #207 ) ) ;
#364 = CARTESIAN_POINT ( 'NONE',  ( 5.000000000000000000, 6.123233995736766282E-16, 0.000000000000000000 ) ) ;
#365 = AXIS2_PLACEMENT_3D ( 'NONE', #353, #318, #85 ) ;
#366 = PERSON_AND_ORGANIZATION ( #1, #241 ) ;
#367 = UNCERTAINTY_MEASURE_WITH_UNIT (LENGTH_MEASURE( 1.000000000000000082E-05 ), #83, 'distance_accuracy_value', 'NONE');
#368 = DIRECTION ( 'NONE',  ( 0.000000000000000000, 0.000000000000000000, 1.000000000000000000 ) ) ;
#369 = ADVANCED_FACE ( 'NONE', ( #141 ), #267, .T. ) ;
#370 = AXIS2_PLACEMENT_3D ( 'NONE', #240, #244, #273 ) ;
#371 = FACE_OUTER_BOUND ( 'NONE', #212, .T. ) ;
#372 = DIRECTION ( 'NONE',  ( 1.000000000000000000, 0.000000000000000000, 0.000000000000000000 ) ) ;
#373 = DIRECTION ( 'NONE',  ( -0.000000000000000000, -0.000000000000000000, -1.000000000000000000 ) ) ;
#374 = ADVANCED_FACE ( 'NONE', ( #195 ), #354, .F. ) ;
#375 = DIRECTION ( 'NONE',  ( -1.000000000000000000, 1.224646799147353207E-16, 0.000000000000000000 ) ) ;
#376 = AXIS2_PLACEMENT_3D ( 'NONE', #125, #279, #11 ) ;
#377 = APPROVAL_PERSON_ORGANIZATION ( #307, #147, #357 ) ;
#378 = ORIENTED_EDGE ( 'NONE', *, *, #303, .T. ) ;
#379 = CARTESIAN_POINT ( 'NONE',  ( 1.600000000000000089, 1.959434878635765230E-16, 178.0000000000000000 ) ) ;
#380 = CARTESIAN_POINT ( 'NONE',  ( 0.000000000000000000, 0.000000000000000000, 3.299999999999997158 ) ) ;
#381 = CARTESIAN_POINT ( 'NONE',  ( 0.000000000000000000, 0.000000000000000000, 178.0000000000000000 ) ) ;
ENDSEC;
END-ISO-10303-21;
