ISO-10303-21;
HEADER;
FILE_DESCRIPTION (( 'STEP AP203' ),
    '1' );
FILE_NAME ('f95f.STEP',
    '2022-07-10T09:06:14',
    ( '' ),
    ( '' ),
    'SwSTEP 2.0',
    'SolidWorks 2019',
    '' );
FILE_SCHEMA (( 'CONFIG_CONTROL_DESIGN' ));
ENDSEC;

DATA;
#1 = EDGE_CURVE ( 'NONE', #221, #334, #246, .T. ) ;
#2 = APPROVAL_STATUS ( 'not_yet_approved' ) ;
#3 = AXIS2_PLACEMENT_3D ( 'NONE', #311, #305, #223 ) ;
#4 = APPROVAL_DATE_TIME ( #269, #47 ) ;
#5 = CIRCLE ( 'NONE', #222, 0.5000000000000004441 ) ;
#6 = EDGE_CURVE ( 'NONE', #8, #276, #82, .T. ) ;
#7 = DATE_TIME_ROLE ( 'creation_date' ) ;
#8 = VERTEX_POINT ( 'NONE', #360 ) ;
#9 = MECHANICAL_CONTEXT ( 'NONE', #286, 'mechanical' ) ;
#10 = VERTEX_POINT ( 'NONE', #209 ) ;
#11 = APPROVAL_PERSON_ORGANIZATION ( #308, #358, #303 ) ;
#12 = CALENDAR_DATE ( 2022, 10, 7 ) ;
#13 = EDGE_CURVE ( 'NONE', #332, #107, #128, .T. ) ;
#14 = CARTESIAN_POINT ( 'NONE',  ( 0.000000000000000000, 0.000000000000000000, 180.0000000000000000 ) ) ;
#15 = ORIENTED_EDGE ( 'NONE', *, *, #347, .T. ) ;
#16 = ORIENTED_EDGE ( 'NONE', *, *, #137, .T. ) ;
#17 = CARTESIAN_POINT ( 'NONE',  ( 3.000000000000000444, 3.673940397442059868E-16, 180.0000000000000000 ) ) ;
#18 = EDGE_LOOP ( 'NONE', ( #298, #325 ) ) ;
#19 = AXIS2_PLACEMENT_3D ( 'NONE', #32, #69, #181 ) ;
#20 = FACE_OUTER_BOUND ( 'NONE', #21, .T. ) ;
#21 = EDGE_LOOP ( 'NONE', ( #212, #224 ) ) ;
#22 = DIRECTION ( 'NONE',  ( 0.000000000000000000, 0.000000000000000000, -1.000000000000000000 ) ) ;
#23 = DIRECTION ( 'NONE',  ( 1.000000000000000000, 0.000000000000000000, 0.000000000000000000 ) ) ;
#24 = AXIS2_PLACEMENT_3D ( 'NONE', #190, #159, #275 ) ;
#25 = VECTOR ( 'NONE', #265, 1000.000000000000000 ) ;
#26 = EDGE_CURVE ( 'NONE', #280, #167, #368, .T. ) ;
#27 = DIRECTION ( 'NONE',  ( 1.000000000000000000, 0.000000000000000000, 0.000000000000000000 ) ) ;
#28 = DIRECTION ( 'NONE',  ( 1.000000000000000000, 0.000000000000000000, -0.000000000000000000 ) ) ;
#29 = CARTESIAN_POINT ( 'NONE',  ( 0.000000000000000000, 0.000000000000000000, 0.000000000000000000 ) ) ;
#30 = CARTESIAN_POINT ( 'NONE',  ( -3.000000000000000444, 0.000000000000000000, 0.000000000000000000 ) ) ;
#31 = LOCAL_TIME ( 11, 6, 14.00000000000000000, #359 ) ;
#32 = CARTESIAN_POINT ( 'NONE',  ( 0.000000000000000000, 0.000000000000000000, 5.000000000000000000 ) ) ;
#33 =( LENGTH_UNIT ( ) NAMED_UNIT ( * ) SI_UNIT ( .MILLI., .METRE. ) );
#34 = PRODUCT_DEFINITION ( 'NEZNÁMÝ', '', #261, #365 ) ;
#35 = VECTOR ( 'NONE', #170, 1000.000000000000000 ) ;
#36 = DATE_AND_TIME ( #273, #235 ) ;
#37 = DATE_AND_TIME ( #296, #176 ) ;
#38 = CYLINDRICAL_SURFACE ( 'NONE', #232, 8.000000000000000000 ) ;
#39 = VERTEX_POINT ( 'NONE', #99 ) ;
#40 = VERTEX_POINT ( 'NONE', #211 ) ;
#41 = ADVANCED_FACE ( 'NONE', ( #320 ), #329, .T. ) ;
#42 = CARTESIAN_POINT ( 'NONE',  ( 0.000000000000000000, 0.000000000000000000, 180.0000000000000000 ) ) ;
#43 = ORIENTED_EDGE ( 'NONE', *, *, #6, .T. ) ;
#44 = CARTESIAN_POINT ( 'NONE',  ( 0.000000000000000000, 0.000000000000000000, 0.000000000000000000 ) ) ;
#45 = ORIENTED_EDGE ( 'NONE', *, *, #364, .F. ) ;
#46 = DIRECTION ( 'NONE',  ( -0.000000000000000000, -0.000000000000000000, -1.000000000000000000 ) ) ;
#47 = APPROVAL ( #2, 'NEURÈENÝ' ) ;
#48 = ORIENTED_EDGE ( 'NONE', *, *, #377, .T. ) ;
#49 = ADVANCED_FACE ( 'NONE', ( #188 ), #38, .T. ) ;
#50 = PLANE ( 'NONE',  #193 ) ;
#51 = AXIS2_PLACEMENT_3D ( 'NONE', #42, #105, #340 ) ;
#52 = DIRECTION ( 'NONE',  ( 1.000000000000000000, 0.000000000000000000, 0.000000000000000000 ) ) ;
#53 = CARTESIAN_POINT ( 'NONE',  ( 8.000000000000000000, 9.797174393178825657E-16, 0.000000000000000000 ) ) ;
#54 = DIRECTION ( 'NONE',  ( 0.000000000000000000, 0.000000000000000000, 1.000000000000000000 ) ) ;
#55 = CC_DESIGN_PERSON_AND_ORGANIZATION_ASSIGNMENT ( #297, #153, ( #34 ) ) ;
#56 = CIRCLE ( 'NONE', #375, 8.000000000000000000 ) ;
#57 = CARTESIAN_POINT ( 'NONE',  ( -5.500000000000000000, 6.735557395310442023E-16, 5.000000000000002665 ) ) ;
#58 = CC_DESIGN_APPROVAL ( #358, ( #247 ) ) ;
#59 = DIRECTION ( 'NONE',  ( 1.000000000000000000, 0.000000000000000000, 0.000000000000000000 ) ) ;
#60 = ORIENTED_EDGE ( 'NONE', *, *, #255, .F. ) ;
#61 = CC_DESIGN_PERSON_AND_ORGANIZATION_ASSIGNMENT ( #240, #356, ( #261 ) ) ;
#62 = AXIS2_PLACEMENT_3D ( 'NONE', #182, #22, #76 ) ;
#63 = CARTESIAN_POINT ( 'NONE',  ( 0.000000000000000000, 0.000000000000000000, 0.000000000000000000 ) ) ;
#64 = ORIENTED_EDGE ( 'NONE', *, *, #291, .T. ) ;
#65 = APPROVAL_PERSON_ORGANIZATION ( #126, #47, #121 ) ;
#66 = PERSON_AND_ORGANIZATION_ROLE ( 'classification_officer' ) ;
#67 = DIRECTION ( 'NONE',  ( -0.000000000000000000, -0.000000000000000000, -1.000000000000000000 ) ) ;
#68 = EDGE_LOOP ( 'NONE', ( #194, #330, #336, #125 ) ) ;
#69 = DIRECTION ( 'NONE',  ( -0.000000000000000000, -0.000000000000000000, -1.000000000000000000 ) ) ;
#70 = DIRECTION ( 'NONE',  ( 1.000000000000000000, 0.000000000000000000, 0.000000000000000000 ) ) ;
#71 = ADVANCED_FACE ( 'NONE', ( #158 ), #321, .F. ) ;
#72 = EDGE_LOOP ( 'NONE', ( #64, #127 ) ) ;
#73 = FACE_OUTER_BOUND ( 'NONE', #218, .T. ) ;
#74 = AXIS2_PLACEMENT_3D ( 'NONE', #163, #282, #108 ) ;
#75 = VERTEX_POINT ( 'NONE', #373 ) ;
#76 = DIRECTION ( 'NONE',  ( -1.000000000000000000, 0.000000000000000000, 0.000000000000000000 ) ) ;
#77 = ORIENTED_EDGE ( 'NONE', *, *, #317, .F. ) ;
#78 = EDGE_CURVE ( 'NONE', #40, #276, #335, .T. ) ;
#79 = FACE_OUTER_BOUND ( 'NONE', #248, .T. ) ;
#80 = EDGE_LOOP ( 'NONE', ( #362, #271 ) ) ;
#81 = DATE_AND_TIME ( #12, #380 ) ;
#82 = CIRCLE ( 'NONE', #264, 5.000000000000000000 ) ;
#83 = CIRCLE ( 'NONE', #361, 5.000000000000000000 ) ;
#84 = APPROVAL_STATUS ( 'not_yet_approved' ) ;
#85 = FACE_OUTER_BOUND ( 'NONE', #341, .T. ) ;
#86 = ADVANCED_FACE ( 'NONE', ( #73 ), #103, .T. ) ;
#87 = CARTESIAN_POINT ( 'NONE',  ( 0.000000000000000000, 0.000000000000000000, 5.000000000000000000 ) ) ;
#88 = CIRCLE ( 'NONE', #294, 5.500000000000000000 ) ;
#89 = CARTESIAN_POINT ( 'NONE',  ( 0.000000000000000000, 0.000000000000000000, 180.0000000000000000 ) ) ;
#90 = ADVANCED_FACE ( 'NONE', ( #256 ), #301, .F. ) ;
#91 = FACE_OUTER_BOUND ( 'NONE', #80, .T. ) ;
#92 = CARTESIAN_POINT ( 'NONE',  ( -8.000000000000000000, 0.000000000000000000, 0.000000000000000000 ) ) ;
#93 = CIRCLE ( 'NONE', #51, 3.000000000000000444 ) ;
#94 = AXIS2_PLACEMENT_3D ( 'NONE', #319, #263, #378 ) ;
#95 = DIRECTION ( 'NONE',  ( -1.000000000000000000, 0.000000000000000000, 0.000000000000000000 ) ) ;
#96 = CC_DESIGN_PERSON_AND_ORGANIZATION_ASSIGNMENT ( #102, #98, ( #168 ) ) ;
#97 = DIRECTION ( 'NONE',  ( -1.000000000000000000, 0.000000000000000000, 0.000000000000000000 ) ) ;
#98 = PERSON_AND_ORGANIZATION_ROLE ( 'design_owner' ) ;
#99 = CARTESIAN_POINT ( 'NONE',  ( -3.000000000000000444, 0.000000000000000000, 180.0000000000000000 ) ) ;
#100 = PERSON_AND_ORGANIZATION_ROLE ( 'creator' ) ;
#101 = DIRECTION ( 'NONE',  ( -0.000000000000000000, -0.000000000000000000, -1.000000000000000000 ) ) ;
#102 = PERSON_AND_ORGANIZATION ( #234, #199 ) ;
#103 = CYLINDRICAL_SURFACE ( 'NONE', #3, 8.000000000000000000 ) ;
#104 = EDGE_LOOP ( 'NONE', ( #254, #77 ) ) ;
#105 = DIRECTION ( 'NONE',  ( 0.000000000000000000, 0.000000000000000000, 1.000000000000000000 ) ) ;
#106 = CIRCLE ( 'NONE', #204, 0.5000000000000004441 ) ;
#107 = VERTEX_POINT ( 'NONE', #136 ) ;
#108 = DIRECTION ( 'NONE',  ( -1.000000000000000000, 0.000000000000000000, 0.000000000000000000 ) ) ;
#109 = ORIENTED_EDGE ( 'NONE', *, *, #291, .F. ) ;
#110 = DIRECTION ( 'NONE',  ( 1.224646799147353207E-16, 1.000000000000000000, -0.000000000000000000 ) ) ;
#111 = PRODUCT_DEFINITION_SHAPE ( 'NONE', 'NONE',  #34 ) ;
#112 = DIRECTION ( 'NONE',  ( 1.000000000000000000, 0.000000000000000000, -0.000000000000000000 ) ) ;
#113 = CARTESIAN_POINT ( 'NONE',  ( 0.000000000000000000, 0.000000000000000000, 5.000000000000000000 ) ) ;
#114 = ADVANCED_FACE ( 'NONE', ( #162, #20 ), #251, .F. ) ;
#115 = DIRECTION ( 'NONE',  ( 0.000000000000000000, 0.000000000000000000, 1.000000000000000000 ) ) ;
#116 = DIRECTION ( 'NONE',  ( 0.000000000000000000, 0.000000000000000000, 1.000000000000000000 ) ) ;
#117 = EDGE_CURVE ( 'NONE', #39, #138, #93, .T. ) ;
#118 = AXIS2_PLACEMENT_3D ( 'NONE', #173, #54, #175 ) ;
#119 = PLANE ( 'NONE',  #315 ) ;
#120 = LINE ( 'NONE', #239, #236 ) ;
#121 = APPROVAL_ROLE ( '' ) ;
#122 = EDGE_CURVE ( 'NONE', #167, #334, #370, .T. ) ;
#123 = CC_DESIGN_APPROVAL ( #312, ( #34 ) ) ;
#124 = DIRECTION ( 'NONE',  ( 1.000000000000000000, 0.000000000000000000, 0.000000000000000000 ) ) ;
#125 = ORIENTED_EDGE ( 'NONE', *, *, #122, .F. ) ;
#126 = PERSON_AND_ORGANIZATION ( #234, #199 ) ;
#127 = ORIENTED_EDGE ( 'NONE', *, *, #328, .T. ) ;
#128 = CIRCLE ( 'NONE', #144, 3.000000000000000444 ) ;
#129 = ADVANCED_FACE ( 'NONE', ( #85 ), #169, .T. ) ;
#130 = DATE_AND_TIME ( #322, #31 ) ;
#131 = ORIENTED_EDGE ( 'NONE', *, *, #78, .F. ) ;
#132 = CIRCLE ( 'NONE', #310, 5.000000000000000000 ) ;
#133 = EDGE_LOOP ( 'NONE', ( #142, #306, #363, #250 ) ) ;
#134 = ORIENTED_EDGE ( 'NONE', *, *, #259, .F. ) ;
#135 = APPROVAL_DATE_TIME ( #81, #358 ) ;
#136 = CARTESIAN_POINT ( 'NONE',  ( 3.000000000000000444, 3.673940397442059868E-16, 0.000000000000000000 ) ) ;
#137 = EDGE_CURVE ( 'NONE', #334, #221, #56, .T. ) ;
#138 = VERTEX_POINT ( 'NONE', #17 ) ;
#139 = CARTESIAN_POINT ( 'NONE',  ( -5.500000000000000000, 6.735557395310442023E-16, 5.500000000000005329 ) ) ;
#140 = ORIENTED_EDGE ( 'NONE', *, *, #13, .T. ) ;
#141 = DIRECTION ( 'NONE',  ( 1.000000000000000000, 0.000000000000000000, 0.000000000000000000 ) ) ;
#142 = ORIENTED_EDGE ( 'NONE', *, *, #117, .T. ) ;
#143 = DIRECTION ( 'NONE',  ( -0.000000000000000000, -0.000000000000000000, -1.000000000000000000 ) ) ;
#144 = AXIS2_PLACEMENT_3D ( 'NONE', #180, #101, #70 ) ;
#145 = CARTESIAN_POINT ( 'NONE',  ( -8.000000000000000000, 0.000000000000000000, 5.000000000000000000 ) ) ;
#146 = TOROIDAL_SURFACE ( 'NONE', #324, 5.500000000000000000, 0.5000000000000000000 ) ;
#147 = CC_DESIGN_SECURITY_CLASSIFICATION ( #247, ( #261 ) ) ;
#148 = CARTESIAN_POINT ( 'NONE',  ( 0.000000000000000000, 0.000000000000000000, 5.000000000000000000 ) ) ;
#149 = EDGE_CURVE ( 'NONE', #276, #191, #106, .T. ) ;
#150 = DIRECTION ( 'NONE',  ( 1.000000000000000000, 0.000000000000000000, 0.000000000000000000 ) ) ;
#151 = CIRCLE ( 'NONE', #118, 5.000000000000000000 ) ;
#152 = CARTESIAN_POINT ( 'NONE',  ( 0.000000000000000000, 0.000000000000000000, 5.500000000000005329 ) ) ;
#153 = PERSON_AND_ORGANIZATION_ROLE ( 'creator' ) ;
#154 = CARTESIAN_POINT ( 'NONE',  ( 0.000000000000000000, 0.000000000000000000, 5.000000000000000000 ) ) ;
#155 = ORIENTED_EDGE ( 'NONE', *, *, #122, .T. ) ;
#156 = APPLICATION_PROTOCOL_DEFINITION ( 'international standard', 'config_control_design', 1994, #286 ) ;
#157 = DATE_TIME_ROLE ( 'classification_date' ) ;
#158 = FACE_OUTER_BOUND ( 'NONE', #219, .T. ) ;
#159 = DIRECTION ( 'NONE',  ( 0.000000000000000000, 0.000000000000000000, 1.000000000000000000 ) ) ;
#160 = ORIENTED_EDGE ( 'NONE', *, *, #6, .F. ) ;
#161 = EDGE_CURVE ( 'NONE', #138, #39, #299, .T. ) ;
#162 = FACE_BOUND ( 'NONE', #104, .T. ) ;
#163 = CARTESIAN_POINT ( 'NONE',  ( 0.000000000000000000, 0.000000000000000000, 180.0000000000000000 ) ) ;
#164 = ORIENTED_EDGE ( 'NONE', *, *, #149, .F. ) ;
#165 = SHAPE_DEFINITION_REPRESENTATION ( #111, #213 ) ;
#166 = DIRECTION ( 'NONE',  ( -1.000000000000000000, 1.224646799147351482E-16, 0.000000000000000000 ) ) ;
#167 = VERTEX_POINT ( 'NONE', #253 ) ;
#168 = PRODUCT ( 'f95f', 'f95f', '', ( #9 ) ) ;
#169 = CYLINDRICAL_SURFACE ( 'NONE', #227, 5.000000000000000000 ) ;
#170 = DIRECTION ( 'NONE',  ( -0.000000000000000000, -0.000000000000000000, -1.000000000000000000 ) ) ;
#171 = VECTOR ( 'NONE', #376, 1000.000000000000000 ) ;
#172 = CC_DESIGN_DATE_AND_TIME_ASSIGNMENT ( #37, #157, ( #247 ) ) ;
#173 = CARTESIAN_POINT ( 'NONE',  ( 0.000000000000000000, 0.000000000000000000, 5.500000000000005329 ) ) ;
#174 = LINE ( 'NONE', #233, #171 ) ;
#175 = DIRECTION ( 'NONE',  ( 1.000000000000000000, 0.000000000000000000, 0.000000000000000000 ) ) ;
#176 = LOCAL_TIME ( 11, 6, 14.00000000000000000, #187 ) ;
#177 = CARTESIAN_POINT ( 'NONE',  ( 0.000000000000000000, 0.000000000000000000, 180.0000000000000000 ) ) ;
#178 = ADVANCED_FACE ( 'NONE', ( #79 ), #146, .F. ) ;
#179 = COORDINATED_UNIVERSAL_TIME_OFFSET ( 1, 0, .AHEAD. ) ;
#180 = CARTESIAN_POINT ( 'NONE',  ( 0.000000000000000000, 0.000000000000000000, 0.000000000000000000 ) ) ;
#181 = DIRECTION ( 'NONE',  ( 1.000000000000000000, 0.000000000000000000, 0.000000000000000000 ) ) ;
#182 = CARTESIAN_POINT ( 'NONE',  ( 0.000000000000000000, 0.000000000000000000, 180.0000000000000000 ) ) ;
#183 = VECTOR ( 'NONE', #46, 1000.000000000000000 ) ;
#184 = COORDINATED_UNIVERSAL_TIME_OFFSET ( 1, 0, .AHEAD. ) ;
#185 =( GEOMETRIC_REPRESENTATION_CONTEXT ( 3 ) GLOBAL_UNCERTAINTY_ASSIGNED_CONTEXT ( ( #333 ) ) GLOBAL_UNIT_ASSIGNED_CONTEXT ( ( #33, #242, #217 ) ) REPRESENTATION_CONTEXT ( 'NONE', 'WORKASPACE' ) );
#186 = ADVANCED_FACE ( 'NONE', ( #346, #91 ), #50, .T. ) ;
#187 = COORDINATED_UNIVERSAL_TIME_OFFSET ( 1, 0, .AHEAD. ) ;
#188 = FACE_OUTER_BOUND ( 'NONE', #68, .T. ) ;
#189 = APPROVAL_DATE_TIME ( #130, #312 ) ;
#190 = CARTESIAN_POINT ( 'NONE',  ( 0.000000000000000000, 0.000000000000000000, 5.000000000000000000 ) ) ;
#191 = VERTEX_POINT ( 'NONE', #57 ) ;
#192 = EDGE_CURVE ( 'NONE', #10, #8, #348, .T. ) ;
#193 = AXIS2_PLACEMENT_3D ( 'NONE', #148, #116, #28 ) ;
#194 = ORIENTED_EDGE ( 'NONE', *, *, #26, .F. ) ;
#195 = CARTESIAN_POINT ( 'NONE',  ( -5.000000000000000000, 0.000000000000000000, 180.0000000000000000 ) ) ;
#196 = ORIENTED_EDGE ( 'NONE', *, *, #230, .F. ) ;
#197 = ORIENTED_EDGE ( 'NONE', *, *, #347, .F. ) ;
#198 = CLOSED_SHELL ( 'NONE', ( #90, #178, #129, #49, #86, #186, #114, #41, #238, #337, #71 ) ) ;
#199 = ORGANIZATION ( 'NEURÈENÝ', 'NEURÈENÝ', '' ) ;
#200 = MANIFOLD_SOLID_BREP ( 'Odebrat vysunutím3', #198 ) ;
#201 = CARTESIAN_POINT ( 'NONE',  ( 0.000000000000000000, 0.000000000000000000, 180.0000000000000000 ) ) ;
#202 = FACE_BOUND ( 'NONE', #18, .T. ) ;
#203 = CC_DESIGN_PERSON_AND_ORGANIZATION_ASSIGNMENT ( #244, #100, ( #261 ) ) ;
#204 = AXIS2_PLACEMENT_3D ( 'NONE', #139, #110, #166 ) ;
#205 = CARTESIAN_POINT ( 'NONE',  ( 5.000000000000000000, 6.123233995736766282E-16, 180.0000000000000000 ) ) ;
#206 = DIRECTION ( 'NONE',  ( 1.000000000000000000, 0.000000000000000000, -0.000000000000000000 ) ) ;
#207 = CARTESIAN_POINT ( 'NONE',  ( 5.500000000000000000, 0.000000000000000000, 5.500000000000005329 ) ) ;
#208 = DIRECTION ( 'NONE',  ( 0.000000000000000000, 0.000000000000000000, 1.000000000000000000 ) ) ;
#209 = CARTESIAN_POINT ( 'NONE',  ( 5.000000000000000000, 6.123233995736766282E-16, 180.0000000000000000 ) ) ;
#210 = APPROVAL_STATUS ( 'not_yet_approved' ) ;
#211 = CARTESIAN_POINT ( 'NONE',  ( -5.000000000000000000, 0.000000000000000000, 180.0000000000000000 ) ) ;
#212 = ORIENTED_EDGE ( 'NONE', *, *, #137, .F. ) ;
#213 = ADVANCED_BREP_SHAPE_REPRESENTATION ( 'f95f', ( #200, #300 ), #185 ) ;
#214 = SECURITY_CLASSIFICATION_LEVEL ( 'unclassified' ) ;
#215 = CARTESIAN_POINT ( 'NONE',  ( 0.000000000000000000, 0.000000000000000000, 5.500000000000005329 ) ) ;
#216 = ORIENTED_EDGE ( 'NONE', *, *, #192, .F. ) ;
#217 =( NAMED_UNIT ( * ) SI_UNIT ( $, .STERADIAN. ) SOLID_ANGLE_UNIT ( ) );
#218 = EDGE_LOOP ( 'NONE', ( #134, #196, #155, #16 ) ) ;
#219 = EDGE_LOOP ( 'NONE', ( #45, #323, #307, #140 ) ) ;
#220 = CARTESIAN_POINT ( 'NONE',  ( 0.000000000000000000, 0.000000000000000000, 180.0000000000000000 ) ) ;
#221 = VERTEX_POINT ( 'NONE', #53 ) ;
#222 = AXIS2_PLACEMENT_3D ( 'NONE', #207, #287, #313 ) ;
#223 = DIRECTION ( 'NONE',  ( -1.000000000000000000, 0.000000000000000000, 0.000000000000000000 ) ) ;
#224 = ORIENTED_EDGE ( 'NONE', *, *, #1, .F. ) ;
#225 = ORIENTED_EDGE ( 'NONE', *, *, #377, .F. ) ;
#226 = DIRECTION ( 'NONE',  ( -0.000000000000000000, -0.000000000000000000, -1.000000000000000000 ) ) ;
#227 = AXIS2_PLACEMENT_3D ( 'NONE', #220, #143, #372 ) ;
#228 = LOCAL_TIME ( 11, 6, 14.00000000000000000, #179 ) ;
#229 = DIRECTION ( 'NONE',  ( 1.000000000000000000, 0.000000000000000000, 0.000000000000000000 ) ) ;
#230 = EDGE_CURVE ( 'NONE', #167, #280, #284, .T. ) ;
#231 = DIRECTION ( 'NONE',  ( 0.000000000000000000, 0.000000000000000000, 1.000000000000000000 ) ) ;
#232 = AXIS2_PLACEMENT_3D ( 'NONE', #154, #241, #95 ) ;
#233 = CARTESIAN_POINT ( 'NONE',  ( -3.000000000000000444, 0.000000000000000000, 180.0000000000000000 ) ) ;
#234 = PERSON ( 'NEURÈENÝ', 'NEURÈENÝ', 'NEURÈENÝ', ('NEURÈENÝ'), ('NEURÈENÝ'), ('NEURÈENÝ') ) ;
#235 = LOCAL_TIME ( 11, 6, 14.00000000000000000, #184 ) ;
#236 = VECTOR ( 'NONE', #290, 1000.000000000000000 ) ;
#237 = DIRECTION ( 'NONE',  ( 1.000000000000000000, 0.000000000000000000, 0.000000000000000000 ) ) ;
#238 = ADVANCED_FACE ( 'NONE', ( #202, #267 ), #119, .T. ) ;
#239 = CARTESIAN_POINT ( 'NONE',  ( 3.000000000000000444, 3.673940397442059868E-16, 180.0000000000000000 ) ) ;
#240 = PERSON_AND_ORGANIZATION ( #234, #199 ) ;
#241 = DIRECTION ( 'NONE',  ( -0.000000000000000000, -0.000000000000000000, -1.000000000000000000 ) ) ;
#242 =( NAMED_UNIT ( * ) PLANE_ANGLE_UNIT ( ) SI_UNIT ( $, .RADIAN. ) );
#243 = DIRECTION ( 'NONE',  ( 1.000000000000000000, 0.000000000000000000, 0.000000000000000000 ) ) ;
#244 = PERSON_AND_ORGANIZATION ( #234, #199 ) ;
#245 = DIRECTION ( 'NONE',  ( 0.000000000000000000, 0.000000000000000000, 1.000000000000000000 ) ) ;
#246 = CIRCLE ( 'NONE', #374, 8.000000000000000000 ) ;
#247 = SECURITY_CLASSIFICATION ( '', '', #214 ) ;
#248 = EDGE_LOOP ( 'NONE', ( #197, #343, #225, #60 ) ) ;
#249 = EDGE_CURVE ( 'NONE', #39, #332, #174, .T. ) ;
#250 = ORIENTED_EDGE ( 'NONE', *, *, #249, .F. ) ;
#251 = PLANE ( 'NONE',  #350 ) ;
#252 = EDGE_LOOP ( 'NONE', ( #48, #366 ) ) ;
#253 = CARTESIAN_POINT ( 'NONE',  ( -8.000000000000000000, 0.000000000000000000, 5.000000000000000000 ) ) ;
#254 = ORIENTED_EDGE ( 'NONE', *, *, #13, .F. ) ;
#255 = EDGE_CURVE ( 'NONE', #8, #75, #5, .T. ) ;
#256 = FACE_OUTER_BOUND ( 'NONE', #133, .T. ) ;
#257 = EDGE_LOOP ( 'NONE', ( #164, #160, #369, #281 ) ) ;
#258 = DIRECTION ( 'NONE',  ( 0.000000000000000000, 0.000000000000000000, 1.000000000000000000 ) ) ;
#259 = EDGE_CURVE ( 'NONE', #280, #221, #351, .T. ) ;
#260 = CARTESIAN_POINT ( 'NONE',  ( -5.000000000000000000, 0.000000000000000000, 5.500000000000005329 ) ) ;
#261 = PRODUCT_DEFINITION_FORMATION_WITH_SPECIFIED_SOURCE ( 'LIBOVOLNÝ', '', #168, .NOT_KNOWN. ) ;
#262 = DIRECTION ( 'NONE',  ( -0.000000000000000000, -0.000000000000000000, -1.000000000000000000 ) ) ;
#263 = DIRECTION ( 'NONE',  ( 0.000000000000000000, 0.000000000000000000, 1.000000000000000000 ) ) ;
#264 = AXIS2_PLACEMENT_3D ( 'NONE', #215, #272, #124 ) ;
#265 = DIRECTION ( 'NONE',  ( -0.000000000000000000, -0.000000000000000000, -1.000000000000000000 ) ) ;
#266 = AXIS2_PLACEMENT_3D ( 'NONE', #201, #258, #141 ) ;
#267 = FACE_OUTER_BOUND ( 'NONE', #72, .T. ) ;
#268 = PERSON_AND_ORGANIZATION ( #234, #199 ) ;
#269 = DATE_AND_TIME ( #292, #228 ) ;
#270 = CC_DESIGN_DATE_AND_TIME_ASSIGNMENT ( #36, #7, ( #34 ) ) ;
#271 = ORIENTED_EDGE ( 'NONE', *, *, #26, .T. ) ;
#272 = DIRECTION ( 'NONE',  ( 0.000000000000000000, 0.000000000000000000, 1.000000000000000000 ) ) ;
#273 = CALENDAR_DATE ( 2022, 10, 7 ) ;
#274 = EDGE_LOOP ( 'NONE', ( #216, #109, #277, #15 ) ) ;
#275 = DIRECTION ( 'NONE',  ( 1.000000000000000000, 0.000000000000000000, 0.000000000000000000 ) ) ;
#276 = VERTEX_POINT ( 'NONE', #260 ) ;
#277 = ORIENTED_EDGE ( 'NONE', *, *, #78, .T. ) ;
#278 = COORDINATED_UNIVERSAL_TIME_OFFSET ( 1, 0, .AHEAD. ) ;
#279 = EDGE_CURVE ( 'NONE', #191, #75, #88, .T. ) ;
#280 = VERTEX_POINT ( 'NONE', #349 ) ;
#281 = ORIENTED_EDGE ( 'NONE', *, *, #279, .F. ) ;
#282 = DIRECTION ( 'NONE',  ( 0.000000000000000000, 0.000000000000000000, -1.000000000000000000 ) ) ;
#283 = DIRECTION ( 'NONE',  ( -0.000000000000000000, -0.000000000000000000, -1.000000000000000000 ) ) ;
#284 = CIRCLE ( 'NONE', #338, 8.000000000000000000 ) ;
#285 = CIRCLE ( 'NONE', #19, 5.500000000000000000 ) ;
#286 = APPLICATION_CONTEXT ( 'configuration controlled 3d designs of mechanical parts and assemblies' ) ;
#287 = DIRECTION ( 'NONE',  ( 0.000000000000000000, -1.000000000000000000, 0.000000000000000000 ) ) ;
#288 = PRODUCT_RELATED_PRODUCT_CATEGORY ( 'detail', '', ( #168 ) ) ;
#289 = DIRECTION ( 'NONE',  ( 1.000000000000000000, 0.000000000000000000, 0.000000000000000000 ) ) ;
#290 = DIRECTION ( 'NONE',  ( 0.000000000000000000, 0.000000000000000000, -1.000000000000000000 ) ) ;
#291 = EDGE_CURVE ( 'NONE', #40, #10, #83, .T. ) ;
#292 = CALENDAR_DATE ( 2022, 10, 7 ) ;
#293 = AXIS2_PLACEMENT_3D ( 'NONE', #14, #67, #97 ) ;
#294 = AXIS2_PLACEMENT_3D ( 'NONE', #113, #283, #229 ) ;
#295 = APPLICATION_PROTOCOL_DEFINITION ( 'international standard', 'config_control_design', 1994, #353 ) ;
#296 = CALENDAR_DATE ( 2022, 10, 7 ) ;
#297 = PERSON_AND_ORGANIZATION ( #234, #199 ) ;
#298 = ORIENTED_EDGE ( 'NONE', *, *, #117, .F. ) ;
#299 = CIRCLE ( 'NONE', #266, 3.000000000000000444 ) ;
#300 = AXIS2_PLACEMENT_3D ( 'NONE', #63, #208, #59 ) ;
#301 = CYLINDRICAL_SURFACE ( 'NONE', #74, 3.000000000000000444 ) ;
#302 = ORIENTED_EDGE ( 'NONE', *, *, #192, .T. ) ;
#303 = APPROVAL_ROLE ( '' ) ;
#304 = CC_DESIGN_PERSON_AND_ORGANIZATION_ASSIGNMENT ( #327, #66, ( #247 ) ) ;
#305 = DIRECTION ( 'NONE',  ( -0.000000000000000000, -0.000000000000000000, -1.000000000000000000 ) ) ;
#306 = ORIENTED_EDGE ( 'NONE', *, *, #364, .T. ) ;
#307 = ORIENTED_EDGE ( 'NONE', *, *, #249, .T. ) ;
#308 = PERSON_AND_ORGANIZATION ( #234, #199 ) ;
#309 = VECTOR ( 'NONE', #226, 1000.000000000000000 ) ;
#310 = AXIS2_PLACEMENT_3D ( 'NONE', #177, #231, #237 ) ;
#311 = CARTESIAN_POINT ( 'NONE',  ( 0.000000000000000000, 0.000000000000000000, 5.000000000000000000 ) ) ;
#312 = APPROVAL ( #210, 'NEURÈENÝ' ) ;
#313 = DIRECTION ( 'NONE',  ( 0.000000000000000000, 0.000000000000000000, -1.000000000000000000 ) ) ;
#314 = DIRECTION ( 'NONE',  ( 0.000000000000000000, 0.000000000000000000, 1.000000000000000000 ) ) ;
#315 = AXIS2_PLACEMENT_3D ( 'NONE', #379, #381, #206 ) ;
#316 = CIRCLE ( 'NONE', #326, 3.000000000000000444 ) ;
#317 = EDGE_CURVE ( 'NONE', #107, #332, #316, .T. ) ;
#318 = DIRECTION ( 'NONE',  ( 0.000000000000000000, 0.000000000000000000, 1.000000000000000000 ) ) ;
#319 = CARTESIAN_POINT ( 'NONE',  ( 0.000000000000000000, 0.000000000000000000, 5.500000000000005329 ) ) ;
#320 = FACE_OUTER_BOUND ( 'NONE', #274, .T. ) ;
#321 = CYLINDRICAL_SURFACE ( 'NONE', #62, 3.000000000000000444 ) ;
#322 = CALENDAR_DATE ( 2022, 10, 7 ) ;
#323 = ORIENTED_EDGE ( 'NONE', *, *, #161, .T. ) ;
#324 = AXIS2_PLACEMENT_3D ( 'NONE', #152, #314, #52 ) ;
#325 = ORIENTED_EDGE ( 'NONE', *, *, #161, .F. ) ;
#326 = AXIS2_PLACEMENT_3D ( 'NONE', #29, #262, #150 ) ;
#327 = PERSON_AND_ORGANIZATION ( #234, #199 ) ;
#328 = EDGE_CURVE ( 'NONE', #10, #40, #132, .T. ) ;
#329 = CYLINDRICAL_SURFACE ( 'NONE', #293, 5.000000000000000000 ) ;
#330 = ORIENTED_EDGE ( 'NONE', *, *, #259, .T. ) ;
#331 = APPROVAL_ROLE ( '' ) ;
#332 = VERTEX_POINT ( 'NONE', #30 ) ;
#333 = UNCERTAINTY_MEASURE_WITH_UNIT (LENGTH_MEASURE( 1.000000000000000082E-05 ), #33, 'distance_accuracy_value', 'NONE');
#334 = VERTEX_POINT ( 'NONE', #92 ) ;
#335 = LINE ( 'NONE', #195, #183 ) ;
#336 = ORIENTED_EDGE ( 'NONE', *, *, #1, .T. ) ;
#337 = ADVANCED_FACE ( 'NONE', ( #354 ), #352, .F. ) ;
#338 = AXIS2_PLACEMENT_3D ( 'NONE', #87, #318, #289 ) ;
#339 = CC_DESIGN_APPROVAL ( #47, ( #261 ) ) ;
#340 = DIRECTION ( 'NONE',  ( 1.000000000000000000, 0.000000000000000000, 0.000000000000000000 ) ) ;
#341 = EDGE_LOOP ( 'NONE', ( #371, #302, #43, #131 ) ) ;
#342 = DIRECTION ( 'NONE',  ( 0.000000000000000000, 0.000000000000000000, 1.000000000000000000 ) ) ;
#343 = ORIENTED_EDGE ( 'NONE', *, *, #149, .T. ) ;
#344 = DIRECTION ( 'NONE',  ( 0.000000000000000000, 0.000000000000000000, 1.000000000000000000 ) ) ;
#345 = APPROVAL_PERSON_ORGANIZATION ( #268, #312, #331 ) ;
#346 = FACE_BOUND ( 'NONE', #252, .T. ) ;
#347 = EDGE_CURVE ( 'NONE', #276, #8, #151, .T. ) ;
#348 = LINE ( 'NONE', #205, #25 ) ;
#349 = CARTESIAN_POINT ( 'NONE',  ( 8.000000000000000000, 9.797174393178825657E-16, 5.000000000000000000 ) ) ;
#350 = AXIS2_PLACEMENT_3D ( 'NONE', #367, #342, #112 ) ;
#351 = LINE ( 'NONE', #355, #35 ) ;
#352 = TOROIDAL_SURFACE ( 'NONE', #94, 5.500000000000000000, 0.5000000000000000000 ) ;
#353 = APPLICATION_CONTEXT ( 'configuration controlled 3d designs of mechanical parts and assemblies' ) ;
#354 = FACE_OUTER_BOUND ( 'NONE', #257, .T. ) ;
#355 = CARTESIAN_POINT ( 'NONE',  ( 8.000000000000000000, 9.797174393178825657E-16, 5.000000000000000000 ) ) ;
#356 = PERSON_AND_ORGANIZATION_ROLE ( 'design_supplier' ) ;
#357 = CARTESIAN_POINT ( 'NONE',  ( 0.000000000000000000, 0.000000000000000000, 0.000000000000000000 ) ) ;
#358 = APPROVAL ( #84, 'NEURÈENÝ' ) ;
#359 = COORDINATED_UNIVERSAL_TIME_OFFSET ( 1, 0, .AHEAD. ) ;
#360 = CARTESIAN_POINT ( 'NONE',  ( 5.000000000000000000, 6.123233995736766282E-16, 5.500000000000005329 ) ) ;
#361 = AXIS2_PLACEMENT_3D ( 'NONE', #89, #115, #27 ) ;
#362 = ORIENTED_EDGE ( 'NONE', *, *, #230, .T. ) ;
#363 = ORIENTED_EDGE ( 'NONE', *, *, #317, .T. ) ;
#364 = EDGE_CURVE ( 'NONE', #138, #107, #120, .T. ) ;
#365 = DESIGN_CONTEXT ( 'detailed design', #353, 'design' ) ;
#366 = ORIENTED_EDGE ( 'NONE', *, *, #279, .T. ) ;
#367 = CARTESIAN_POINT ( 'NONE',  ( 0.000000000000000000, 0.000000000000000000, 0.000000000000000000 ) ) ;
#368 = CIRCLE ( 'NONE', #24, 8.000000000000000000 ) ;
#369 = ORIENTED_EDGE ( 'NONE', *, *, #255, .T. ) ;
#370 = LINE ( 'NONE', #145, #309 ) ;
#371 = ORIENTED_EDGE ( 'NONE', *, *, #328, .F. ) ;
#372 = DIRECTION ( 'NONE',  ( -1.000000000000000000, 0.000000000000000000, 0.000000000000000000 ) ) ;
#373 = CARTESIAN_POINT ( 'NONE',  ( 5.500000000000000000, 0.000000000000000000, 5.000000000000002665 ) ) ;
#374 = AXIS2_PLACEMENT_3D ( 'NONE', #357, #245, #243 ) ;
#375 = AXIS2_PLACEMENT_3D ( 'NONE', #44, #344, #23 ) ;
#376 = DIRECTION ( 'NONE',  ( 0.000000000000000000, 0.000000000000000000, -1.000000000000000000 ) ) ;
#377 = EDGE_CURVE ( 'NONE', #75, #191, #285, .T. ) ;
#378 = DIRECTION ( 'NONE',  ( 1.000000000000000000, 0.000000000000000000, 0.000000000000000000 ) ) ;
#379 = CARTESIAN_POINT ( 'NONE',  ( 0.000000000000000000, 0.000000000000000000, 180.0000000000000000 ) ) ;
#380 = LOCAL_TIME ( 11, 6, 14.00000000000000000, #278 ) ;
#381 = DIRECTION ( 'NONE',  ( 0.000000000000000000, 0.000000000000000000, 1.000000000000000000 ) ) ;
ENDSEC;
END-ISO-10303-21;
