ISO-10303-21;
HEADER;
FILE_DESCRIPTION (( 'STEP AP203' ),
    '1' );
FILE_NAME ('183d.STEP',
    '2022-07-10T09:01:22',
    ( '' ),
    ( '' ),
    'SwSTEP 2.0',
    'SolidWorks 2019',
    '' );
FILE_SCHEMA (( 'CONFIG_CONTROL_DESIGN' ));
ENDSEC;

DATA;
#1 = DIRECTION ( 'NONE',  ( 0.000000000000000000, 0.000000000000000000, 1.000000000000000000 ) ) ;
#2 = ORIENTED_EDGE ( 'NONE', *, *, #30, .T. ) ;
#3 = COORDINATED_UNIVERSAL_TIME_OFFSET ( 1, 0, .AHEAD. ) ;
#4 = FACE_OUTER_BOUND ( 'NONE', #40, .T. ) ;
#5 = VERTEX_POINT ( 'NONE', #110 ) ;
#6 = APPROVAL_DATE_TIME ( #323, #324 ) ;
#7 = CARTESIAN_POINT ( 'NONE',  ( 0.000000000000000000, 0.000000000000000000, 132.0000000000000000 ) ) ;
#8 = ORIENTED_EDGE ( 'NONE', *, *, #74, .T. ) ;
#9 = UNCERTAINTY_MEASURE_WITH_UNIT (LENGTH_MEASURE( 1.000000000000000082E-05 ), #87, 'distance_accuracy_value', 'NONE');
#10 = ORIENTED_EDGE ( 'NONE', *, *, #137, .T. ) ;
#11 = CARTESIAN_POINT ( 'NONE',  ( -7.700000000000001066, 9.429780353434621002E-16, 6.999999999999999112 ) ) ;
#12 = PERSON_AND_ORGANIZATION ( #342, #201 ) ;
#13 = DIRECTION ( 'NONE',  ( 0.000000000000000000, 0.000000000000000000, 1.000000000000000000 ) ) ;
#14 = EDGE_CURVE ( 'NONE', #163, #331, #340, .T. ) ;
#15 = PLANE ( 'NONE',  #251 ) ;
#16 =( NAMED_UNIT ( * ) SI_UNIT ( $, .STERADIAN. ) SOLID_ANGLE_UNIT ( ) );
#17 = DIRECTION ( 'NONE',  ( 0.000000000000000000, 0.000000000000000000, 1.000000000000000000 ) ) ;
#18 = ADVANCED_FACE ( 'NONE', ( #80, #333 ), #15, .T. ) ;
#19 = CARTESIAN_POINT ( 'NONE',  ( 0.000000000000000000, 0.000000000000000000, 132.0000000000000000 ) ) ;
#20 = CARTESIAN_POINT ( 'NONE',  ( 0.000000000000000000, 0.000000000000000000, 7.000000000000000000 ) ) ;
#21 = AXIS2_PLACEMENT_3D ( 'NONE', #332, #13, #367 ) ;
#22 = AXIS2_PLACEMENT_3D ( 'NONE', #220, #338, #160 ) ;
#23 = APPLICATION_CONTEXT ( 'configuration controlled 3d designs of mechanical parts and assemblies' ) ;
#24 = DIRECTION ( 'NONE',  ( -0.000000000000000000, -0.000000000000000000, -1.000000000000000000 ) ) ;
#25 = ORIENTED_EDGE ( 'NONE', *, *, #313, .F. ) ;
#26 = CARTESIAN_POINT ( 'NONE',  ( 0.000000000000000000, 0.000000000000000000, 7.699999999999998401 ) ) ;
#27 = DATE_TIME_ROLE ( 'classification_date' ) ;
#28 = CIRCLE ( 'NONE', #55, 11.00000000000000000 ) ;
#29 =( GEOMETRIC_REPRESENTATION_CONTEXT ( 3 ) GLOBAL_UNCERTAINTY_ASSIGNED_CONTEXT ( ( #9 ) ) GLOBAL_UNIT_ASSIGNED_CONTEXT ( ( #87, #341, #16 ) ) REPRESENTATION_CONTEXT ( 'NONE', 'WORKASPACE' ) );
#30 = EDGE_CURVE ( 'NONE', #331, #163, #204, .T. ) ;
#31 = LINE ( 'NONE', #100, #225 ) ;
#32 = ORIENTED_EDGE ( 'NONE', *, *, #198, .T. ) ;
#33 = AXIS2_PLACEMENT_3D ( 'NONE', #308, #17, #78 ) ;
#34 = DATE_AND_TIME ( #232, #121 ) ;
#35 = VERTEX_POINT ( 'NONE', #226 ) ;
#36 = AXIS2_PLACEMENT_3D ( 'NONE', #26, #257, #357 ) ;
#37 = CC_DESIGN_APPROVAL ( #324, ( #348 ) ) ;
#38 = DIRECTION ( 'NONE',  ( 0.000000000000000000, 0.000000000000000000, -1.000000000000000000 ) ) ;
#39 = PRODUCT_DEFINITION ( 'NEZNÁMÝ', '', #77, #242 ) ;
#40 = EDGE_LOOP ( 'NONE', ( #64, #101, #69, #66 ) ) ;
#41 = DIRECTION ( 'NONE',  ( -1.000000000000000000, 0.000000000000000000, 0.000000000000000000 ) ) ;
#42 = VERTEX_POINT ( 'NONE', #11 ) ;
#43 = DIRECTION ( 'NONE',  ( 0.000000000000000000, 0.000000000000000000, 1.000000000000000000 ) ) ;
#44 = VECTOR ( 'NONE', #93, 1000.000000000000000 ) ;
#45 = PRODUCT_DEFINITION_SHAPE ( 'NONE', 'NONE',  #39 ) ;
#46 = ORIENTED_EDGE ( 'NONE', *, *, #269, .T. ) ;
#47 = DIRECTION ( 'NONE',  ( 0.000000000000000000, 0.000000000000000000, 1.000000000000000000 ) ) ;
#48 = CALENDAR_DATE ( 2022, 10, 7 ) ;
#49 = EDGE_CURVE ( 'NONE', #184, #35, #53, .T. ) ;
#50 = DIRECTION ( 'NONE',  ( 1.000000000000000000, 0.000000000000000000, -0.000000000000000000 ) ) ;
#51 = DIRECTION ( 'NONE',  ( 1.000000000000000000, 0.000000000000000000, 0.000000000000000000 ) ) ;
#52 = ADVANCED_FACE ( 'NONE', ( #200 ), #199, .T. ) ;
#53 = CIRCLE ( 'NONE', #365, 11.00000000000000000 ) ;
#54 = CARTESIAN_POINT ( 'NONE',  ( 0.000000000000000000, 0.000000000000000000, 0.000000000000000000 ) ) ;
#55 = AXIS2_PLACEMENT_3D ( 'NONE', #154, #1, #281 ) ;
#56 = CC_DESIGN_SECURITY_CLASSIFICATION ( #348, ( #77 ) ) ;
#57 = DIRECTION ( 'NONE',  ( -1.000000000000000000, 0.000000000000000000, 0.000000000000000000 ) ) ;
#58 = COORDINATED_UNIVERSAL_TIME_OFFSET ( 1, 0, .AHEAD. ) ;
#59 = CARTESIAN_POINT ( 'NONE',  ( 0.000000000000000000, 0.000000000000000000, 132.0000000000000000 ) ) ;
#60 = TOROIDAL_SURFACE ( 'NONE', #36, 7.700000000000001066, 0.6999999999999999556 ) ;
#61 = ORIENTED_EDGE ( 'NONE', *, *, #337, .T. ) ;
#62 = SECURITY_CLASSIFICATION_LEVEL ( 'unclassified' ) ;
#63 = CARTESIAN_POINT ( 'NONE',  ( -11.00000000000000000, 0.000000000000000000, 7.000000000000000000 ) ) ;
#64 = ORIENTED_EDGE ( 'NONE', *, *, #94, .F. ) ;
#65 = DIRECTION ( 'NONE',  ( 1.224646799147353207E-16, 1.000000000000000000, -0.000000000000000000 ) ) ;
#66 = ORIENTED_EDGE ( 'NONE', *, *, #223, .F. ) ;
#67 = LOCAL_TIME ( 11, 1, 22.00000000000000000, #58 ) ;
#68 = CARTESIAN_POINT ( 'NONE',  ( -7.000000000000000888, 0.000000000000000000, 7.699999999999998401 ) ) ;
#69 = ORIENTED_EDGE ( 'NONE', *, *, #260, .T. ) ;
#70 = CARTESIAN_POINT ( 'NONE',  ( 0.000000000000000000, 0.000000000000000000, 7.699999999999998401 ) ) ;
#71 = ORIENTED_EDGE ( 'NONE', *, *, #82, .T. ) ;
#72 = CARTESIAN_POINT ( 'NONE',  ( 0.000000000000000000, 0.000000000000000000, 7.000000000000000000 ) ) ;
#73 = CARTESIAN_POINT ( 'NONE',  ( 0.000000000000000000, 0.000000000000000000, 132.0000000000000000 ) ) ;
#74 = EDGE_CURVE ( 'NONE', #126, #267, #297, .T. ) ;
#75 = DIRECTION ( 'NONE',  ( -0.000000000000000000, -0.000000000000000000, -1.000000000000000000 ) ) ;
#76 = AXIS2_PLACEMENT_3D ( 'NONE', #271, #158, #193 ) ;
#77 = PRODUCT_DEFINITION_FORMATION_WITH_SPECIFIED_SOURCE ( 'LIBOVOLNÝ', '', #328, .NOT_KNOWN. ) ;
#78 = DIRECTION ( 'NONE',  ( 1.000000000000000000, 0.000000000000000000, 0.000000000000000000 ) ) ;
#79 = FACE_OUTER_BOUND ( 'NONE', #190, .T. ) ;
#80 = FACE_BOUND ( 'NONE', #268, .T. ) ;
#81 = DIRECTION ( 'NONE',  ( 1.000000000000000000, 0.000000000000000000, 0.000000000000000000 ) ) ;
#82 = EDGE_CURVE ( 'NONE', #206, #325, #170, .T. ) ;
#83 = CARTESIAN_POINT ( 'NONE',  ( 5.000000000000000000, 6.123233995736766282E-16, 0.000000000000000000 ) ) ;
#84 = AXIS2_PLACEMENT_3D ( 'NONE', #7, #196, #109 ) ;
#85 = VECTOR ( 'NONE', #224, 1000.000000000000000 ) ;
#86 = DIRECTION ( 'NONE',  ( 1.000000000000000000, 0.000000000000000000, 0.000000000000000000 ) ) ;
#87 =( LENGTH_UNIT ( ) NAMED_UNIT ( * ) SI_UNIT ( .MILLI., .METRE. ) );
#88 = VERTEX_POINT ( 'NONE', #171 ) ;
#89 = CARTESIAN_POINT ( 'NONE',  ( 0.000000000000000000, 0.000000000000000000, 132.0000000000000000 ) ) ;
#90 = CIRCLE ( 'NONE', #156, 7.000000000000000888 ) ;
#91 = PERSON_AND_ORGANIZATION ( #342, #201 ) ;
#92 = DATE_TIME_ROLE ( 'creation_date' ) ;
#93 = DIRECTION ( 'NONE',  ( 0.000000000000000000, 0.000000000000000000, -1.000000000000000000 ) ) ;
#94 = EDGE_CURVE ( 'NONE', #255, #42, #147, .T. ) ;
#95 = COORDINATED_UNIVERSAL_TIME_OFFSET ( 1, 0, .AHEAD. ) ;
#96 = FACE_OUTER_BOUND ( 'NONE', #211, .T. ) ;
#97 = AXIS2_PLACEMENT_3D ( 'NONE', #245, #294, #329 ) ;
#98 = AXIS2_PLACEMENT_3D ( 'NONE', #19, #142, #252 ) ;
#99 = APPROVAL_DATE_TIME ( #34, #132 ) ;
#100 = CARTESIAN_POINT ( 'NONE',  ( -7.000000000000000888, 0.000000000000000000, 132.0000000000000000 ) ) ;
#101 = ORIENTED_EDGE ( 'NONE', *, *, #198, .F. ) ;
#102 = FACE_OUTER_BOUND ( 'NONE', #103, .T. ) ;
#103 = EDGE_LOOP ( 'NONE', ( #159, #161, #358, #247 ) ) ;
#104 = AXIS2_PLACEMENT_3D ( 'NONE', #311, #270, #366 ) ;
#105 = CARTESIAN_POINT ( 'NONE',  ( 0.000000000000000000, 0.000000000000000000, 132.0000000000000000 ) ) ;
#106 = ORIENTED_EDGE ( 'NONE', *, *, #94, .T. ) ;
#107 = CIRCLE ( 'NONE', #98, 5.000000000000000000 ) ;
#108 = ORIENTED_EDGE ( 'NONE', *, *, #172, .F. ) ;
#109 = DIRECTION ( 'NONE',  ( -1.000000000000000000, 0.000000000000000000, 0.000000000000000000 ) ) ;
#110 = CARTESIAN_POINT ( 'NONE',  ( 11.00000000000000000, 1.347111479062088405E-15, 7.000000000000000000 ) ) ;
#111 = LINE ( 'NONE', #112, #317 ) ;
#112 = CARTESIAN_POINT ( 'NONE',  ( -11.00000000000000000, 0.000000000000000000, 7.000000000000000000 ) ) ;
#113 = VECTOR ( 'NONE', #38, 1000.000000000000000 ) ;
#114 = CARTESIAN_POINT ( 'NONE',  ( 0.000000000000000000, 0.000000000000000000, 132.0000000000000000 ) ) ;
#115 = EDGE_CURVE ( 'NONE', #126, #325, #233, .T. ) ;
#116 = CIRCLE ( 'NONE', #309, 7.700000000000001066 ) ;
#117 = EDGE_CURVE ( 'NONE', #5, #184, #209, .T. ) ;
#118 = ORIENTED_EDGE ( 'NONE', *, *, #172, .T. ) ;
#119 = APPROVAL_STATUS ( 'not_yet_approved' ) ;
#120 = FACE_OUTER_BOUND ( 'NONE', #131, .T. ) ;
#121 = LOCAL_TIME ( 11, 1, 22.00000000000000000, #259 ) ;
#122 = CALENDAR_DATE ( 2022, 10, 7 ) ;
#123 = CC_DESIGN_PERSON_AND_ORGANIZATION_ASSIGNMENT ( #312, #285, ( #348 ) ) ;
#124 = APPROVAL_STATUS ( 'not_yet_approved' ) ;
#125 = CARTESIAN_POINT ( 'NONE',  ( 5.000000000000000000, 6.123233995736766282E-16, 132.0000000000000000 ) ) ;
#126 = VERTEX_POINT ( 'NONE', #125 ) ;
#127 = DIRECTION ( 'NONE',  ( -0.000000000000000000, -0.000000000000000000, -1.000000000000000000 ) ) ;
#128 = ORIENTED_EDGE ( 'NONE', *, *, #74, .F. ) ;
#129 = EDGE_LOOP ( 'NONE', ( #118, #287 ) ) ;
#130 = FACE_OUTER_BOUND ( 'NONE', #319, .T. ) ;
#131 = EDGE_LOOP ( 'NONE', ( #217, #381, #10, #133 ) ) ;
#132 = APPROVAL ( #119, 'NEURÈENÝ' ) ;
#133 = ORIENTED_EDGE ( 'NONE', *, *, #299, .T. ) ;
#134 = CARTESIAN_POINT ( 'NONE',  ( 11.00000000000000000, 1.347111479062088405E-15, 0.000000000000000000 ) ) ;
#135 = VECTOR ( 'NONE', #378, 1000.000000000000000 ) ;
#136 = DIRECTION ( 'NONE',  ( 1.000000000000000000, 0.000000000000000000, 0.000000000000000000 ) ) ;
#137 = EDGE_CURVE ( 'NONE', #331, #255, #31, .T. ) ;
#138 = TOROIDAL_SURFACE ( 'NONE', #21, 7.700000000000001066, 0.6999999999999999556 ) ;
#139 = CIRCLE ( 'NONE', #310, 11.00000000000000000 ) ;
#140 = CARTESIAN_POINT ( 'NONE',  ( -7.700000000000001066, 9.429780353434621002E-16, 7.699999999999998401 ) ) ;
#141 = ADVANCED_BREP_SHAPE_REPRESENTATION ( '183d', ( #235, #187 ), #29 ) ;
#142 = DIRECTION ( 'NONE',  ( 0.000000000000000000, 0.000000000000000000, 1.000000000000000000 ) ) ;
#143 = PLANE ( 'NONE',  #195 ) ;
#144 = CC_DESIGN_PERSON_AND_ORGANIZATION_ASSIGNMENT ( #176, #180, ( #328 ) ) ;
#145 = AXIS2_PLACEMENT_3D ( 'NONE', #169, #277, #51 ) ;
#146 = VERTEX_POINT ( 'NONE', #352 ) ;
#147 = CIRCLE ( 'NONE', #205, 0.7000000000000000666 ) ;
#148 = ADVANCED_FACE ( 'NONE', ( #96 ), #152, .T. ) ;
#149 = CC_DESIGN_APPROVAL ( #132, ( #39 ) ) ;
#150 = CALENDAR_DATE ( 2022, 10, 7 ) ;
#151 = MECHANICAL_CONTEXT ( 'NONE', #23, 'mechanical' ) ;
#152 = CYLINDRICAL_SURFACE ( 'NONE', #327, 11.00000000000000000 ) ;
#153 = APPROVAL_DATE_TIME ( #316, #230 ) ;
#154 = CARTESIAN_POINT ( 'NONE',  ( 0.000000000000000000, 0.000000000000000000, 7.000000000000000000 ) ) ;
#155 = VERTEX_POINT ( 'NONE', #63 ) ;
#156 = AXIS2_PLACEMENT_3D ( 'NONE', #70, #157, #81 ) ;
#157 = DIRECTION ( 'NONE',  ( 0.000000000000000000, 0.000000000000000000, 1.000000000000000000 ) ) ;
#158 = DIRECTION ( 'NONE',  ( 0.000000000000000000, -1.000000000000000000, 0.000000000000000000 ) ) ;
#159 = ORIENTED_EDGE ( 'NONE', *, *, #313, .T. ) ;
#160 = DIRECTION ( 'NONE',  ( -1.000000000000000000, 0.000000000000000000, 0.000000000000000000 ) ) ;
#161 = ORIENTED_EDGE ( 'NONE', *, *, #115, .T. ) ;
#162 = CIRCLE ( 'NONE', #145, 7.700000000000001066 ) ;
#163 = VERTEX_POINT ( 'NONE', #289 ) ;
#164 = DIRECTION ( 'NONE',  ( -0.000000000000000000, -0.000000000000000000, -1.000000000000000000 ) ) ;
#165 = ADVANCED_FACE ( 'NONE', ( #120 ), #315, .T. ) ;
#166 = APPLICATION_CONTEXT ( 'configuration controlled 3d designs of mechanical parts and assemblies' ) ;
#167 = DIRECTION ( 'NONE',  ( 0.000000000000000000, 0.000000000000000000, 1.000000000000000000 ) ) ;
#168 = AXIS2_PLACEMENT_3D ( 'NONE', #114, #339, #57 ) ;
#169 = CARTESIAN_POINT ( 'NONE',  ( 0.000000000000000000, 0.000000000000000000, 7.000000000000000000 ) ) ;
#170 = CIRCLE ( 'NONE', #314, 5.000000000000000000 ) ;
#171 = CARTESIAN_POINT ( 'NONE',  ( 7.000000000000000888, 8.572527594031474176E-16, 7.699999999999998401 ) ) ;
#172 = EDGE_CURVE ( 'NONE', #155, #5, #28, .T. ) ;
#173 = CLOSED_SHELL ( 'NONE', ( #183, #177, #52, #148, #284, #350, #380, #165, #18, #238, #207 ) ) ;
#174 = DIRECTION ( 'NONE',  ( -0.000000000000000000, -0.000000000000000000, -1.000000000000000000 ) ) ;
#175 = LOCAL_TIME ( 11, 1, 22.00000000000000000, #95 ) ;
#176 = PERSON_AND_ORGANIZATION ( #342, #201 ) ;
#177 = ADVANCED_FACE ( 'NONE', ( #236 ), #60, .F. ) ;
#178 = CALENDAR_DATE ( 2022, 10, 7 ) ;
#179 = DIRECTION ( 'NONE',  ( -1.000000000000000000, 1.224646799147351975E-16, 0.000000000000000000 ) ) ;
#180 = PERSON_AND_ORGANIZATION_ROLE ( 'design_owner' ) ;
#181 = DIRECTION ( 'NONE',  ( -1.000000000000000000, 0.000000000000000000, 0.000000000000000000 ) ) ;
#182 = ORIENTED_EDGE ( 'NONE', *, *, #260, .F. ) ;
#183 = ADVANCED_FACE ( 'NONE', ( #102 ), #243, .F. ) ;
#184 = VERTEX_POINT ( 'NONE', #134 ) ;
#185 = CARTESIAN_POINT ( 'NONE',  ( 0.000000000000000000, 0.000000000000000000, 0.000000000000000000 ) ) ;
#186 = ORIENTED_EDGE ( 'NONE', *, *, #117, .F. ) ;
#187 = AXIS2_PLACEMENT_3D ( 'NONE', #351, #346, #258 ) ;
#188 = AXIS2_PLACEMENT_3D ( 'NONE', #343, #24, #86 ) ;
#189 = CC_DESIGN_PERSON_AND_ORGANIZATION_ASSIGNMENT ( #202, #288, ( #77 ) ) ;
#190 = EDGE_LOOP ( 'NONE', ( #363, #345 ) ) ;
#191 = FACE_OUTER_BOUND ( 'NONE', #221, .T. ) ;
#192 = ORIENTED_EDGE ( 'NONE', *, *, #299, .F. ) ;
#193 = DIRECTION ( 'NONE',  ( 0.000000000000000000, 0.000000000000000000, -1.000000000000000000 ) ) ;
#194 = ORIENTED_EDGE ( 'NONE', *, *, #82, .F. ) ;
#195 = AXIS2_PLACEMENT_3D ( 'NONE', #254, #371, #272 ) ;
#196 = DIRECTION ( 'NONE',  ( 0.000000000000000000, 0.000000000000000000, -1.000000000000000000 ) ) ;
#197 = CARTESIAN_POINT ( 'NONE',  ( 7.000000000000000888, 8.572527594031474176E-16, 132.0000000000000000 ) ) ;
#198 = EDGE_CURVE ( 'NONE', #88, #255, #375, .T. ) ;
#199 = CYLINDRICAL_SURFACE ( 'NONE', #168, 7.000000000000000888 ) ;
#200 = FACE_OUTER_BOUND ( 'NONE', #262, .T. ) ;
#201 = ORGANIZATION ( 'NEURÈENÝ', 'NEURÈENÝ', '' ) ;
#202 = PERSON_AND_ORGANIZATION ( #342, #201 ) ;
#203 = DIRECTION ( 'NONE',  ( -0.000000000000000000, -0.000000000000000000, -1.000000000000000000 ) ) ;
#204 = CIRCLE ( 'NONE', #256, 7.000000000000000888 ) ;
#205 = AXIS2_PLACEMENT_3D ( 'NONE', #140, #65, #179 ) ;
#206 = VERTEX_POINT ( 'NONE', #362 ) ;
#207 = ADVANCED_FACE ( 'NONE', ( #191 ), #212, .F. ) ;
#208 = APPLICATION_PROTOCOL_DEFINITION ( 'international standard', 'config_control_design', 1994, #23 ) ;
#209 = LINE ( 'NONE', #286, #135 ) ;
#210 = ORIENTED_EDGE ( 'NONE', *, *, #337, .F. ) ;
#211 = EDGE_LOOP ( 'NONE', ( #298, #355, #214, #265 ) ) ;
#212 = CYLINDRICAL_SURFACE ( 'NONE', #84, 5.000000000000000000 ) ;
#213 = AXIS2_PLACEMENT_3D ( 'NONE', #59, #127, #181 ) ;
#214 = ORIENTED_EDGE ( 'NONE', *, *, #49, .T. ) ;
#215 = ORIENTED_EDGE ( 'NONE', *, *, #137, .F. ) ;
#216 = DIRECTION ( 'NONE',  ( 1.000000000000000000, 0.000000000000000000, 0.000000000000000000 ) ) ;
#217 = ORIENTED_EDGE ( 'NONE', *, *, #344, .F. ) ;
#218 = CC_DESIGN_DATE_AND_TIME_ASSIGNMENT ( #282, #27, ( #348 ) ) ;
#219 = LOCAL_TIME ( 11, 1, 22.00000000000000000, #3 ) ;
#220 = CARTESIAN_POINT ( 'NONE',  ( 0.000000000000000000, 0.000000000000000000, 7.000000000000000000 ) ) ;
#221 = EDGE_LOOP ( 'NONE', ( #239, #8, #46, #71 ) ) ;
#222 = DIRECTION ( 'NONE',  ( 1.000000000000000000, 0.000000000000000000, -0.000000000000000000 ) ) ;
#223 = EDGE_CURVE ( 'NONE', #42, #146, #116, .T. ) ;
#224 = DIRECTION ( 'NONE',  ( -0.000000000000000000, -0.000000000000000000, -1.000000000000000000 ) ) ;
#225 = VECTOR ( 'NONE', #229, 1000.000000000000000 ) ;
#226 = CARTESIAN_POINT ( 'NONE',  ( -11.00000000000000000, 0.000000000000000000, 0.000000000000000000 ) ) ;
#227 = APPROVAL_ROLE ( '' ) ;
#228 = APPROVAL_PERSON_ORGANIZATION ( #377, #230, #376 ) ;
#229 = DIRECTION ( 'NONE',  ( -0.000000000000000000, -0.000000000000000000, -1.000000000000000000 ) ) ;
#230 = APPROVAL ( #124, 'NEURÈENÝ' ) ;
#231 = EDGE_LOOP ( 'NONE', ( #61, #295 ) ) ;
#232 = CALENDAR_DATE ( 2022, 10, 7 ) ;
#233 = LINE ( 'NONE', #283, #44 ) ;
#234 = CIRCLE ( 'NONE', #76, 0.7000000000000000666 ) ;
#235 = MANIFOLD_SOLID_BREP ( 'Odebrat vysunutím3', #173 ) ;
#236 = FACE_OUTER_BOUND ( 'NONE', #322, .T. ) ;
#237 = ORIENTED_EDGE ( 'NONE', *, *, #330, .F. ) ;
#238 = ADVANCED_FACE ( 'NONE', ( #4 ), #138, .F. ) ;
#239 = ORIENTED_EDGE ( 'NONE', *, *, #115, .F. ) ;
#240 = CYLINDRICAL_SURFACE ( 'NONE', #22, 11.00000000000000000 ) ;
#241 = ORIENTED_EDGE ( 'NONE', *, *, #14, .T. ) ;
#242 = DESIGN_CONTEXT ( 'detailed design', #166, 'design' ) ;
#243 = CYLINDRICAL_SURFACE ( 'NONE', #253, 5.000000000000000000 ) ;
#244 = ORIENTED_EDGE ( 'NONE', *, *, #344, .T. ) ;
#245 = CARTESIAN_POINT ( 'NONE',  ( 0.000000000000000000, 0.000000000000000000, 7.699999999999998401 ) ) ;
#246 = EDGE_CURVE ( 'NONE', #155, #35, #111, .T. ) ;
#247 = ORIENTED_EDGE ( 'NONE', *, *, #269, .F. ) ;
#248 = DIRECTION ( 'NONE',  ( 0.000000000000000000, 0.000000000000000000, -1.000000000000000000 ) ) ;
#249 = DIRECTION ( 'NONE',  ( 0.000000000000000000, 0.000000000000000000, 1.000000000000000000 ) ) ;
#250 = FACE_BOUND ( 'NONE', #231, .T. ) ;
#251 = AXIS2_PLACEMENT_3D ( 'NONE', #73, #167, #50 ) ;
#252 = DIRECTION ( 'NONE',  ( 1.000000000000000000, 0.000000000000000000, 0.000000000000000000 ) ) ;
#253 = AXIS2_PLACEMENT_3D ( 'NONE', #105, #248, #41 ) ;
#254 = CARTESIAN_POINT ( 'NONE',  ( 0.000000000000000000, 0.000000000000000000, 0.000000000000000000 ) ) ;
#255 = VERTEX_POINT ( 'NONE', #68 ) ;
#256 = AXIS2_PLACEMENT_3D ( 'NONE', #89, #47, #136 ) ;
#257 = DIRECTION ( 'NONE',  ( 0.000000000000000000, 0.000000000000000000, 1.000000000000000000 ) ) ;
#258 = DIRECTION ( 'NONE',  ( 1.000000000000000000, 0.000000000000000000, 0.000000000000000000 ) ) ;
#259 = COORDINATED_UNIVERSAL_TIME_OFFSET ( 1, 0, .AHEAD. ) ;
#260 = EDGE_CURVE ( 'NONE', #88, #146, #234, .T. ) ;
#261 = DATE_AND_TIME ( #150, #175 ) ;
#262 = EDGE_LOOP ( 'NONE', ( #353, #244, #32, #215 ) ) ;
#263 = PERSON_AND_ORGANIZATION ( #342, #201 ) ;
#264 = CC_DESIGN_DATE_AND_TIME_ASSIGNMENT ( #261, #92, ( #39 ) ) ;
#265 = ORIENTED_EDGE ( 'NONE', *, *, #246, .F. ) ;
#266 = CARTESIAN_POINT ( 'NONE',  ( -5.000000000000000000, 0.000000000000000000, 132.0000000000000000 ) ) ;
#267 = VERTEX_POINT ( 'NONE', #296 ) ;
#268 = EDGE_LOOP ( 'NONE', ( #25, #128 ) ) ;
#269 = EDGE_CURVE ( 'NONE', #267, #206, #300, .T. ) ;
#270 = DIRECTION ( 'NONE',  ( 0.000000000000000000, 0.000000000000000000, 1.000000000000000000 ) ) ;
#271 = CARTESIAN_POINT ( 'NONE',  ( 7.700000000000001066, 0.000000000000000000, 7.699999999999998401 ) ) ;
#272 = DIRECTION ( 'NONE',  ( 1.000000000000000000, 0.000000000000000000, -0.000000000000000000 ) ) ;
#273 = ORIENTED_EDGE ( 'NONE', *, *, #246, .T. ) ;
#274 = CC_DESIGN_PERSON_AND_ORGANIZATION_ASSIGNMENT ( #263, #349, ( #39 ) ) ;
#275 = LINE ( 'NONE', #197, #85 ) ;
#276 = DIRECTION ( 'NONE',  ( 0.000000000000000000, 0.000000000000000000, 1.000000000000000000 ) ) ;
#277 = DIRECTION ( 'NONE',  ( -0.000000000000000000, -0.000000000000000000, -1.000000000000000000 ) ) ;
#278 = AXIS2_PLACEMENT_3D ( 'NONE', #364, #43, #334 ) ;
#279 = EDGE_CURVE ( 'NONE', #5, #155, #354, .T. ) ;
#280 = APPLICATION_PROTOCOL_DEFINITION ( 'international standard', 'config_control_design', 1994, #166 ) ;
#281 = DIRECTION ( 'NONE',  ( 1.000000000000000000, 0.000000000000000000, 0.000000000000000000 ) ) ;
#282 = DATE_AND_TIME ( #178, #67 ) ;
#283 = CARTESIAN_POINT ( 'NONE',  ( 5.000000000000000000, 6.123233995736766282E-16, 132.0000000000000000 ) ) ;
#284 = ADVANCED_FACE ( 'NONE', ( #130 ), #240, .T. ) ;
#285 = PERSON_AND_ORGANIZATION_ROLE ( 'classification_officer' ) ;
#286 = CARTESIAN_POINT ( 'NONE',  ( 11.00000000000000000, 1.347111479062088405E-15, 7.000000000000000000 ) ) ;
#287 = ORIENTED_EDGE ( 'NONE', *, *, #279, .T. ) ;
#288 = PERSON_AND_ORGANIZATION_ROLE ( 'design_supplier' ) ;
#289 = CARTESIAN_POINT ( 'NONE',  ( 7.000000000000000888, 8.572527594031474176E-16, 132.0000000000000000 ) ) ;
#290 = EDGE_CURVE ( 'NONE', #35, #184, #139, .T. ) ;
#291 = DIRECTION ( 'NONE',  ( 0.000000000000000000, 0.000000000000000000, 1.000000000000000000 ) ) ;
#292 = ORIENTED_EDGE ( 'NONE', *, *, #290, .T. ) ;
#293 = SHAPE_DEFINITION_REPRESENTATION ( #45, #141 ) ;
#294 = DIRECTION ( 'NONE',  ( 0.000000000000000000, 0.000000000000000000, 1.000000000000000000 ) ) ;
#295 = ORIENTED_EDGE ( 'NONE', *, *, #223, .T. ) ;
#296 = CARTESIAN_POINT ( 'NONE',  ( -5.000000000000000000, 0.000000000000000000, 132.0000000000000000 ) ) ;
#297 = CIRCLE ( 'NONE', #33, 5.000000000000000000 ) ;
#298 = ORIENTED_EDGE ( 'NONE', *, *, #279, .F. ) ;
#299 = EDGE_CURVE ( 'NONE', #255, #88, #90, .T. ) ;
#300 = LINE ( 'NONE', #266, #113 ) ;
#301 = CC_DESIGN_APPROVAL ( #230, ( #77 ) ) ;
#302 = DIRECTION ( 'NONE',  ( 1.000000000000000000, 0.000000000000000000, 0.000000000000000000 ) ) ;
#303 = CARTESIAN_POINT ( 'NONE',  ( -7.000000000000000888, 0.000000000000000000, 132.0000000000000000 ) ) ;
#304 = APPROVAL_PERSON_ORGANIZATION ( #12, #324, #359 ) ;
#305 = FACE_OUTER_BOUND ( 'NONE', #129, .T. ) ;
#306 = PLANE ( 'NONE',  #336 ) ;
#307 = CC_DESIGN_PERSON_AND_ORGANIZATION_ASSIGNMENT ( #91, #320, ( #77 ) ) ;
#308 = CARTESIAN_POINT ( 'NONE',  ( 0.000000000000000000, 0.000000000000000000, 132.0000000000000000 ) ) ;
#309 = AXIS2_PLACEMENT_3D ( 'NONE', #72, #75, #216 ) ;
#310 = AXIS2_PLACEMENT_3D ( 'NONE', #185, #291, #360 ) ;
#311 = CARTESIAN_POINT ( 'NONE',  ( 0.000000000000000000, 0.000000000000000000, 132.0000000000000000 ) ) ;
#312 = PERSON_AND_ORGANIZATION ( #342, #201 ) ;
#313 = EDGE_CURVE ( 'NONE', #267, #126, #107, .T. ) ;
#314 = AXIS2_PLACEMENT_3D ( 'NONE', #54, #174, #302 ) ;
#315 = CYLINDRICAL_SURFACE ( 'NONE', #213, 7.000000000000000888 ) ;
#316 = DATE_AND_TIME ( #122, #370 ) ;
#317 = VECTOR ( 'NONE', #164, 1000.000000000000000 ) ;
#318 = APPROVAL_PERSON_ORGANIZATION ( #373, #132, #227 ) ;
#319 = EDGE_LOOP ( 'NONE', ( #186, #108, #273, #292 ) ) ;
#320 = PERSON_AND_ORGANIZATION_ROLE ( 'creator' ) ;
#321 = CARTESIAN_POINT ( 'NONE',  ( 0.000000000000000000, 0.000000000000000000, 7.000000000000000000 ) ) ;
#322 = EDGE_LOOP ( 'NONE', ( #192, #106, #210, #182 ) ) ;
#323 = DATE_AND_TIME ( #48, #219 ) ;
#324 = APPROVAL ( #326, 'NEURÈENÝ' ) ;
#325 = VERTEX_POINT ( 'NONE', #83 ) ;
#326 = APPROVAL_STATUS ( 'not_yet_approved' ) ;
#327 = AXIS2_PLACEMENT_3D ( 'NONE', #321, #203, #374 ) ;
#328 = PRODUCT ( '183d', '183d', '', ( #151 ) ) ;
#329 = DIRECTION ( 'NONE',  ( 1.000000000000000000, 0.000000000000000000, 0.000000000000000000 ) ) ;
#330 = EDGE_CURVE ( 'NONE', #325, #206, #368, .T. ) ;
#331 = VERTEX_POINT ( 'NONE', #303 ) ;
#332 = CARTESIAN_POINT ( 'NONE',  ( 0.000000000000000000, 0.000000000000000000, 7.699999999999998401 ) ) ;
#333 = FACE_OUTER_BOUND ( 'NONE', #356, .T. ) ;
#334 = DIRECTION ( 'NONE',  ( 1.000000000000000000, 0.000000000000000000, 0.000000000000000000 ) ) ;
#335 = DIRECTION ( 'NONE',  ( 1.000000000000000000, 0.000000000000000000, 0.000000000000000000 ) ) ;
#336 = AXIS2_PLACEMENT_3D ( 'NONE', #20, #276, #222 ) ;
#337 = EDGE_CURVE ( 'NONE', #146, #42, #162, .T. ) ;
#338 = DIRECTION ( 'NONE',  ( -0.000000000000000000, -0.000000000000000000, -1.000000000000000000 ) ) ;
#339 = DIRECTION ( 'NONE',  ( -0.000000000000000000, -0.000000000000000000, -1.000000000000000000 ) ) ;
#340 = CIRCLE ( 'NONE', #104, 7.000000000000000888 ) ;
#341 =( NAMED_UNIT ( * ) PLANE_ANGLE_UNIT ( ) SI_UNIT ( $, .RADIAN. ) );
#342 = PERSON ( 'NEURÈENÝ', 'NEURÈENÝ', 'NEURÈENÝ', ('NEURÈENÝ'), ('NEURÈENÝ'), ('NEURÈENÝ') ) ;
#343 = CARTESIAN_POINT ( 'NONE',  ( 0.000000000000000000, 0.000000000000000000, 0.000000000000000000 ) ) ;
#344 = EDGE_CURVE ( 'NONE', #163, #88, #275, .T. ) ;
#345 = ORIENTED_EDGE ( 'NONE', *, *, #49, .F. ) ;
#346 = DIRECTION ( 'NONE',  ( 0.000000000000000000, 0.000000000000000000, 1.000000000000000000 ) ) ;
#347 = CARTESIAN_POINT ( 'NONE',  ( 0.000000000000000000, 0.000000000000000000, 0.000000000000000000 ) ) ;
#348 = SECURITY_CLASSIFICATION ( '', '', #62 ) ;
#349 = PERSON_AND_ORGANIZATION_ROLE ( 'creator' ) ;
#350 = ADVANCED_FACE ( 'NONE', ( #250, #305 ), #306, .T. ) ;
#351 = CARTESIAN_POINT ( 'NONE',  ( 0.000000000000000000, 0.000000000000000000, 0.000000000000000000 ) ) ;
#352 = CARTESIAN_POINT ( 'NONE',  ( 7.700000000000001066, 0.000000000000000000, 6.999999999999999112 ) ) ;
#353 = ORIENTED_EDGE ( 'NONE', *, *, #14, .F. ) ;
#354 = CIRCLE ( 'NONE', #278, 11.00000000000000000 ) ;
#355 = ORIENTED_EDGE ( 'NONE', *, *, #117, .T. ) ;
#356 = EDGE_LOOP ( 'NONE', ( #2, #241 ) ) ;
#357 = DIRECTION ( 'NONE',  ( 1.000000000000000000, 0.000000000000000000, 0.000000000000000000 ) ) ;
#358 = ORIENTED_EDGE ( 'NONE', *, *, #330, .T. ) ;
#359 = APPROVAL_ROLE ( '' ) ;
#360 = DIRECTION ( 'NONE',  ( 1.000000000000000000, 0.000000000000000000, 0.000000000000000000 ) ) ;
#361 = EDGE_LOOP ( 'NONE', ( #194, #237 ) ) ;
#362 = CARTESIAN_POINT ( 'NONE',  ( -5.000000000000000000, 0.000000000000000000, 0.000000000000000000 ) ) ;
#363 = ORIENTED_EDGE ( 'NONE', *, *, #290, .F. ) ;
#364 = CARTESIAN_POINT ( 'NONE',  ( 0.000000000000000000, 0.000000000000000000, 7.000000000000000000 ) ) ;
#365 = AXIS2_PLACEMENT_3D ( 'NONE', #347, #249, #335 ) ;
#366 = DIRECTION ( 'NONE',  ( 1.000000000000000000, 0.000000000000000000, 0.000000000000000000 ) ) ;
#367 = DIRECTION ( 'NONE',  ( 1.000000000000000000, 0.000000000000000000, 0.000000000000000000 ) ) ;
#368 = CIRCLE ( 'NONE', #188, 5.000000000000000000 ) ;
#369 = FACE_BOUND ( 'NONE', #361, .T. ) ;
#370 = LOCAL_TIME ( 11, 1, 22.00000000000000000, #379 ) ;
#371 = DIRECTION ( 'NONE',  ( 0.000000000000000000, 0.000000000000000000, 1.000000000000000000 ) ) ;
#372 = PRODUCT_RELATED_PRODUCT_CATEGORY ( 'detail', '', ( #328 ) ) ;
#373 = PERSON_AND_ORGANIZATION ( #342, #201 ) ;
#374 = DIRECTION ( 'NONE',  ( -1.000000000000000000, 0.000000000000000000, 0.000000000000000000 ) ) ;
#375 = CIRCLE ( 'NONE', #97, 7.000000000000000888 ) ;
#376 = APPROVAL_ROLE ( '' ) ;
#377 = PERSON_AND_ORGANIZATION ( #342, #201 ) ;
#378 = DIRECTION ( 'NONE',  ( -0.000000000000000000, -0.000000000000000000, -1.000000000000000000 ) ) ;
#379 = COORDINATED_UNIVERSAL_TIME_OFFSET ( 1, 0, .AHEAD. ) ;
#380 = ADVANCED_FACE ( 'NONE', ( #369, #79 ), #143, .F. ) ;
#381 = ORIENTED_EDGE ( 'NONE', *, *, #30, .F. ) ;
ENDSEC;
END-ISO-10303-21;
