ISO-10303-21;
HEADER;
FILE_DESCRIPTION (( 'STEP AP203' ),
    '1' );
FILE_NAME ('cfb3.STEP',
    '2022-07-10T09:00:19',
    ( '' ),
    ( '' ),
    'SwSTEP 2.0',
    'SolidWorks 2019',
    '' );
FILE_SCHEMA (( 'CONFIG_CONTROL_DESIGN' ));
ENDSEC;

DATA;
#1 = AXIS2_PLACEMENT_3D ( 'NONE', #100, #337, #211 ) ;
#2 = DIRECTION ( 'NONE',  ( 1.000000000000000000, 0.000000000000000000, 0.000000000000000000 ) ) ;
#3 = DIRECTION ( 'NONE',  ( 1.000000000000000000, 0.000000000000000000, -0.000000000000000000 ) ) ;
#4 = COORDINATED_UNIVERSAL_TIME_OFFSET ( 1, 0, .AHEAD. ) ;
#5 = CIRCLE ( 'NONE', #181, 0.6999999999999992895 ) ;
#6 = CARTESIAN_POINT ( 'NONE',  ( 8.699999999999999289, 0.000000000000000000, 7.699999999999998401 ) ) ;
#7 = ORIENTED_EDGE ( 'NONE', *, *, #209, .F. ) ;
#8 = CIRCLE ( 'NONE', #326, 11.00000000000000000 ) ;
#9 = CIRCLE ( 'NONE', #322, 0.7000000000000000666 ) ;
#10 = FACE_OUTER_BOUND ( 'NONE', #221, .T. ) ;
#11 = ORIENTED_EDGE ( 'NONE', *, *, #54, .F. ) ;
#12 = DIRECTION ( 'NONE',  ( -0.000000000000000000, -0.000000000000000000, -1.000000000000000000 ) ) ;
#13 = DIRECTION ( 'NONE',  ( 1.000000000000000000, 0.000000000000000000, 0.000000000000000000 ) ) ;
#14 = CARTESIAN_POINT ( 'NONE',  ( 0.000000000000000000, 0.000000000000000000, 107.0000000000000142 ) ) ;
#15 =( LENGTH_UNIT ( ) NAMED_UNIT ( * ) SI_UNIT ( .MILLI., .METRE. ) );
#16 = EDGE_CURVE ( 'NONE', #124, #203, #118, .T. ) ;
#17 = DIRECTION ( 'NONE',  ( -1.000000000000000000, 0.000000000000000000, 0.000000000000000000 ) ) ;
#18 = EDGE_CURVE ( 'NONE', #187, #44, #163, .T. ) ;
#19 = ORIENTED_EDGE ( 'NONE', *, *, #65, .F. ) ;
#20 = CARTESIAN_POINT ( 'NONE',  ( 6.000000000000000888, 7.347880794884119736E-16, 107.0000000000000142 ) ) ;
#21 = CARTESIAN_POINT ( 'NONE',  ( 11.00000000000000000, 1.347111479062088405E-15, 7.000000000000000000 ) ) ;
#22 = DIRECTION ( 'NONE',  ( -0.000000000000000000, -0.000000000000000000, -1.000000000000000000 ) ) ;
#23 = ORIENTED_EDGE ( 'NONE', *, *, #332, .T. ) ;
#24 = ADVANCED_FACE ( 'NONE', ( #313, #310 ), #222, .T. ) ;
#25 = LOCAL_TIME ( 11, 0, 19.00000000000000000, #4 ) ;
#26 = CC_DESIGN_DATE_AND_TIME_ASSIGNMENT ( #318, #279, ( #133 ) ) ;
#27 = CARTESIAN_POINT ( 'NONE',  ( 6.000000000000000888, 7.347880794884119736E-16, 107.0000000000000142 ) ) ;
#28 = DIRECTION ( 'NONE',  ( 0.000000000000000000, 0.000000000000000000, -1.000000000000000000 ) ) ;
#29 = PERSON_AND_ORGANIZATION ( #296, #299 ) ;
#30 = CC_DESIGN_PERSON_AND_ORGANIZATION_ASSIGNMENT ( #82, #168, ( #333 ) ) ;
#31 = CIRCLE ( 'NONE', #254, 8.699999999999999289 ) ;
#32 = SHAPE_DEFINITION_REPRESENTATION ( #220, #245 ) ;
#33 = CARTESIAN_POINT ( 'NONE',  ( 0.000000000000000000, 0.000000000000000000, 7.000000000000000000 ) ) ;
#34 = PERSON_AND_ORGANIZATION ( #296, #299 ) ;
#35 = DIRECTION ( 'NONE',  ( 0.000000000000000000, 0.000000000000000000, 1.000000000000000000 ) ) ;
#36 = PERSON_AND_ORGANIZATION_ROLE ( 'design_owner' ) ;
#37 = ORIENTED_EDGE ( 'NONE', *, *, #233, .T. ) ;
#38 = EDGE_LOOP ( 'NONE', ( #323, #324 ) ) ;
#39 = CYLINDRICAL_SURFACE ( 'NONE', #363, 6.000000000000000888 ) ;
#40 = CARTESIAN_POINT ( 'NONE',  ( -8.699999999999999289, 1.065442715258197248E-15, 7.699999999999998401 ) ) ;
#41 = ORIENTED_EDGE ( 'NONE', *, *, #226, .T. ) ;
#42 = AXIS2_PLACEMENT_3D ( 'NONE', #264, #12, #17 ) ;
#43 = DIRECTION ( 'NONE',  ( 1.000000000000000000, 0.000000000000000000, 0.000000000000000000 ) ) ;
#44 = VERTEX_POINT ( 'NONE', #81 ) ;
#45 = VERTEX_POINT ( 'NONE', #20 ) ;
#46 = LOCAL_TIME ( 11, 0, 19.00000000000000000, #60 ) ;
#47 = DIRECTION ( 'NONE',  ( -0.000000000000000000, -0.000000000000000000, -1.000000000000000000 ) ) ;
#48 = CARTESIAN_POINT ( 'NONE',  ( -11.00000000000000000, 0.000000000000000000, 7.000000000000000000 ) ) ;
#49 = DESIGN_CONTEXT ( 'detailed design', #291, 'design' ) ;
#50 = CARTESIAN_POINT ( 'NONE',  ( 0.000000000000000000, 0.000000000000000000, 7.699999999999998401 ) ) ;
#51 = EDGE_CURVE ( 'NONE', #304, #267, #248, .T. ) ;
#52 = APPROVAL ( #229, 'NEURÈENÝ' ) ;
#53 = DIRECTION ( 'NONE',  ( -1.000000000000000000, 0.000000000000000000, 0.000000000000000000 ) ) ;
#54 = EDGE_CURVE ( 'NONE', #361, #355, #325, .T. ) ;
#55 = PERSON_AND_ORGANIZATION ( #296, #299 ) ;
#56 = LINE ( 'NONE', #27, #106 ) ;
#57 = APPROVAL_STATUS ( 'not_yet_approved' ) ;
#58 = APPROVAL_PERSON_ORGANIZATION ( #109, #172, #281 ) ;
#59 = DATE_AND_TIME ( #346, #376 ) ;
#60 = COORDINATED_UNIVERSAL_TIME_OFFSET ( 1, 0, .AHEAD. ) ;
#61 = AXIS2_PLACEMENT_3D ( 'NONE', #50, #219, #251 ) ;
#62 = FACE_OUTER_BOUND ( 'NONE', #334, .T. ) ;
#63 = AXIS2_PLACEMENT_3D ( 'NONE', #202, #180, #300 ) ;
#64 = CARTESIAN_POINT ( 'NONE',  ( 0.000000000000000000, 0.000000000000000000, 7.000000000000000000 ) ) ;
#65 = EDGE_CURVE ( 'NONE', #267, #71, #155, .T. ) ;
#66 = EDGE_CURVE ( 'NONE', #361, #203, #309, .T. ) ;
#67 = EDGE_CURVE ( 'NONE', #355, #124, #152, .T. ) ;
#68 = ORIENTED_EDGE ( 'NONE', *, *, #226, .F. ) ;
#69 = CIRCLE ( 'NONE', #129, 6.000000000000000888 ) ;
#70 = VERTEX_POINT ( 'NONE', #249 ) ;
#71 = VERTEX_POINT ( 'NONE', #335 ) ;
#72 = CARTESIAN_POINT ( 'NONE',  ( -6.000000000000000888, 0.000000000000000000, 107.0000000000000142 ) ) ;
#73 = DIRECTION ( 'NONE',  ( -0.000000000000000000, -0.000000000000000000, -1.000000000000000000 ) ) ;
#74 = ORIENTED_EDGE ( 'NONE', *, *, #233, .F. ) ;
#75 =( GEOMETRIC_REPRESENTATION_CONTEXT ( 3 ) GLOBAL_UNCERTAINTY_ASSIGNED_CONTEXT ( ( #179 ) ) GLOBAL_UNIT_ASSIGNED_CONTEXT ( ( #15, #292, #319 ) ) REPRESENTATION_CONTEXT ( 'NONE', 'WORKASPACE' ) );
#76 = FACE_OUTER_BOUND ( 'NONE', #210, .T. ) ;
#77 = ORIENTED_EDGE ( 'NONE', *, *, #362, .F. ) ;
#78 = CARTESIAN_POINT ( 'NONE',  ( -8.000000000000000000, 0.000000000000000000, 107.0000000000000142 ) ) ;
#79 = TOROIDAL_SURFACE ( 'NONE', #287, 8.699999999999999289, 0.6999999999999999556 ) ;
#80 = ADVANCED_FACE ( 'NONE', ( #76 ), #79, .F. ) ;
#81 = CARTESIAN_POINT ( 'NONE',  ( 8.699999999999999289, 0.000000000000000000, 6.999999999999999112 ) ) ;
#82 = PERSON_AND_ORGANIZATION ( #296, #299 ) ;
#83 = EDGE_LOOP ( 'NONE', ( #215, #130 ) ) ;
#84 = DIRECTION ( 'NONE',  ( 0.000000000000000000, 0.000000000000000000, 1.000000000000000000 ) ) ;
#85 = TOROIDAL_SURFACE ( 'NONE', #205, 8.699999999999999289, 0.6999999999999999556 ) ;
#86 = EDGE_CURVE ( 'NONE', #70, #321, #340, .T. ) ;
#87 = CC_DESIGN_PERSON_AND_ORGANIZATION_ASSIGNMENT ( #289, #36, ( #338 ) ) ;
#88 = COORDINATED_UNIVERSAL_TIME_OFFSET ( 1, 0, .AHEAD. ) ;
#89 = ORIENTED_EDGE ( 'NONE', *, *, #315, .F. ) ;
#90 = DIRECTION ( 'NONE',  ( -0.000000000000000000, -0.000000000000000000, -1.000000000000000000 ) ) ;
#91 = AXIS2_PLACEMENT_3D ( 'NONE', #316, #235, #351 ) ;
#92 = ORIENTED_EDGE ( 'NONE', *, *, #86, .T. ) ;
#93 = CYLINDRICAL_SURFACE ( 'NONE', #42, 8.000000000000000000 ) ;
#94 = ORIENTED_EDGE ( 'NONE', *, *, #190, .T. ) ;
#95 = DIRECTION ( 'NONE',  ( 0.000000000000000000, 0.000000000000000000, 1.000000000000000000 ) ) ;
#96 = ORIENTED_EDGE ( 'NONE', *, *, #105, .T. ) ;
#97 = FACE_OUTER_BOUND ( 'NONE', #98, .T. ) ;
#98 = EDGE_LOOP ( 'NONE', ( #207, #11, #127, #37 ) ) ;
#99 = AXIS2_PLACEMENT_3D ( 'NONE', #165, #84, #193 ) ;
#100 = CARTESIAN_POINT ( 'NONE',  ( 0.000000000000000000, 0.000000000000000000, 0.000000000000000000 ) ) ;
#101 = ORIENTED_EDGE ( 'NONE', *, *, #107, .F. ) ;
#102 = CARTESIAN_POINT ( 'NONE',  ( 0.000000000000000000, 0.000000000000000000, 107.0000000000000142 ) ) ;
#103 = CARTESIAN_POINT ( 'NONE',  ( 0.000000000000000000, 0.000000000000000000, 7.000000000000000000 ) ) ;
#104 = CARTESIAN_POINT ( 'NONE',  ( 0.000000000000000000, 0.000000000000000000, 0.000000000000000000 ) ) ;
#105 = EDGE_CURVE ( 'NONE', #355, #361, #156, .T. ) ;
#106 = VECTOR ( 'NONE', #28, 1000.000000000000000 ) ;
#107 = EDGE_CURVE ( 'NONE', #330, #304, #204, .T. ) ;
#108 = CARTESIAN_POINT ( 'NONE',  ( -8.699999999999999289, 1.065442715258197248E-15, 6.999999999999999112 ) ) ;
#109 = PERSON_AND_ORGANIZATION ( #296, #299 ) ;
#110 = ADVANCED_FACE ( 'NONE', ( #174 ), #295, .T. ) ;
#111 = PERSON_AND_ORGANIZATION_ROLE ( 'creator' ) ;
#112 = LINE ( 'NONE', #48, #186 ) ;
#113 = COORDINATED_UNIVERSAL_TIME_OFFSET ( 1, 0, .AHEAD. ) ;
#114 = EDGE_LOOP ( 'NONE', ( #244, #19 ) ) ;
#115 = APPLICATION_CONTEXT ( 'configuration controlled 3d designs of mechanical parts and assemblies' ) ;
#116 = DATE_AND_TIME ( #257, #347 ) ;
#117 = DIRECTION ( 'NONE',  ( 1.000000000000000000, 0.000000000000000000, 0.000000000000000000 ) ) ;
#118 = CIRCLE ( 'NONE', #61, 8.000000000000000000 ) ;
#119 = DIRECTION ( 'NONE',  ( -0.000000000000000000, -0.000000000000000000, -1.000000000000000000 ) ) ;
#120 = AXIS2_PLACEMENT_3D ( 'NONE', #33, #90, #136 ) ;
#121 = DIRECTION ( 'NONE',  ( -0.000000000000000000, -0.000000000000000000, -1.000000000000000000 ) ) ;
#122 = ORIENTED_EDGE ( 'NONE', *, *, #190, .F. ) ;
#123 = ORIENTED_EDGE ( 'NONE', *, *, #315, .T. ) ;
#124 = VERTEX_POINT ( 'NONE', #239 ) ;
#125 = APPROVAL ( #134, 'NEURÈENÝ' ) ;
#126 = DIRECTION ( 'NONE',  ( 0.000000000000000000, 0.000000000000000000, 1.000000000000000000 ) ) ;
#127 = ORIENTED_EDGE ( 'NONE', *, *, #66, .T. ) ;
#128 = APPROVAL_PERSON_ORGANIZATION ( #55, #52, #194 ) ;
#129 = AXIS2_PLACEMENT_3D ( 'NONE', #277, #131, #341 ) ;
#130 = ORIENTED_EDGE ( 'NONE', *, *, #18, .T. ) ;
#131 = DIRECTION ( 'NONE',  ( 0.000000000000000000, 0.000000000000000000, 1.000000000000000000 ) ) ;
#132 = DIRECTION ( 'NONE',  ( 0.000000000000000000, 0.000000000000000000, 1.000000000000000000 ) ) ;
#133 = PRODUCT_DEFINITION ( 'NEZNÁMÝ', '', #333, #49 ) ;
#134 = APPROVAL_STATUS ( 'not_yet_approved' ) ;
#135 = CIRCLE ( 'NONE', #349, 6.000000000000000888 ) ;
#136 = DIRECTION ( 'NONE',  ( -1.000000000000000000, 0.000000000000000000, 0.000000000000000000 ) ) ;
#137 = PERSON_AND_ORGANIZATION_ROLE ( 'classification_officer' ) ;
#138 = DIRECTION ( 'NONE',  ( 1.000000000000000000, 0.000000000000000000, 0.000000000000000000 ) ) ;
#139 = PLANE ( 'NONE',  #91 ) ;
#140 = CARTESIAN_POINT ( 'NONE',  ( -6.000000000000000888, 0.000000000000000000, 0.000000000000000000 ) ) ;
#141 = DATE_AND_TIME ( #350, #25 ) ;
#142 = CARTESIAN_POINT ( 'NONE',  ( -6.000000000000000888, 0.000000000000000000, 107.0000000000000142 ) ) ;
#143 = EDGE_CURVE ( 'NONE', #71, #267, #8, .T. ) ;
#144 = FACE_OUTER_BOUND ( 'NONE', #343, .T. ) ;
#145 = EDGE_LOOP ( 'NONE', ( #237, #364, #94, #357 ) ) ;
#146 = VECTOR ( 'NONE', #182, 1000.000000000000000 ) ;
#147 = ORIENTED_EDGE ( 'NONE', *, *, #107, .T. ) ;
#148 = DIRECTION ( 'NONE',  ( 0.000000000000000000, -1.000000000000000000, 0.000000000000000000 ) ) ;
#149 = DIRECTION ( 'NONE',  ( 1.000000000000000000, 0.000000000000000000, 0.000000000000000000 ) ) ;
#150 = CIRCLE ( 'NONE', #99, 6.000000000000000888 ) ;
#151 = CARTESIAN_POINT ( 'NONE',  ( 0.000000000000000000, 0.000000000000000000, 107.0000000000000142 ) ) ;
#152 = LINE ( 'NONE', #272, #154 ) ;
#153 = DIRECTION ( 'NONE',  ( 0.000000000000000000, 0.000000000000000000, 1.000000000000000000 ) ) ;
#154 = VECTOR ( 'NONE', #22, 1000.000000000000000 ) ;
#155 = CIRCLE ( 'NONE', #1, 11.00000000000000000 ) ;
#156 = CIRCLE ( 'NONE', #354, 8.000000000000000000 ) ;
#157 = CIRCLE ( 'NONE', #63, 8.000000000000000000 ) ;
#158 = ADVANCED_FACE ( 'NONE', ( #164 ), #256, .T. ) ;
#159 = CC_DESIGN_PERSON_AND_ORGANIZATION_ASSIGNMENT ( #255, #111, ( #133 ) ) ;
#160 = DIRECTION ( 'NONE',  ( 0.000000000000000000, 0.000000000000000000, 1.000000000000000000 ) ) ;
#161 = APPROVAL_DATE_TIME ( #59, #52 ) ;
#162 = DIRECTION ( 'NONE',  ( 0.000000000000000000, 0.000000000000000000, 1.000000000000000000 ) ) ;
#163 = CIRCLE ( 'NONE', #230, 8.699999999999999289 ) ;
#164 = FACE_OUTER_BOUND ( 'NONE', #331, .T. ) ;
#165 = CARTESIAN_POINT ( 'NONE',  ( 0.000000000000000000, 0.000000000000000000, 107.0000000000000142 ) ) ;
#166 = CALENDAR_DATE ( 2022, 10, 7 ) ;
#167 = DIRECTION ( 'NONE',  ( -1.000000000000000000, 0.000000000000000000, 0.000000000000000000 ) ) ;
#168 = PERSON_AND_ORGANIZATION_ROLE ( 'design_supplier' ) ;
#169 = CARTESIAN_POINT ( 'NONE',  ( 0.000000000000000000, 0.000000000000000000, 107.0000000000000142 ) ) ;
#170 = MECHANICAL_CONTEXT ( 'NONE', #115, 'mechanical' ) ;
#171 = ADVANCED_FACE ( 'NONE', ( #144 ), #85, .F. ) ;
#172 = APPROVAL ( #57, 'NEURÈENÝ' ) ;
#173 = EDGE_LOOP ( 'NONE', ( #271, #23, #92, #122 ) ) ;
#174 = FACE_OUTER_BOUND ( 'NONE', #241, .T. ) ;
#175 = FACE_OUTER_BOUND ( 'NONE', #173, .T. ) ;
#176 = VERTEX_POINT ( 'NONE', #142 ) ;
#177 = CC_DESIGN_DATE_AND_TIME_ASSIGNMENT ( #141, #189, ( #260 ) ) ;
#178 = AXIS2_PLACEMENT_3D ( 'NONE', #201, #95, #43 ) ;
#179 = UNCERTAINTY_MEASURE_WITH_UNIT (LENGTH_MEASURE( 1.000000000000000082E-05 ), #15, 'distance_accuracy_value', 'NONE');
#180 = DIRECTION ( 'NONE',  ( 0.000000000000000000, 0.000000000000000000, 1.000000000000000000 ) ) ;
#181 = AXIS2_PLACEMENT_3D ( 'NONE', #40, #329, #303 ) ;
#182 = DIRECTION ( 'NONE',  ( -0.000000000000000000, -0.000000000000000000, -1.000000000000000000 ) ) ;
#183 = ORIENTED_EDGE ( 'NONE', *, *, #278, .F. ) ;
#184 = CARTESIAN_POINT ( 'NONE',  ( 0.000000000000000000, 0.000000000000000000, 7.699999999999998401 ) ) ;
#185 = AXIS2_PLACEMENT_3D ( 'NONE', #320, #259, #13 ) ;
#186 = VECTOR ( 'NONE', #119, 1000.000000000000000 ) ;
#187 = VERTEX_POINT ( 'NONE', #108 ) ;
#188 = ADVANCED_FACE ( 'NONE', ( #175 ), #240, .F. ) ;
#189 = DATE_TIME_ROLE ( 'classification_date' ) ;
#190 = EDGE_CURVE ( 'NONE', #176, #321, #246, .T. ) ;
#191 = DATE_AND_TIME ( #196, #231 ) ;
#192 = APPROVAL_PERSON_ORGANIZATION ( #29, #125, #227 ) ;
#193 = DIRECTION ( 'NONE',  ( 1.000000000000000000, 0.000000000000000000, 0.000000000000000000 ) ) ;
#194 = APPROVAL_ROLE ( '' ) ;
#195 = DIRECTION ( 'NONE',  ( 1.000000000000000000, 0.000000000000000000, 0.000000000000000000 ) ) ;
#196 = CALENDAR_DATE ( 2022, 10, 7 ) ;
#197 = CARTESIAN_POINT ( 'NONE',  ( 0.000000000000000000, 0.000000000000000000, 0.000000000000000000 ) ) ;
#198 = CARTESIAN_POINT ( 'NONE',  ( 0.000000000000000000, 0.000000000000000000, 0.000000000000000000 ) ) ;
#199 = ORIENTED_EDGE ( 'NONE', *, *, #65, .T. ) ;
#200 = ORIENTED_EDGE ( 'NONE', *, *, #67, .T. ) ;
#201 = CARTESIAN_POINT ( 'NONE',  ( 0.000000000000000000, 0.000000000000000000, 7.000000000000000000 ) ) ;
#202 = CARTESIAN_POINT ( 'NONE',  ( 0.000000000000000000, 0.000000000000000000, 7.699999999999998401 ) ) ;
#203 = VERTEX_POINT ( 'NONE', #369 ) ;
#204 = CIRCLE ( 'NONE', #185, 11.00000000000000000 ) ;
#205 = AXIS2_PLACEMENT_3D ( 'NONE', #348, #228, #195 ) ;
#206 = DIRECTION ( 'NONE',  ( 0.000000000000000000, 0.000000000000000000, -1.000000000000000000 ) ) ;
#207 = ORIENTED_EDGE ( 'NONE', *, *, #67, .F. ) ;
#208 = ORIENTED_EDGE ( 'NONE', *, *, #86, .F. ) ;
#209 = EDGE_CURVE ( 'NONE', #44, #187, #31, .T. ) ;
#210 = EDGE_LOOP ( 'NONE', ( #74, #307, #7, #68 ) ) ;
#211 = DIRECTION ( 'NONE',  ( 1.000000000000000000, 0.000000000000000000, 0.000000000000000000 ) ) ;
#212 = EDGE_LOOP ( 'NONE', ( #77, #208 ) ) ;
#213 = AXIS2_PLACEMENT_3D ( 'NONE', #265, #121, #360 ) ;
#214 = DIRECTION ( 'NONE',  ( 0.000000000000000000, 0.000000000000000000, -1.000000000000000000 ) ) ;
#215 = ORIENTED_EDGE ( 'NONE', *, *, #209, .T. ) ;
#216 = CC_DESIGN_APPROVAL ( #125, ( #333 ) ) ;
#217 = CARTESIAN_POINT ( 'NONE',  ( 11.00000000000000000, 1.347111479062088405E-15, 7.000000000000000000 ) ) ;
#218 = ADVANCED_FACE ( 'NONE', ( #97 ), #93, .T. ) ;
#219 = DIRECTION ( 'NONE',  ( 0.000000000000000000, 0.000000000000000000, 1.000000000000000000 ) ) ;
#220 = PRODUCT_DEFINITION_SHAPE ( 'NONE', 'NONE',  #133 ) ;
#221 = EDGE_LOOP ( 'NONE', ( #147, #123 ) ) ;
#222 = PLANE ( 'NONE',  #266 ) ;
#223 = FACE_BOUND ( 'NONE', #212, .T. ) ;
#224 = AXIS2_PLACEMENT_3D ( 'NONE', #275, #286, #117 ) ;
#225 = ORIENTED_EDGE ( 'NONE', *, *, #16, .F. ) ;
#226 = EDGE_CURVE ( 'NONE', #124, #44, #9, .T. ) ;
#227 = APPROVAL_ROLE ( '' ) ;
#228 = DIRECTION ( 'NONE',  ( 0.000000000000000000, 0.000000000000000000, 1.000000000000000000 ) ) ;
#229 = APPROVAL_STATUS ( 'not_yet_approved' ) ;
#230 = AXIS2_PLACEMENT_3D ( 'NONE', #103, #73, #314 ) ;
#231 = LOCAL_TIME ( 11, 0, 19.00000000000000000, #88 ) ;
#232 = FACE_OUTER_BOUND ( 'NONE', #145, .T. ) ;
#233 = EDGE_CURVE ( 'NONE', #203, #124, #157, .T. ) ;
#234 = PERSON_AND_ORGANIZATION ( #296, #299 ) ;
#235 = DIRECTION ( 'NONE',  ( 0.000000000000000000, 0.000000000000000000, 1.000000000000000000 ) ) ;
#236 = DIRECTION ( 'NONE',  ( -0.000000000000000000, -0.000000000000000000, -1.000000000000000000 ) ) ;
#237 = ORIENTED_EDGE ( 'NONE', *, *, #332, .F. ) ;
#238 = AXIS2_PLACEMENT_3D ( 'NONE', #198, #162, #381 ) ;
#239 = CARTESIAN_POINT ( 'NONE',  ( 8.000000000000000000, 9.797174393178825657E-16, 7.699999999999998401 ) ) ;
#240 = CYLINDRICAL_SURFACE ( 'NONE', #282, 6.000000000000000888 ) ;
#241 = EDGE_LOOP ( 'NONE', ( #306, #200, #263, #370 ) ) ;
#242 = DIRECTION ( 'NONE',  ( 0.000000000000000000, 0.000000000000000000, -1.000000000000000000 ) ) ;
#243 = VECTOR ( 'NONE', #47, 1000.000000000000000 ) ;
#244 = ORIENTED_EDGE ( 'NONE', *, *, #143, .F. ) ;
#245 = ADVANCED_BREP_SHAPE_REPRESENTATION ( 'cfb3', ( #305, #238 ), #75 ) ;
#246 = LINE ( 'NONE', #72, #327 ) ;
#247 = ORIENTED_EDGE ( 'NONE', *, *, #143, .T. ) ;
#248 = LINE ( 'NONE', #217, #146 ) ;
#249 = CARTESIAN_POINT ( 'NONE',  ( 6.000000000000000888, 7.347880794884119736E-16, 0.000000000000000000 ) ) ;
#250 = AXIS2_PLACEMENT_3D ( 'NONE', #197, #317, #3 ) ;
#251 = DIRECTION ( 'NONE',  ( 1.000000000000000000, 0.000000000000000000, 0.000000000000000000 ) ) ;
#252 = FACE_OUTER_BOUND ( 'NONE', #114, .T. ) ;
#253 = APPLICATION_PROTOCOL_DEFINITION ( 'international standard', 'config_control_design', 1994, #291 ) ;
#254 = AXIS2_PLACEMENT_3D ( 'NONE', #290, #236, #356 ) ;
#255 = PERSON_AND_ORGANIZATION ( #296, #299 ) ;
#256 = CYLINDRICAL_SURFACE ( 'NONE', #345, 11.00000000000000000 ) ;
#257 = CALENDAR_DATE ( 2022, 10, 7 ) ;
#258 = DIRECTION ( 'NONE',  ( -0.000000000000000000, -0.000000000000000000, -1.000000000000000000 ) ) ;
#259 = DIRECTION ( 'NONE',  ( 0.000000000000000000, 0.000000000000000000, 1.000000000000000000 ) ) ;
#260 = SECURITY_CLASSIFICATION ( '', '', #284 ) ;
#261 = CARTESIAN_POINT ( 'NONE',  ( 0.000000000000000000, 0.000000000000000000, 0.000000000000000000 ) ) ;
#262 = APPLICATION_PROTOCOL_DEFINITION ( 'international standard', 'config_control_design', 1994, #115 ) ;
#263 = ORIENTED_EDGE ( 'NONE', *, *, #16, .T. ) ;
#264 = CARTESIAN_POINT ( 'NONE',  ( 0.000000000000000000, 0.000000000000000000, 107.0000000000000142 ) ) ;
#265 = CARTESIAN_POINT ( 'NONE',  ( 0.000000000000000000, 0.000000000000000000, 107.0000000000000142 ) ) ;
#266 = AXIS2_PLACEMENT_3D ( 'NONE', #339, #153, #374 ) ;
#267 = VERTEX_POINT ( 'NONE', #297 ) ;
#268 = CC_DESIGN_APPROVAL ( #172, ( #260 ) ) ;
#269 = FACE_BOUND ( 'NONE', #83, .T. ) ;
#270 = ORIENTED_EDGE ( 'NONE', *, *, #378, .T. ) ;
#271 = ORIENTED_EDGE ( 'NONE', *, *, #328, .T. ) ;
#272 = CARTESIAN_POINT ( 'NONE',  ( 8.000000000000000000, 9.797174393178825657E-16, 107.0000000000000142 ) ) ;
#273 = PRODUCT_RELATED_PRODUCT_CATEGORY ( 'detail', '', ( #338 ) ) ;
#274 = ORIENTED_EDGE ( 'NONE', *, *, #51, .T. ) ;
#275 = CARTESIAN_POINT ( 'NONE',  ( 0.000000000000000000, 0.000000000000000000, 0.000000000000000000 ) ) ;
#276 = CARTESIAN_POINT ( 'NONE',  ( -11.00000000000000000, 0.000000000000000000, 7.000000000000000000 ) ) ;
#277 = CARTESIAN_POINT ( 'NONE',  ( 0.000000000000000000, 0.000000000000000000, 107.0000000000000142 ) ) ;
#278 = EDGE_CURVE ( 'NONE', #203, #187, #5, .T. ) ;
#279 = DATE_TIME_ROLE ( 'creation_date' ) ;
#280 = CARTESIAN_POINT ( 'NONE',  ( 8.000000000000000000, 9.797174393178825657E-16, 107.0000000000000142 ) ) ;
#281 = APPROVAL_ROLE ( '' ) ;
#282 = AXIS2_PLACEMENT_3D ( 'NONE', #14, #242, #53 ) ;
#283 = ADVANCED_FACE ( 'NONE', ( #269, #10 ), #139, .T. ) ;
#284 = SECURITY_CLASSIFICATION_LEVEL ( 'unclassified' ) ;
#285 = CYLINDRICAL_SURFACE ( 'NONE', #120, 11.00000000000000000 ) ;
#286 = DIRECTION ( 'NONE',  ( -0.000000000000000000, -0.000000000000000000, -1.000000000000000000 ) ) ;
#287 = AXIS2_PLACEMENT_3D ( 'NONE', #184, #126, #371 ) ;
#288 = CARTESIAN_POINT ( 'NONE',  ( -8.000000000000000000, 0.000000000000000000, 107.0000000000000142 ) ) ;
#289 = PERSON_AND_ORGANIZATION ( #296, #299 ) ;
#290 = CARTESIAN_POINT ( 'NONE',  ( 0.000000000000000000, 0.000000000000000000, 7.000000000000000000 ) ) ;
#291 = APPLICATION_CONTEXT ( 'configuration controlled 3d designs of mechanical parts and assemblies' ) ;
#292 =( NAMED_UNIT ( * ) PLANE_ANGLE_UNIT ( ) SI_UNIT ( $, .RADIAN. ) );
#293 = CC_DESIGN_APPROVAL ( #52, ( #133 ) ) ;
#294 = ORIENTED_EDGE ( 'NONE', *, *, #18, .F. ) ;
#295 = CYLINDRICAL_SURFACE ( 'NONE', #213, 8.000000000000000000 ) ;
#296 = PERSON ( 'NEURÈENÝ', 'NEURÈENÝ', 'NEURÈENÝ', ('NEURÈENÝ'), ('NEURÈENÝ'), ('NEURÈENÝ') ) ;
#297 = CARTESIAN_POINT ( 'NONE',  ( 11.00000000000000000, 1.347111479062088405E-15, 0.000000000000000000 ) ) ;
#298 = AXIS2_PLACEMENT_3D ( 'NONE', #102, #160, #367 ) ;
#299 = ORGANIZATION ( 'NEURÈENÝ', 'NEURÈENÝ', '' ) ;
#300 = DIRECTION ( 'NONE',  ( 1.000000000000000000, 0.000000000000000000, 0.000000000000000000 ) ) ;
#301 = ADVANCED_FACE ( 'NONE', ( #62 ), #285, .T. ) ;
#302 = ADVANCED_FACE ( 'NONE', ( #232 ), #39, .F. ) ;
#303 = DIRECTION ( 'NONE',  ( -1.000000000000000000, 1.224646799147353207E-16, 0.000000000000000000 ) ) ;
#304 = VERTEX_POINT ( 'NONE', #21 ) ;
#305 = MANIFOLD_SOLID_BREP ( 'Odebrat vysunutím3', #311 ) ;
#306 = ORIENTED_EDGE ( 'NONE', *, *, #105, .F. ) ;
#307 = ORIENTED_EDGE ( 'NONE', *, *, #278, .T. ) ;
#308 = CIRCLE ( 'NONE', #178, 11.00000000000000000 ) ;
#309 = LINE ( 'NONE', #78, #243 ) ;
#310 = FACE_OUTER_BOUND ( 'NONE', #336, .T. ) ;
#311 = CLOSED_SHELL ( 'NONE', ( #188, #80, #110, #158, #301, #283, #359, #218, #24, #171, #302 ) ) ;
#312 = CC_DESIGN_SECURITY_CLASSIFICATION ( #260, ( #333 ) ) ;
#313 = FACE_BOUND ( 'NONE', #38, .T. ) ;
#314 = DIRECTION ( 'NONE',  ( 1.000000000000000000, 0.000000000000000000, 0.000000000000000000 ) ) ;
#315 = EDGE_CURVE ( 'NONE', #304, #330, #308, .T. ) ;
#316 = CARTESIAN_POINT ( 'NONE',  ( 0.000000000000000000, 0.000000000000000000, 7.000000000000000000 ) ) ;
#317 = DIRECTION ( 'NONE',  ( 0.000000000000000000, 0.000000000000000000, 1.000000000000000000 ) ) ;
#318 = DATE_AND_TIME ( #166, #46 ) ;
#319 =( NAMED_UNIT ( * ) SI_UNIT ( $, .STERADIAN. ) SOLID_ANGLE_UNIT ( ) );
#320 = CARTESIAN_POINT ( 'NONE',  ( 0.000000000000000000, 0.000000000000000000, 7.000000000000000000 ) ) ;
#321 = VERTEX_POINT ( 'NONE', #140 ) ;
#322 = AXIS2_PLACEMENT_3D ( 'NONE', #6, #148, #206 ) ;
#323 = ORIENTED_EDGE ( 'NONE', *, *, #328, .F. ) ;
#324 = ORIENTED_EDGE ( 'NONE', *, *, #372, .F. ) ;
#325 = CIRCLE ( 'NONE', #298, 8.000000000000000000 ) ;
#326 = AXIS2_PLACEMENT_3D ( 'NONE', #104, #132, #149 ) ;
#327 = VECTOR ( 'NONE', #214, 1000.000000000000000 ) ;
#328 = EDGE_CURVE ( 'NONE', #176, #45, #69, .T. ) ;
#329 = DIRECTION ( 'NONE',  ( 1.224646799147353207E-16, 1.000000000000000000, -0.000000000000000000 ) ) ;
#330 = VERTEX_POINT ( 'NONE', #276 ) ;
#331 = EDGE_LOOP ( 'NONE', ( #89, #274, #199, #373 ) ) ;
#332 = EDGE_CURVE ( 'NONE', #45, #70, #56, .T. ) ;
#333 = PRODUCT_DEFINITION_FORMATION_WITH_SPECIFIED_SOURCE ( 'LIBOVOLNÝ', '', #338, .NOT_KNOWN. ) ;
#334 = EDGE_LOOP ( 'NONE', ( #368, #101, #270, #247 ) ) ;
#335 = CARTESIAN_POINT ( 'NONE',  ( -11.00000000000000000, 0.000000000000000000, 0.000000000000000000 ) ) ;
#336 = EDGE_LOOP ( 'NONE', ( #366, #96 ) ) ;
#337 = DIRECTION ( 'NONE',  ( 0.000000000000000000, 0.000000000000000000, 1.000000000000000000 ) ) ;
#338 = PRODUCT ( 'cfb3', 'cfb3', '', ( #170 ) ) ;
#339 = CARTESIAN_POINT ( 'NONE',  ( 0.000000000000000000, 0.000000000000000000, 107.0000000000000142 ) ) ;
#340 = CIRCLE ( 'NONE', #224, 6.000000000000000888 ) ;
#341 = DIRECTION ( 'NONE',  ( 1.000000000000000000, 0.000000000000000000, 0.000000000000000000 ) ) ;
#342 = COORDINATED_UNIVERSAL_TIME_OFFSET ( 1, 0, .AHEAD. ) ;
#343 = EDGE_LOOP ( 'NONE', ( #183, #225, #41, #294 ) ) ;
#344 = CC_DESIGN_PERSON_AND_ORGANIZATION_ASSIGNMENT ( #34, #137, ( #260 ) ) ;
#345 = AXIS2_PLACEMENT_3D ( 'NONE', #64, #258, #167 ) ;
#346 = CALENDAR_DATE ( 2022, 10, 7 ) ;
#347 = LOCAL_TIME ( 11, 0, 19.00000000000000000, #342 ) ;
#348 = CARTESIAN_POINT ( 'NONE',  ( 0.000000000000000000, 0.000000000000000000, 7.699999999999998401 ) ) ;
#349 = AXIS2_PLACEMENT_3D ( 'NONE', #261, #352, #2 ) ;
#350 = CALENDAR_DATE ( 2022, 10, 7 ) ;
#351 = DIRECTION ( 'NONE',  ( 1.000000000000000000, 0.000000000000000000, -0.000000000000000000 ) ) ;
#352 = DIRECTION ( 'NONE',  ( -0.000000000000000000, -0.000000000000000000, -1.000000000000000000 ) ) ;
#353 = APPROVAL_DATE_TIME ( #191, #172 ) ;
#354 = AXIS2_PLACEMENT_3D ( 'NONE', #169, #35, #138 ) ;
#355 = VERTEX_POINT ( 'NONE', #280 ) ;
#356 = DIRECTION ( 'NONE',  ( 1.000000000000000000, 0.000000000000000000, 0.000000000000000000 ) ) ;
#357 = ORIENTED_EDGE ( 'NONE', *, *, #362, .T. ) ;
#358 = DIRECTION ( 'NONE',  ( 0.000000000000000000, 0.000000000000000000, -1.000000000000000000 ) ) ;
#359 = ADVANCED_FACE ( 'NONE', ( #223, #252 ), #375, .F. ) ;
#360 = DIRECTION ( 'NONE',  ( -1.000000000000000000, 0.000000000000000000, 0.000000000000000000 ) ) ;
#361 = VERTEX_POINT ( 'NONE', #288 ) ;
#362 = EDGE_CURVE ( 'NONE', #321, #70, #135, .T. ) ;
#363 = AXIS2_PLACEMENT_3D ( 'NONE', #151, #358, #365 ) ;
#364 = ORIENTED_EDGE ( 'NONE', *, *, #372, .T. ) ;
#365 = DIRECTION ( 'NONE',  ( -1.000000000000000000, 0.000000000000000000, 0.000000000000000000 ) ) ;
#366 = ORIENTED_EDGE ( 'NONE', *, *, #54, .T. ) ;
#367 = DIRECTION ( 'NONE',  ( 1.000000000000000000, 0.000000000000000000, 0.000000000000000000 ) ) ;
#368 = ORIENTED_EDGE ( 'NONE', *, *, #51, .F. ) ;
#369 = CARTESIAN_POINT ( 'NONE',  ( -8.000000000000000000, 0.000000000000000000, 7.699999999999998401 ) ) ;
#370 = ORIENTED_EDGE ( 'NONE', *, *, #66, .F. ) ;
#371 = DIRECTION ( 'NONE',  ( 1.000000000000000000, 0.000000000000000000, 0.000000000000000000 ) ) ;
#372 = EDGE_CURVE ( 'NONE', #45, #176, #150, .T. ) ;
#373 = ORIENTED_EDGE ( 'NONE', *, *, #378, .F. ) ;
#374 = DIRECTION ( 'NONE',  ( 1.000000000000000000, 0.000000000000000000, -0.000000000000000000 ) ) ;
#375 = PLANE ( 'NONE',  #250 ) ;
#376 = LOCAL_TIME ( 11, 0, 19.00000000000000000, #113 ) ;
#377 = PERSON_AND_ORGANIZATION_ROLE ( 'creator' ) ;
#378 = EDGE_CURVE ( 'NONE', #330, #71, #112, .T. ) ;
#379 = CC_DESIGN_PERSON_AND_ORGANIZATION_ASSIGNMENT ( #234, #377, ( #333 ) ) ;
#380 = APPROVAL_DATE_TIME ( #116, #125 ) ;
#381 = DIRECTION ( 'NONE',  ( 1.000000000000000000, 0.000000000000000000, 0.000000000000000000 ) ) ;
ENDSEC;
END-ISO-10303-21;
