ISO-10303-21;
HEADER;
FILE_DESCRIPTION (( 'STEP AP203' ),
    '1' );
FILE_NAME ('0f4a.STEP',
    '2022-07-10T09:10:51',
    ( '' ),
    ( '' ),
    'SwSTEP 2.0',
    'SolidWorks 2019',
    '' );
FILE_SCHEMA (( 'CONFIG_CONTROL_DESIGN' ));
ENDSEC;

DATA;
#1 = FACE_BOUND ( 'NONE', #16, .T. ) ;
#2 = APPLICATION_CONTEXT ( 'configuration controlled 3d designs of mechanical parts and assemblies' ) ;
#3 = CARTESIAN_POINT ( 'NONE',  ( 4.500000000000000888, 0.000000000000000000, 5.000000000000002665 ) ) ;
#4 = ADVANCED_FACE ( 'NONE', ( #84 ), #161, .F. ) ;
#5 = ORIENTED_EDGE ( 'NONE', *, *, #349, .F. ) ;
#6 =( GEOMETRIC_REPRESENTATION_CONTEXT ( 3 ) GLOBAL_UNCERTAINTY_ASSIGNED_CONTEXT ( ( #164 ) ) GLOBAL_UNIT_ASSIGNED_CONTEXT ( ( #139, #33, #262 ) ) REPRESENTATION_CONTEXT ( 'NONE', 'WORKASPACE' ) );
#7 = DIRECTION ( 'NONE',  ( 1.000000000000000000, 0.000000000000000000, 0.000000000000000000 ) ) ;
#8 = VERTEX_POINT ( 'NONE', #373 ) ;
#9 = DATE_TIME_ROLE ( 'classification_date' ) ;
#10 = EDGE_LOOP ( 'NONE', ( #201, #96, #179, #354 ) ) ;
#11 = DATE_AND_TIME ( #294, #345 ) ;
#12 = DIRECTION ( 'NONE',  ( 0.000000000000000000, 0.000000000000000000, 1.000000000000000000 ) ) ;
#13 = AXIS2_PLACEMENT_3D ( 'NONE', #313, #291, #381 ) ;
#14 = DIRECTION ( 'NONE',  ( 0.000000000000000000, 0.000000000000000000, 1.000000000000000000 ) ) ;
#15 = AXIS2_PLACEMENT_3D ( 'NONE', #279, #372, #251 ) ;
#16 = EDGE_LOOP ( 'NONE', ( #150, #207 ) ) ;
#17 = DIRECTION ( 'NONE',  ( 1.000000000000000000, 0.000000000000000000, 0.000000000000000000 ) ) ;
#18 = EDGE_CURVE ( 'NONE', #103, #98, #55, .T. ) ;
#19 = ORIENTED_EDGE ( 'NONE', *, *, #41, .F. ) ;
#20 = DIRECTION ( 'NONE',  ( 1.000000000000000000, 0.000000000000000000, 0.000000000000000000 ) ) ;
#21 = PRODUCT_DEFINITION_FORMATION_WITH_SPECIFIED_SOURCE ( 'LIBOVOLNÝ', '', #210, .NOT_KNOWN. ) ;
#22 = CARTESIAN_POINT ( 'NONE',  ( 0.000000000000000000, 0.000000000000000000, 0.000000000000000000 ) ) ;
#23 = DIRECTION ( 'NONE',  ( -0.000000000000000000, -0.000000000000000000, -1.000000000000000000 ) ) ;
#24 = ORIENTED_EDGE ( 'NONE', *, *, #364, .T. ) ;
#25 = CALENDAR_DATE ( 2022, 10, 7 ) ;
#26 = CARTESIAN_POINT ( 'NONE',  ( -2.250000000000000000, 0.000000000000000000, 205.0000000000000284 ) ) ;
#27 = APPROVAL ( #88, 'NEURÈENÝ' ) ;
#28 = APPLICATION_PROTOCOL_DEFINITION ( 'international standard', 'config_control_design', 1994, #2 ) ;
#29 = CARTESIAN_POINT ( 'NONE',  ( -4.000000000000000000, 0.000000000000000000, 205.0000000000000284 ) ) ;
#30 = ADVANCED_FACE ( 'NONE', ( #332 ), #314, .T. ) ;
#31 = VERTEX_POINT ( 'NONE', #74 ) ;
#32 = APPROVAL_PERSON_ORGANIZATION ( #283, #27, #94 ) ;
#33 =( NAMED_UNIT ( * ) PLANE_ANGLE_UNIT ( ) SI_UNIT ( $, .RADIAN. ) );
#34 = DIRECTION ( 'NONE',  ( -0.000000000000000000, -0.000000000000000000, -1.000000000000000000 ) ) ;
#35 = EDGE_LOOP ( 'NONE', ( #127, #5 ) ) ;
#36 = DATE_AND_TIME ( #297, #276 ) ;
#37 = DIRECTION ( 'NONE',  ( 0.000000000000000000, 0.000000000000000000, 1.000000000000000000 ) ) ;
#38 = ORIENTED_EDGE ( 'NONE', *, *, #68, .T. ) ;
#39 = PERSON_AND_ORGANIZATION ( #140, #232 ) ;
#40 = VECTOR ( 'NONE', #277, 1000.000000000000000 ) ;
#41 = EDGE_CURVE ( 'NONE', #306, #64, #56, .T. ) ;
#42 = PLANE ( 'NONE',  #356 ) ;
#43 = EDGE_CURVE ( 'NONE', #98, #189, #246, .T. ) ;
#44 = ORIENTED_EDGE ( 'NONE', *, *, #166, .T. ) ;
#45 = PERSON_AND_ORGANIZATION_ROLE ( 'classification_officer' ) ;
#46 = DIRECTION ( 'NONE',  ( 1.000000000000000000, 0.000000000000000000, 0.000000000000000000 ) ) ;
#47 = ORIENTED_EDGE ( 'NONE', *, *, #200, .F. ) ;
#48 = DIRECTION ( 'NONE',  ( 1.000000000000000000, 0.000000000000000000, 0.000000000000000000 ) ) ;
#49 = ADVANCED_FACE ( 'NONE', ( #378 ), #176, .F. ) ;
#50 = AXIS2_PLACEMENT_3D ( 'NONE', #99, #104, #187 ) ;
#51 = CARTESIAN_POINT ( 'NONE',  ( 0.000000000000000000, 0.000000000000000000, 5.000000000000000000 ) ) ;
#52 = CARTESIAN_POINT ( 'NONE',  ( 0.000000000000000000, 0.000000000000000000, 205.0000000000000284 ) ) ;
#53 = CARTESIAN_POINT ( 'NONE',  ( 0.000000000000000000, 0.000000000000000000, 5.000000000000000000 ) ) ;
#54 = PERSON_AND_ORGANIZATION_ROLE ( 'design_owner' ) ;
#55 = CIRCLE ( 'NONE', #311, 4.000000000000000000 ) ;
#56 = CIRCLE ( 'NONE', #305, 2.250000000000000000 ) ;
#57 = FACE_OUTER_BOUND ( 'NONE', #35, .T. ) ;
#58 = ORIENTED_EDGE ( 'NONE', *, *, #364, .F. ) ;
#59 = PERSON_AND_ORGANIZATION_ROLE ( 'creator' ) ;
#60 = CARTESIAN_POINT ( 'NONE',  ( 4.000000000000000000, 4.898587196589412829E-16, 205.0000000000000284 ) ) ;
#61 = AXIS2_PLACEMENT_3D ( 'NONE', #93, #97, #63 ) ;
#62 = ORIENTED_EDGE ( 'NONE', *, *, #87, .T. ) ;
#63 = DIRECTION ( 'NONE',  ( 1.000000000000000000, 0.000000000000000000, 0.000000000000000000 ) ) ;
#64 = VERTEX_POINT ( 'NONE', #258 ) ;
#65 = CARTESIAN_POINT ( 'NONE',  ( 0.000000000000000000, 0.000000000000000000, 0.000000000000000000 ) ) ;
#66 = ORIENTED_EDGE ( 'NONE', *, *, #223, .F. ) ;
#67 = CC_DESIGN_DATE_AND_TIME_ASSIGNMENT ( #11, #9, ( #177 ) ) ;
#68 = EDGE_CURVE ( 'NONE', #64, #181, #351, .T. ) ;
#69 = DIRECTION ( 'NONE',  ( -0.000000000000000000, -0.000000000000000000, -1.000000000000000000 ) ) ;
#70 = EDGE_LOOP ( 'NONE', ( #66, #47, #296, #86 ) ) ;
#71 = SECURITY_CLASSIFICATION_LEVEL ( 'unclassified' ) ;
#72 = VECTOR ( 'NONE', #293, 1000.000000000000000 ) ;
#73 = CARTESIAN_POINT ( 'NONE',  ( 2.250000000000000000, 2.755455298081544285E-16, 0.000000000000000000 ) ) ;
#74 = CARTESIAN_POINT ( 'NONE',  ( -7.000000000000000000, 0.000000000000000000, 5.000000000000000000 ) ) ;
#75 = CARTESIAN_POINT ( 'NONE',  ( 0.000000000000000000, 0.000000000000000000, 5.500000000000005329 ) ) ;
#76 = ADVANCED_FACE ( 'NONE', ( #235 ), #376, .T. ) ;
#77 = DIRECTION ( 'NONE',  ( -0.000000000000000000, -0.000000000000000000, -1.000000000000000000 ) ) ;
#78 = CARTESIAN_POINT ( 'NONE',  ( 7.000000000000000000, 8.572527594031473190E-16, 5.000000000000000000 ) ) ;
#79 = EDGE_LOOP ( 'NONE', ( #327, #19 ) ) ;
#80 = VECTOR ( 'NONE', #163, 1000.000000000000000 ) ;
#81 = CYLINDRICAL_SURFACE ( 'NONE', #227, 7.000000000000000000 ) ;
#82 = CARTESIAN_POINT ( 'NONE',  ( 2.250000000000000000, 2.755455298081544285E-16, 205.0000000000000284 ) ) ;
#83 = FACE_OUTER_BOUND ( 'NONE', #290, .T. ) ;
#84 = FACE_OUTER_BOUND ( 'NONE', #158, .T. ) ;
#85 = VECTOR ( 'NONE', #108, 1000.000000000000000 ) ;
#86 = ORIENTED_EDGE ( 'NONE', *, *, #339, .F. ) ;
#87 = EDGE_CURVE ( 'NONE', #189, #213, #162, .T. ) ;
#88 = APPROVAL_STATUS ( 'not_yet_approved' ) ;
#89 = ADVANCED_FACE ( 'NONE', ( #284 ), #95, .T. ) ;
#90 = CARTESIAN_POINT ( 'NONE',  ( 0.000000000000000000, 0.000000000000000000, 205.0000000000000284 ) ) ;
#91 = AXIS2_PLACEMENT_3D ( 'NONE', #250, #341, #20 ) ;
#92 = DATE_AND_TIME ( #285, #324 ) ;
#93 = CARTESIAN_POINT ( 'NONE',  ( 0.000000000000000000, 0.000000000000000000, 5.500000000000005329 ) ) ;
#94 = APPROVAL_ROLE ( '' ) ;
#95 = CYLINDRICAL_SURFACE ( 'NONE', #366, 4.000000000000000000 ) ;
#96 = ORIENTED_EDGE ( 'NONE', *, *, #272, .T. ) ;
#97 = DIRECTION ( 'NONE',  ( 0.000000000000000000, 0.000000000000000000, 1.000000000000000000 ) ) ;
#98 = VERTEX_POINT ( 'NONE', #29 ) ;
#99 = CARTESIAN_POINT ( 'NONE',  ( 0.000000000000000000, 0.000000000000000000, 5.500000000000005329 ) ) ;
#100 = ADVANCED_FACE ( 'NONE', ( #1, #57 ), #317, .F. ) ;
#101 = ORIENTED_EDGE ( 'NONE', *, *, #151, .T. ) ;
#102 = APPROVAL_STATUS ( 'not_yet_approved' ) ;
#103 = VERTEX_POINT ( 'NONE', #60 ) ;
#104 = DIRECTION ( 'NONE',  ( 0.000000000000000000, 0.000000000000000000, 1.000000000000000000 ) ) ;
#105 = DIRECTION ( 'NONE',  ( -0.000000000000000000, -0.000000000000000000, -1.000000000000000000 ) ) ;
#106 = AXIS2_PLACEMENT_3D ( 'NONE', #51, #370, #112 ) ;
#107 = CC_DESIGN_PERSON_AND_ORGANIZATION_ASSIGNMENT ( #353, #59, ( #21 ) ) ;
#108 = DIRECTION ( 'NONE',  ( -0.000000000000000000, -0.000000000000000000, -1.000000000000000000 ) ) ;
#109 = FACE_OUTER_BOUND ( 'NONE', #322, .T. ) ;
#110 = EDGE_LOOP ( 'NONE', ( #141, #58, #352, #62 ) ) ;
#111 = AXIS2_PLACEMENT_3D ( 'NONE', #65, #37, #7 ) ;
#112 = DIRECTION ( 'NONE',  ( 1.000000000000000000, 0.000000000000000000, 0.000000000000000000 ) ) ;
#113 = ADVANCED_FACE ( 'NONE', ( #125 ), #175, .F. ) ;
#114 = AXIS2_PLACEMENT_3D ( 'NONE', #160, #34, #128 ) ;
#115 = CARTESIAN_POINT ( 'NONE',  ( 0.000000000000000000, 0.000000000000000000, 205.0000000000000284 ) ) ;
#116 = COORDINATED_UNIVERSAL_TIME_OFFSET ( 1, 0, .AHEAD. ) ;
#117 = CARTESIAN_POINT ( 'NONE',  ( 0.000000000000000000, 0.000000000000000000, 205.0000000000000284 ) ) ;
#118 = APPROVAL_DATE_TIME ( #92, #145 ) ;
#119 = MANIFOLD_SOLID_BREP ( 'Odebrat vysunutím3', #174 ) ;
#120 = ADVANCED_FACE ( 'NONE', ( #355, #109 ), #191, .T. ) ;
#121 = CALENDAR_DATE ( 2022, 10, 7 ) ;
#122 = CARTESIAN_POINT ( 'NONE',  ( 0.000000000000000000, 0.000000000000000000, 205.0000000000000284 ) ) ;
#123 = AXIS2_PLACEMENT_3D ( 'NONE', #310, #138, #254 ) ;
#124 = ORIENTED_EDGE ( 'NONE', *, *, #339, .T. ) ;
#125 = FACE_OUTER_BOUND ( 'NONE', #358, .T. ) ;
#126 = APPROVAL_ROLE ( '' ) ;
#127 = ORIENTED_EDGE ( 'NONE', *, *, #225, .F. ) ;
#128 = DIRECTION ( 'NONE',  ( 1.000000000000000000, 0.000000000000000000, 0.000000000000000000 ) ) ;
#129 = ORIENTED_EDGE ( 'NONE', *, *, #223, .T. ) ;
#130 = DESIGN_CONTEXT ( 'detailed design', #219, 'design' ) ;
#131 = ORIENTED_EDGE ( 'NONE', *, *, #87, .F. ) ;
#132 = COORDINATED_UNIVERSAL_TIME_OFFSET ( 1, 0, .AHEAD. ) ;
#133 = LINE ( 'NONE', #365, #85 ) ;
#134 = CIRCLE ( 'NONE', #344, 0.5000000000000004441 ) ;
#135 = ORIENTED_EDGE ( 'NONE', *, *, #169, .T. ) ;
#136 = VERTEX_POINT ( 'NONE', #3 ) ;
#137 = AXIS2_PLACEMENT_3D ( 'NONE', #222, #23, #281 ) ;
#138 = DIRECTION ( 'NONE',  ( 0.000000000000000000, 0.000000000000000000, 1.000000000000000000 ) ) ;
#139 =( LENGTH_UNIT ( ) NAMED_UNIT ( * ) SI_UNIT ( .MILLI., .METRE. ) );
#140 = PERSON ( 'NEURÈENÝ', 'NEURÈENÝ', 'NEURÈENÝ', ('NEURÈENÝ'), ('NEURÈENÝ'), ('NEURÈENÝ') ) ;
#141 = ORIENTED_EDGE ( 'NONE', *, *, #289, .F. ) ;
#142 = DATE_AND_TIME ( #25, #292 ) ;
#143 = VECTOR ( 'NONE', #77, 1000.000000000000000 ) ;
#144 = COORDINATED_UNIVERSAL_TIME_OFFSET ( 1, 0, .AHEAD. ) ;
#145 = APPROVAL ( #320, 'NEURÈENÝ' ) ;
#146 = CARTESIAN_POINT ( 'NONE',  ( 0.000000000000000000, 0.000000000000000000, 0.000000000000000000 ) ) ;
#147 = AXIS2_PLACEMENT_3D ( 'NONE', #53, #105, #334 ) ;
#148 = MECHANICAL_CONTEXT ( 'NONE', #2, 'mechanical' ) ;
#149 = DIRECTION ( 'NONE',  ( -0.000000000000000000, -0.000000000000000000, -1.000000000000000000 ) ) ;
#150 = ORIENTED_EDGE ( 'NONE', *, *, #329, .F. ) ;
#151 = EDGE_CURVE ( 'NONE', #273, #209, #133, .T. ) ;
#152 = DIRECTION ( 'NONE',  ( 1.000000000000000000, 0.000000000000000000, 0.000000000000000000 ) ) ;
#153 = ORIENTED_EDGE ( 'NONE', *, *, #43, .F. ) ;
#154 = CARTESIAN_POINT ( 'NONE',  ( -4.000000000000000000, 0.000000000000000000, 5.500000000000005329 ) ) ;
#155 = AXIS2_PLACEMENT_3D ( 'NONE', #122, #233, #178 ) ;
#156 = EDGE_LOOP ( 'NONE', ( #299, #346 ) ) ;
#157 = PRODUCT_DEFINITION ( 'NEZNÁMÝ', '', #21, #130 ) ;
#158 = EDGE_LOOP ( 'NONE', ( #212, #312, #38, #249 ) ) ;
#159 = CARTESIAN_POINT ( 'NONE',  ( 0.000000000000000000, 0.000000000000000000, 205.0000000000000284 ) ) ;
#160 = CARTESIAN_POINT ( 'NONE',  ( 0.000000000000000000, 0.000000000000000000, 5.000000000000000000 ) ) ;
#161 = CYLINDRICAL_SURFACE ( 'NONE', #245, 2.250000000000000000 ) ;
#162 = CIRCLE ( 'NONE', #61, 4.000000000000000000 ) ;
#163 = DIRECTION ( 'NONE',  ( 0.000000000000000000, 0.000000000000000000, -1.000000000000000000 ) ) ;
#164 = UNCERTAINTY_MEASURE_WITH_UNIT (LENGTH_MEASURE( 1.000000000000000082E-05 ), #139, 'distance_accuracy_value', 'NONE');
#165 = EDGE_LOOP ( 'NONE', ( #263, #183, #185, #153 ) ) ;
#166 = EDGE_CURVE ( 'NONE', #31, #319, #298, .T. ) ;
#167 = CIRCLE ( 'NONE', #50, 4.000000000000000000 ) ;
#168 = LOCAL_TIME ( 11, 10, 51.00000000000000000, #116 ) ;
#169 = EDGE_CURVE ( 'NONE', #136, #8, #280, .T. ) ;
#170 = CARTESIAN_POINT ( 'NONE',  ( -7.000000000000000000, 0.000000000000000000, 0.000000000000000000 ) ) ;
#171 = DIRECTION ( 'NONE',  ( 0.000000000000000000, 0.000000000000000000, -1.000000000000000000 ) ) ;
#172 = APPLICATION_PROTOCOL_DEFINITION ( 'international standard', 'config_control_design', 1994, #219 ) ;
#173 = APPROVAL_ROLE ( '' ) ;
#174 = CLOSED_SHELL ( 'NONE', ( #49, #113, #76, #361, #30, #231, #100, #89, #120, #193, #4 ) ) ;
#175 = TOROIDAL_SURFACE ( 'NONE', #216, 4.500000000000000888, 0.5000000000000000000 ) ;
#176 = CYLINDRICAL_SURFACE ( 'NONE', #155, 2.250000000000000000 ) ;
#177 = SECURITY_CLASSIFICATION ( '', '', #71 ) ;
#178 = DIRECTION ( 'NONE',  ( -1.000000000000000000, 0.000000000000000000, 0.000000000000000000 ) ) ;
#179 = ORIENTED_EDGE ( 'NONE', *, *, #261, .T. ) ;
#180 = AXIS2_PLACEMENT_3D ( 'NONE', #302, #255, #48 ) ;
#181 = VERTEX_POINT ( 'NONE', #328 ) ;
#182 = DIRECTION ( 'NONE',  ( 0.000000000000000000, 0.000000000000000000, -1.000000000000000000 ) ) ;
#183 = ORIENTED_EDGE ( 'NONE', *, *, #289, .T. ) ;
#184 = DIRECTION ( 'NONE',  ( -1.000000000000000000, 1.224646799147351482E-16, 0.000000000000000000 ) ) ;
#185 = ORIENTED_EDGE ( 'NONE', *, *, #200, .T. ) ;
#186 = CARTESIAN_POINT ( 'NONE',  ( -4.500000000000000888, 5.510910596163089556E-16, 5.500000000000005329 ) ) ;
#187 = DIRECTION ( 'NONE',  ( 1.000000000000000000, 0.000000000000000000, 0.000000000000000000 ) ) ;
#188 = PRODUCT_DEFINITION_SHAPE ( 'NONE', 'NONE',  #157 ) ;
#189 = VERTEX_POINT ( 'NONE', #154 ) ;
#190 = PERSON_AND_ORGANIZATION_ROLE ( 'design_supplier' ) ;
#191 = PLANE ( 'NONE',  #337 ) ;
#192 = DIRECTION ( 'NONE',  ( 0.000000000000000000, 0.000000000000000000, 1.000000000000000000 ) ) ;
#193 = ADVANCED_FACE ( 'NONE', ( #368 ), #379, .F. ) ;
#194 = AXIS2_PLACEMENT_3D ( 'NONE', #22, #192, #17 ) ;
#195 = CARTESIAN_POINT ( 'NONE',  ( 2.250000000000000000, 2.755455298081544285E-16, 205.0000000000000284 ) ) ;
#196 = EDGE_CURVE ( 'NONE', #213, #136, #238, .T. ) ;
#197 = AXIS2_PLACEMENT_3D ( 'NONE', #282, #224, #342 ) ;
#198 = LINE ( 'NONE', #369, #40 ) ;
#199 = ORIENTED_EDGE ( 'NONE', *, *, #169, .F. ) ;
#200 = EDGE_CURVE ( 'NONE', #213, #189, #167, .T. ) ;
#201 = ORIENTED_EDGE ( 'NONE', *, *, #333, .T. ) ;
#202 = PERSON_AND_ORGANIZATION ( #140, #232 ) ;
#203 = CIRCLE ( 'NONE', #106, 7.000000000000000000 ) ;
#204 = DIRECTION ( 'NONE',  ( -1.000000000000000000, 0.000000000000000000, 0.000000000000000000 ) ) ;
#205 = CC_DESIGN_SECURITY_CLASSIFICATION ( #177, ( #21 ) ) ;
#206 = DIRECTION ( 'NONE',  ( 0.000000000000000000, 0.000000000000000000, 1.000000000000000000 ) ) ;
#207 = ORIENTED_EDGE ( 'NONE', *, *, #261, .F. ) ;
#208 = CIRCLE ( 'NONE', #197, 2.250000000000000000 ) ;
#209 = VERTEX_POINT ( 'NONE', #211 ) ;
#210 = PRODUCT ( '0f4a', '0f4a', '', ( #148 ) ) ;
#211 = CARTESIAN_POINT ( 'NONE',  ( 7.000000000000000000, 8.572527594031473190E-16, 0.000000000000000000 ) ) ;
#212 = ORIENTED_EDGE ( 'NONE', *, *, #272, .F. ) ;
#213 = VERTEX_POINT ( 'NONE', #240 ) ;
#214 = COORDINATED_UNIVERSAL_TIME_OFFSET ( 1, 0, .AHEAD. ) ;
#215 = DIRECTION ( 'NONE',  ( 0.000000000000000000, 0.000000000000000000, 1.000000000000000000 ) ) ;
#216 = AXIS2_PLACEMENT_3D ( 'NONE', #75, #244, #248 ) ;
#217 = ORIENTED_EDGE ( 'NONE', *, *, #349, .T. ) ;
#218 = CARTESIAN_POINT ( 'NONE',  ( 0.000000000000000000, 0.000000000000000000, 205.0000000000000284 ) ) ;
#219 = APPLICATION_CONTEXT ( 'configuration controlled 3d designs of mechanical parts and assemblies' ) ;
#220 = DIRECTION ( 'NONE',  ( -1.000000000000000000, 0.000000000000000000, 0.000000000000000000 ) ) ;
#221 = ORIENTED_EDGE ( 'NONE', *, *, #304, .F. ) ;
#222 = CARTESIAN_POINT ( 'NONE',  ( 0.000000000000000000, 0.000000000000000000, 5.000000000000000000 ) ) ;
#223 = EDGE_CURVE ( 'NONE', #189, #8, #134, .T. ) ;
#224 = DIRECTION ( 'NONE',  ( 0.000000000000000000, 0.000000000000000000, 1.000000000000000000 ) ) ;
#225 = EDGE_CURVE ( 'NONE', #319, #209, #374, .T. ) ;
#226 = AXIS2_PLACEMENT_3D ( 'NONE', #146, #206, #321 ) ;
#227 = AXIS2_PLACEMENT_3D ( 'NONE', #308, #340, #220 ) ;
#228 = LINE ( 'NONE', #82, #80 ) ;
#229 = DIRECTION ( 'NONE',  ( 1.000000000000000000, 0.000000000000000000, 0.000000000000000000 ) ) ;
#230 = DATE_AND_TIME ( #121, #168 ) ;
#231 = ADVANCED_FACE ( 'NONE', ( #266, #360 ), #42, .T. ) ;
#232 = ORGANIZATION ( 'NEURÈENÝ', 'NEURÈENÝ', '' ) ;
#233 = DIRECTION ( 'NONE',  ( 0.000000000000000000, 0.000000000000000000, -1.000000000000000000 ) ) ;
#234 = COORDINATED_UNIVERSAL_TIME_OFFSET ( 1, 0, .AHEAD. ) ;
#235 = FACE_OUTER_BOUND ( 'NONE', #165, .T. ) ;
#236 = VERTEX_POINT ( 'NONE', #73 ) ;
#237 = PERSON_AND_ORGANIZATION ( #140, #232 ) ;
#238 = CIRCLE ( 'NONE', #323, 0.5000000000000004441 ) ;
#239 = EDGE_LOOP ( 'NONE', ( #264, #336, #44, #343 ) ) ;
#240 = CARTESIAN_POINT ( 'NONE',  ( 4.000000000000000000, 4.898587196589412829E-16, 5.500000000000005329 ) ) ;
#241 = APPROVAL_DATE_TIME ( #36, #347 ) ;
#242 = CARTESIAN_POINT ( 'NONE',  ( 0.000000000000000000, 0.000000000000000000, 5.000000000000000000 ) ) ;
#243 = DIRECTION ( 'NONE',  ( 0.000000000000000000, 0.000000000000000000, 1.000000000000000000 ) ) ;
#244 = DIRECTION ( 'NONE',  ( 0.000000000000000000, 0.000000000000000000, 1.000000000000000000 ) ) ;
#245 = AXIS2_PLACEMENT_3D ( 'NONE', #52, #171, #256 ) ;
#246 = LINE ( 'NONE', #367, #143 ) ;
#247 = APPROVAL_PERSON_ORGANIZATION ( #39, #347, #126 ) ;
#248 = DIRECTION ( 'NONE',  ( 1.000000000000000000, 0.000000000000000000, 0.000000000000000000 ) ) ;
#249 = ORIENTED_EDGE ( 'NONE', *, *, #329, .T. ) ;
#250 = CARTESIAN_POINT ( 'NONE',  ( 0.000000000000000000, 0.000000000000000000, 0.000000000000000000 ) ) ;
#251 = DIRECTION ( 'NONE',  ( 1.000000000000000000, 0.000000000000000000, 0.000000000000000000 ) ) ;
#252 = CIRCLE ( 'NONE', #194, 7.000000000000000000 ) ;
#253 = APPROVAL_PERSON_ORGANIZATION ( #202, #145, #173 ) ;
#254 = DIRECTION ( 'NONE',  ( 1.000000000000000000, 0.000000000000000000, 0.000000000000000000 ) ) ;
#255 = DIRECTION ( 'NONE',  ( -0.000000000000000000, -0.000000000000000000, -1.000000000000000000 ) ) ;
#256 = DIRECTION ( 'NONE',  ( -1.000000000000000000, 0.000000000000000000, 0.000000000000000000 ) ) ;
#257 = CC_DESIGN_DATE_AND_TIME_ASSIGNMENT ( #230, #350, ( #157 ) ) ;
#258 = CARTESIAN_POINT ( 'NONE',  ( -2.250000000000000000, 0.000000000000000000, 205.0000000000000284 ) ) ;
#259 = APPROVAL_DATE_TIME ( #142, #27 ) ;
#260 = CIRCLE ( 'NONE', #15, 7.000000000000000000 ) ;
#261 = EDGE_CURVE ( 'NONE', #236, #181, #331, .T. ) ;
#262 =( NAMED_UNIT ( * ) SI_UNIT ( $, .STERADIAN. ) SOLID_ANGLE_UNIT ( ) );
#263 = ORIENTED_EDGE ( 'NONE', *, *, #18, .F. ) ;
#264 = ORIENTED_EDGE ( 'NONE', *, *, #151, .F. ) ;
#265 = CC_DESIGN_PERSON_AND_ORGANIZATION_ASSIGNMENT ( #359, #45, ( #177 ) ) ;
#266 = FACE_BOUND ( 'NONE', #278, .T. ) ;
#267 = AXIS2_PLACEMENT_3D ( 'NONE', #357, #14, #152 ) ;
#268 = CC_DESIGN_APPROVAL ( #347, ( #177 ) ) ;
#269 = ORIENTED_EDGE ( 'NONE', *, *, #166, .F. ) ;
#270 = ORIENTED_EDGE ( 'NONE', *, *, #196, .F. ) ;
#271 = SHAPE_DEFINITION_REPRESENTATION ( #188, #307 ) ;
#272 = EDGE_CURVE ( 'NONE', #306, #236, #228, .T. ) ;
#273 = VERTEX_POINT ( 'NONE', #78 ) ;
#274 = DIRECTION ( 'NONE',  ( 1.000000000000000000, 0.000000000000000000, -0.000000000000000000 ) ) ;
#275 = VECTOR ( 'NONE', #69, 1000.000000000000000 ) ;
#276 = LOCAL_TIME ( 11, 10, 51.00000000000000000, #132 ) ;
#277 = DIRECTION ( 'NONE',  ( -0.000000000000000000, -0.000000000000000000, -1.000000000000000000 ) ) ;
#278 = EDGE_LOOP ( 'NONE', ( #135, #124 ) ) ;
#279 = CARTESIAN_POINT ( 'NONE',  ( 0.000000000000000000, 0.000000000000000000, 5.000000000000000000 ) ) ;
#280 = CIRCLE ( 'NONE', #114, 4.500000000000000888 ) ;
#281 = DIRECTION ( 'NONE',  ( 1.000000000000000000, 0.000000000000000000, 0.000000000000000000 ) ) ;
#282 = CARTESIAN_POINT ( 'NONE',  ( 0.000000000000000000, 0.000000000000000000, 205.0000000000000284 ) ) ;
#283 = PERSON_AND_ORGANIZATION ( #140, #232 ) ;
#284 = FACE_OUTER_BOUND ( 'NONE', #110, .T. ) ;
#285 = CALENDAR_DATE ( 2022, 10, 7 ) ;
#286 = DIRECTION ( 'NONE',  ( -1.000000000000000000, 0.000000000000000000, 0.000000000000000000 ) ) ;
#287 = PRODUCT_RELATED_PRODUCT_CATEGORY ( 'detail', '', ( #210 ) ) ;
#288 = DIRECTION ( 'NONE',  ( -0.000000000000000000, -0.000000000000000000, -1.000000000000000000 ) ) ;
#289 = EDGE_CURVE ( 'NONE', #103, #213, #198, .T. ) ;
#290 = EDGE_LOOP ( 'NONE', ( #221, #101, #217, #269 ) ) ;
#291 = DIRECTION ( 'NONE',  ( 0.000000000000000000, 0.000000000000000000, 1.000000000000000000 ) ) ;
#292 = LOCAL_TIME ( 11, 10, 51.00000000000000000, #144 ) ;
#293 = DIRECTION ( 'NONE',  ( 0.000000000000000000, 0.000000000000000000, -1.000000000000000000 ) ) ;
#294 = CALENDAR_DATE ( 2022, 10, 7 ) ;
#295 = CARTESIAN_POINT ( 'NONE',  ( -7.000000000000000000, 0.000000000000000000, 5.000000000000000000 ) ) ;
#296 = ORIENTED_EDGE ( 'NONE', *, *, #196, .T. ) ;
#297 = CALENDAR_DATE ( 2022, 10, 7 ) ;
#298 = LINE ( 'NONE', #295, #275 ) ;
#299 = ORIENTED_EDGE ( 'NONE', *, *, #309, .T. ) ;
#300 = DIRECTION ( 'NONE',  ( 0.000000000000000000, -1.000000000000000000, 0.000000000000000000 ) ) ;
#301 = AXIS2_PLACEMENT_3D ( 'NONE', #117, #149, #286 ) ;
#302 = CARTESIAN_POINT ( 'NONE',  ( 0.000000000000000000, 0.000000000000000000, 0.000000000000000000 ) ) ;
#303 = CC_DESIGN_PERSON_AND_ORGANIZATION_ASSIGNMENT ( #377, #375, ( #157 ) ) ;
#304 = EDGE_CURVE ( 'NONE', #273, #31, #260, .T. ) ;
#305 = AXIS2_PLACEMENT_3D ( 'NONE', #159, #12, #46 ) ;
#306 = VERTEX_POINT ( 'NONE', #195 ) ;
#307 = ADVANCED_BREP_SHAPE_REPRESENTATION ( '0f4a', ( #119, #13 ), #6 ) ;
#308 = CARTESIAN_POINT ( 'NONE',  ( 0.000000000000000000, 0.000000000000000000, 5.000000000000000000 ) ) ;
#309 = EDGE_CURVE ( 'NONE', #31, #273, #203, .T. ) ;
#310 = CARTESIAN_POINT ( 'NONE',  ( 0.000000000000000000, 0.000000000000000000, 205.0000000000000284 ) ) ;
#311 = AXIS2_PLACEMENT_3D ( 'NONE', #115, #243, #229 ) ;
#312 = ORIENTED_EDGE ( 'NONE', *, *, #41, .T. ) ;
#313 = CARTESIAN_POINT ( 'NONE',  ( 0.000000000000000000, 0.000000000000000000, 0.000000000000000000 ) ) ;
#314 = CYLINDRICAL_SURFACE ( 'NONE', #147, 7.000000000000000000 ) ;
#315 = CIRCLE ( 'NONE', #91, 2.250000000000000000 ) ;
#316 = CC_DESIGN_APPROVAL ( #27, ( #157 ) ) ;
#317 = PLANE ( 'NONE',  #226 ) ;
#318 = PERSON_AND_ORGANIZATION ( #140, #232 ) ;
#319 = VERTEX_POINT ( 'NONE', #170 ) ;
#320 = APPROVAL_STATUS ( 'not_yet_approved' ) ;
#321 = DIRECTION ( 'NONE',  ( 1.000000000000000000, 0.000000000000000000, -0.000000000000000000 ) ) ;
#322 = EDGE_LOOP ( 'NONE', ( #24, #363 ) ) ;
#323 = AXIS2_PLACEMENT_3D ( 'NONE', #335, #300, #182 ) ;
#324 = LOCAL_TIME ( 11, 10, 51.00000000000000000, #234 ) ;
#325 = CC_DESIGN_PERSON_AND_ORGANIZATION_ASSIGNMENT ( #318, #54, ( #210 ) ) ;
#326 = DIRECTION ( 'NONE',  ( 1.224646799147353207E-16, 1.000000000000000000, -0.000000000000000000 ) ) ;
#327 = ORIENTED_EDGE ( 'NONE', *, *, #333, .F. ) ;
#328 = CARTESIAN_POINT ( 'NONE',  ( -2.250000000000000000, 0.000000000000000000, 0.000000000000000000 ) ) ;
#329 = EDGE_CURVE ( 'NONE', #181, #236, #315, .T. ) ;
#330 = DIRECTION ( 'NONE',  ( 1.000000000000000000, 0.000000000000000000, -0.000000000000000000 ) ) ;
#331 = CIRCLE ( 'NONE', #180, 2.250000000000000000 ) ;
#332 = FACE_OUTER_BOUND ( 'NONE', #239, .T. ) ;
#333 = EDGE_CURVE ( 'NONE', #64, #306, #208, .T. ) ;
#334 = DIRECTION ( 'NONE',  ( -1.000000000000000000, 0.000000000000000000, 0.000000000000000000 ) ) ;
#335 = CARTESIAN_POINT ( 'NONE',  ( 4.500000000000000888, 0.000000000000000000, 5.500000000000005329 ) ) ;
#336 = ORIENTED_EDGE ( 'NONE', *, *, #309, .F. ) ;
#337 = AXIS2_PLACEMENT_3D ( 'NONE', #218, #362, #274 ) ;
#338 = CC_DESIGN_PERSON_AND_ORGANIZATION_ASSIGNMENT ( #237, #190, ( #21 ) ) ;
#339 = EDGE_CURVE ( 'NONE', #8, #136, #371, .T. ) ;
#340 = DIRECTION ( 'NONE',  ( -0.000000000000000000, -0.000000000000000000, -1.000000000000000000 ) ) ;
#341 = DIRECTION ( 'NONE',  ( -0.000000000000000000, -0.000000000000000000, -1.000000000000000000 ) ) ;
#342 = DIRECTION ( 'NONE',  ( 1.000000000000000000, 0.000000000000000000, 0.000000000000000000 ) ) ;
#343 = ORIENTED_EDGE ( 'NONE', *, *, #225, .T. ) ;
#344 = AXIS2_PLACEMENT_3D ( 'NONE', #186, #326, #184 ) ;
#345 = LOCAL_TIME ( 11, 10, 51.00000000000000000, #214 ) ;
#346 = ORIENTED_EDGE ( 'NONE', *, *, #304, .T. ) ;
#347 = APPROVAL ( #102, 'NEURÈENÝ' ) ;
#348 = CIRCLE ( 'NONE', #123, 4.000000000000000000 ) ;
#349 = EDGE_CURVE ( 'NONE', #209, #319, #252, .T. ) ;
#350 = DATE_TIME_ROLE ( 'creation_date' ) ;
#351 = LINE ( 'NONE', #26, #72 ) ;
#352 = ORIENTED_EDGE ( 'NONE', *, *, #43, .T. ) ;
#353 = PERSON_AND_ORGANIZATION ( #140, #232 ) ;
#354 = ORIENTED_EDGE ( 'NONE', *, *, #68, .F. ) ;
#355 = FACE_BOUND ( 'NONE', #79, .T. ) ;
#356 = AXIS2_PLACEMENT_3D ( 'NONE', #242, #215, #330 ) ;
#357 = CARTESIAN_POINT ( 'NONE',  ( 0.000000000000000000, 0.000000000000000000, 5.500000000000005329 ) ) ;
#358 = EDGE_LOOP ( 'NONE', ( #131, #129, #199, #270 ) ) ;
#359 = PERSON_AND_ORGANIZATION ( #140, #232 ) ;
#360 = FACE_OUTER_BOUND ( 'NONE', #156, .T. ) ;
#361 = ADVANCED_FACE ( 'NONE', ( #83 ), #81, .T. ) ;
#362 = DIRECTION ( 'NONE',  ( 0.000000000000000000, 0.000000000000000000, 1.000000000000000000 ) ) ;
#363 = ORIENTED_EDGE ( 'NONE', *, *, #18, .T. ) ;
#364 = EDGE_CURVE ( 'NONE', #98, #103, #348, .T. ) ;
#365 = CARTESIAN_POINT ( 'NONE',  ( 7.000000000000000000, 8.572527594031473190E-16, 5.000000000000000000 ) ) ;
#366 = AXIS2_PLACEMENT_3D ( 'NONE', #90, #288, #204 ) ;
#367 = CARTESIAN_POINT ( 'NONE',  ( -4.000000000000000000, 0.000000000000000000, 205.0000000000000284 ) ) ;
#368 = FACE_OUTER_BOUND ( 'NONE', #70, .T. ) ;
#369 = CARTESIAN_POINT ( 'NONE',  ( 4.000000000000000000, 4.898587196589412829E-16, 205.0000000000000284 ) ) ;
#370 = DIRECTION ( 'NONE',  ( 0.000000000000000000, 0.000000000000000000, 1.000000000000000000 ) ) ;
#371 = CIRCLE ( 'NONE', #137, 4.500000000000000888 ) ;
#372 = DIRECTION ( 'NONE',  ( 0.000000000000000000, 0.000000000000000000, 1.000000000000000000 ) ) ;
#373 = CARTESIAN_POINT ( 'NONE',  ( -4.500000000000000888, 5.510910596163088569E-16, 5.000000000000002665 ) ) ;
#374 = CIRCLE ( 'NONE', #111, 7.000000000000000000 ) ;
#375 = PERSON_AND_ORGANIZATION_ROLE ( 'creator' ) ;
#376 = CYLINDRICAL_SURFACE ( 'NONE', #301, 4.000000000000000000 ) ;
#377 = PERSON_AND_ORGANIZATION ( #140, #232 ) ;
#378 = FACE_OUTER_BOUND ( 'NONE', #10, .T. ) ;
#379 = TOROIDAL_SURFACE ( 'NONE', #267, 4.500000000000000888, 0.5000000000000000000 ) ;
#380 = CC_DESIGN_APPROVAL ( #145, ( #21 ) ) ;
#381 = DIRECTION ( 'NONE',  ( 1.000000000000000000, 0.000000000000000000, 0.000000000000000000 ) ) ;
ENDSEC;
END-ISO-10303-21;
