ISO-10303-21;
HEADER;
FILE_DESCRIPTION (( 'STEP AP203' ),
    '1' );
FILE_NAME ('ae6f.STEP',
    '2022-09-19T11:22:26',
    ( '' ),
    ( '' ),
    'SwSTEP 2.0',
    'SolidWorks 2019',
    '' );
FILE_SCHEMA (( 'CONFIG_CONTROL_DESIGN' ));
ENDSEC;

DATA;
#1 = EDGE_CURVE ( 'NONE', #137, #131, #16, .T. ) ;
#2 = AXIS2_PLACEMENT_3D ( 'NONE', #331, #206, #7 ) ;
#3 = LOCAL_TIME ( 13, 22, 26.00000000000000000, #23 ) ;
#4 = EDGE_LOOP ( 'NONE', ( #375, #240 ) ) ;
#5 = ORIENTED_EDGE ( 'NONE', *, *, #360, .F. ) ;
#6 = ADVANCED_FACE ( 'NONE', ( #160 ), #343, .F. ) ;
#7 = DIRECTION ( 'NONE',  ( 1.000000000000000000, 0.000000000000000000, 0.000000000000000000 ) ) ;
#8 = VERTEX_POINT ( 'NONE', #337 ) ;
#9 = FACE_OUTER_BOUND ( 'NONE', #253, .T. ) ;
#10 = CC_DESIGN_APPROVAL ( #88, ( #132 ) ) ;
#11 = CARTESIAN_POINT ( 'NONE',  ( 5.000000000000000000, 6.123233995736766282E-16, 327.0000000000000000 ) ) ;
#12 = VERTEX_POINT ( 'NONE', #14 ) ;
#13 = AXIS2_PLACEMENT_3D ( 'NONE', #324, #123, #361 ) ;
#14 = CARTESIAN_POINT ( 'NONE',  ( 7.700000000000001066, 0.000000000000000000, 6.999999999999992006 ) ) ;
#15 =( LENGTH_UNIT ( ) NAMED_UNIT ( * ) SI_UNIT ( .MILLI., .METRE. ) );
#16 = LINE ( 'NONE', #189, #226 ) ;
#17 = COORDINATED_UNIVERSAL_TIME_OFFSET ( 1, 0, .AHEAD. ) ;
#18 = DIRECTION ( 'NONE',  ( -1.000000000000000000, 0.000000000000000000, 0.000000000000000000 ) ) ;
#19 = FACE_OUTER_BOUND ( 'NONE', #154, .T. ) ;
#20 = AXIS2_PLACEMENT_3D ( 'NONE', #315, #47, #285 ) ;
#21 = PRODUCT_DEFINITION_FORMATION_WITH_SPECIFIED_SOURCE ( 'LIBOVOLNÝ', '', #200, .NOT_KNOWN. ) ;
#22 = APPLICATION_CONTEXT ( 'configuration controlled 3d designs of mechanical parts and assemblies' ) ;
#23 = COORDINATED_UNIVERSAL_TIME_OFFSET ( 1, 0, .AHEAD. ) ;
#24 = DIRECTION ( 'NONE',  ( 1.000000000000000000, 0.000000000000000000, 0.000000000000000000 ) ) ;
#25 = SECURITY_CLASSIFICATION_LEVEL ( 'unclassified' ) ;
#26 = DIRECTION ( 'NONE',  ( -1.000000000000000000, 0.000000000000000000, 0.000000000000000000 ) ) ;
#27 = EDGE_LOOP ( 'NONE', ( #243, #164 ) ) ;
#28 = APPROVAL_DATE_TIME ( #135, #356 ) ;
#29 = EDGE_CURVE ( 'NONE', #131, #358, #295, .T. ) ;
#30 = PLANE ( 'NONE',  #232 ) ;
#31 = TOROIDAL_SURFACE ( 'NONE', #254, 7.700000000000001066, 0.6999999999999999556 ) ;
#32 = DIRECTION ( 'NONE',  ( 0.000000000000000000, 0.000000000000000000, 1.000000000000000000 ) ) ;
#33 = ORIENTED_EDGE ( 'NONE', *, *, #277, .F. ) ;
#34 = AXIS2_PLACEMENT_3D ( 'NONE', #354, #266, #345 ) ;
#35 = EDGE_CURVE ( 'NONE', #241, #131, #234, .T. ) ;
#36 = AXIS2_PLACEMENT_3D ( 'NONE', #203, #127, #282 ) ;
#37 = DIRECTION ( 'NONE',  ( 0.000000000000000000, 0.000000000000000000, -1.000000000000000000 ) ) ;
#38 = FACE_OUTER_BOUND ( 'NONE', #247, .T. ) ;
#39 = VERTEX_POINT ( 'NONE', #133 ) ;
#40 = DIRECTION ( 'NONE',  ( 0.000000000000000000, 0.000000000000000000, -1.000000000000000000 ) ) ;
#41 = ORIENTED_EDGE ( 'NONE', *, *, #74, .T. ) ;
#42 = CIRCLE ( 'NONE', #357, 5.000000000000000000 ) ;
#43 = EDGE_LOOP ( 'NONE', ( #186, #140 ) ) ;
#44 = AXIS2_PLACEMENT_3D ( 'NONE', #307, #275, #342 ) ;
#45 = ORIENTED_EDGE ( 'NONE', *, *, #236, .F. ) ;
#46 = PERSON_AND_ORGANIZATION ( #281, #90 ) ;
#47 = DIRECTION ( 'NONE',  ( 0.000000000000000000, 0.000000000000000000, -1.000000000000000000 ) ) ;
#48 = CARTESIAN_POINT ( 'NONE',  ( 11.00000000000000000, 1.347111479062088405E-15, 7.000000000000000000 ) ) ;
#49 = COORDINATED_UNIVERSAL_TIME_OFFSET ( 1, 0, .AHEAD. ) ;
#50 = CARTESIAN_POINT ( 'NONE',  ( -11.00000000000000000, 0.000000000000000000, 0.000000000000000000 ) ) ;
#51 = CIRCLE ( 'NONE', #44, 7.000000000000000888 ) ;
#52 = APPROVAL_DATE_TIME ( #196, #136 ) ;
#53 = DIRECTION ( 'NONE',  ( 1.000000000000000000, 0.000000000000000000, -0.000000000000000000 ) ) ;
#54 = COORDINATED_UNIVERSAL_TIME_OFFSET ( 1, 0, .AHEAD. ) ;
#55 = LINE ( 'NONE', #288, #86 ) ;
#56 = DIRECTION ( 'NONE',  ( 1.000000000000000000, 0.000000000000000000, 0.000000000000000000 ) ) ;
#57 = AXIS2_PLACEMENT_3D ( 'NONE', #279, #221, #112 ) ;
#58 = ORIENTED_EDGE ( 'NONE', *, *, #236, .T. ) ;
#59 = DIRECTION ( 'NONE',  ( -0.000000000000000000, -0.000000000000000000, -1.000000000000000000 ) ) ;
#60 = ADVANCED_FACE ( 'NONE', ( #256, #368 ), #71, .T. ) ;
#61 = ORIENTED_EDGE ( 'NONE', *, *, #319, .F. ) ;
#62 = AXIS2_PLACEMENT_3D ( 'NONE', #129, #219, #340 ) ;
#63 = DIRECTION ( 'NONE',  ( 1.000000000000000000, 0.000000000000000000, 0.000000000000000000 ) ) ;
#64 = CC_DESIGN_PERSON_AND_ORGANIZATION_ASSIGNMENT ( #259, #317, ( #21 ) ) ;
#65 = ORIENTED_EDGE ( 'NONE', *, *, #229, .F. ) ;
#66 = ORIENTED_EDGE ( 'NONE', *, *, #143, .T. ) ;
#67 = CIRCLE ( 'NONE', #121, 11.00000000000000000 ) ;
#68 = EDGE_LOOP ( 'NONE', ( #276, #65, #159, #258 ) ) ;
#69 = DIRECTION ( 'NONE',  ( 1.000000000000000000, 0.000000000000000000, 0.000000000000000000 ) ) ;
#70 = EDGE_CURVE ( 'NONE', #137, #359, #51, .T. ) ;
#71 = PLANE ( 'NONE',  #57 ) ;
#72 = CARTESIAN_POINT ( 'NONE',  ( 0.000000000000000000, 0.000000000000000000, 327.0000000000000000 ) ) ;
#73 = CARTESIAN_POINT ( 'NONE',  ( 7.700000000000001066, 0.000000000000000000, 7.699999999999985079 ) ) ;
#74 = EDGE_CURVE ( 'NONE', #241, #12, #271, .T. ) ;
#75 = LOCAL_TIME ( 13, 22, 26.00000000000000000, #374 ) ;
#76 = DIRECTION ( 'NONE',  ( 0.000000000000000000, 0.000000000000000000, -1.000000000000000000 ) ) ;
#77 = CALENDAR_DATE ( 2022, 19, 9 ) ;
#78 = FACE_OUTER_BOUND ( 'NONE', #207, .T. ) ;
#79 = DIRECTION ( 'NONE',  ( 0.000000000000000000, 0.000000000000000000, 1.000000000000000000 ) ) ;
#80 = CALENDAR_DATE ( 2022, 19, 9 ) ;
#81 = CARTESIAN_POINT ( 'NONE',  ( 0.000000000000000000, 0.000000000000000000, 7.000000000000000000 ) ) ;
#82 = AXIS2_PLACEMENT_3D ( 'NONE', #245, #108, #156 ) ;
#83 = CIRCLE ( 'NONE', #13, 11.00000000000000000 ) ;
#84 = PERSON_AND_ORGANIZATION_ROLE ( 'creator' ) ;
#85 = DIRECTION ( 'NONE',  ( 0.000000000000000000, 0.000000000000000000, 1.000000000000000000 ) ) ;
#86 = VECTOR ( 'NONE', #117, 1000.000000000000000 ) ;
#87 = PERSON_AND_ORGANIZATION_ROLE ( 'design_owner' ) ;
#88 = APPROVAL ( #370, 'NEURÈENÝ' ) ;
#89 = CIRCLE ( 'NONE', #238, 11.00000000000000000 ) ;
#90 = ORGANIZATION ( 'NEURÈENÝ', 'NEURÈENÝ', '' ) ;
#91 = CARTESIAN_POINT ( 'NONE',  ( 0.000000000000000000, 0.000000000000000000, 7.000000000000000000 ) ) ;
#92 = AXIS2_PLACEMENT_3D ( 'NONE', #73, #190, #76 ) ;
#93 = VERTEX_POINT ( 'NONE', #313 ) ;
#94 = DIRECTION ( 'NONE',  ( 0.000000000000000000, 0.000000000000000000, 1.000000000000000000 ) ) ;
#95 = ORIENTED_EDGE ( 'NONE', *, *, #29, .T. ) ;
#96 = CIRCLE ( 'NONE', #218, 7.000000000000000888 ) ;
#97 = ORIENTED_EDGE ( 'NONE', *, *, #35, .T. ) ;
#98 = EDGE_CURVE ( 'NONE', #330, #305, #364, .T. ) ;
#99 = LINE ( 'NONE', #310, #268 ) ;
#100 = ORIENTED_EDGE ( 'NONE', *, *, #252, .F. ) ;
#101 = VERTEX_POINT ( 'NONE', #223 ) ;
#102 = AXIS2_PLACEMENT_3D ( 'NONE', #171, #148, #293 ) ;
#103 = CC_DESIGN_SECURITY_CLASSIFICATION ( #132, ( #21 ) ) ;
#104 = DIRECTION ( 'NONE',  ( -1.000000000000000000, 1.224646799147351975E-16, 0.000000000000000000 ) ) ;
#105 = CC_DESIGN_PERSON_AND_ORGANIZATION_ASSIGNMENT ( #376, #227, ( #132 ) ) ;
#106 = VECTOR ( 'NONE', #109, 1000.000000000000000 ) ;
#107 = ORIENTED_EDGE ( 'NONE', *, *, #220, .T. ) ;
#108 = DIRECTION ( 'NONE',  ( 0.000000000000000000, 0.000000000000000000, 1.000000000000000000 ) ) ;
#109 = DIRECTION ( 'NONE',  ( 0.000000000000000000, 0.000000000000000000, -1.000000000000000000 ) ) ;
#110 = PERSON_AND_ORGANIZATION ( #281, #90 ) ;
#111 = APPROVAL_PERSON_ORGANIZATION ( #115, #88, #292 ) ;
#112 = DIRECTION ( 'NONE',  ( 1.000000000000000000, 0.000000000000000000, -0.000000000000000000 ) ) ;
#113 = PERSON_AND_ORGANIZATION ( #281, #90 ) ;
#114 = FACE_OUTER_BOUND ( 'NONE', #303, .T. ) ;
#115 = PERSON_AND_ORGANIZATION ( #281, #90 ) ;
#116 = FACE_OUTER_BOUND ( 'NONE', #68, .T. ) ;
#117 = DIRECTION ( 'NONE',  ( -0.000000000000000000, -0.000000000000000000, -1.000000000000000000 ) ) ;
#118 = CIRCLE ( 'NONE', #204, 11.00000000000000000 ) ;
#119 = CC_DESIGN_APPROVAL ( #356, ( #21 ) ) ;
#120 = EDGE_CURVE ( 'NONE', #330, #369, #367, .T. ) ;
#121 = AXIS2_PLACEMENT_3D ( 'NONE', #91, #94, #328 ) ;
#122 = CARTESIAN_POINT ( 'NONE',  ( 7.000000000000000888, 8.572527594031474176E-16, 7.699999999999985079 ) ) ;
#123 = DIRECTION ( 'NONE',  ( 0.000000000000000000, 0.000000000000000000, 1.000000000000000000 ) ) ;
#124 = ORIENTED_EDGE ( 'NONE', *, *, #158, .F. ) ;
#125 = ORIENTED_EDGE ( 'NONE', *, *, #35, .F. ) ;
#126 = ADVANCED_FACE ( 'NONE', ( #38 ), #31, .F. ) ;
#127 = DIRECTION ( 'NONE',  ( -0.000000000000000000, -0.000000000000000000, -1.000000000000000000 ) ) ;
#128 = ORIENTED_EDGE ( 'NONE', *, *, #98, .T. ) ;
#129 = CARTESIAN_POINT ( 'NONE',  ( 0.000000000000000000, 0.000000000000000000, 7.699999999999985079 ) ) ;
#130 = EDGE_CURVE ( 'NONE', #359, #241, #55, .T. ) ;
#131 = VERTEX_POINT ( 'NONE', #347 ) ;
#132 = SECURITY_CLASSIFICATION ( '', '', #25 ) ;
#133 = CARTESIAN_POINT ( 'NONE',  ( 11.00000000000000000, 1.347111479062088405E-15, 0.000000000000000000 ) ) ;
#134 = CARTESIAN_POINT ( 'NONE',  ( 0.000000000000000000, 0.000000000000000000, 327.0000000000000000 ) ) ;
#135 = DATE_AND_TIME ( #77, #301 ) ;
#136 = APPROVAL ( #350, 'NEURÈENÝ' ) ;
#137 = VERTEX_POINT ( 'NONE', #380 ) ;
#138 =( GEOMETRIC_REPRESENTATION_CONTEXT ( 3 ) GLOBAL_UNCERTAINTY_ASSIGNED_CONTEXT ( ( #327 ) ) GLOBAL_UNIT_ASSIGNED_CONTEXT ( ( #15, #216, #306 ) ) REPRESENTATION_CONTEXT ( 'NONE', 'WORKASPACE' ) );
#139 = CARTESIAN_POINT ( 'NONE',  ( 0.000000000000000000, 0.000000000000000000, 0.000000000000000000 ) ) ;
#140 = ORIENTED_EDGE ( 'NONE', *, *, #267, .T. ) ;
#141 = CALENDAR_DATE ( 2022, 19, 9 ) ;
#142 = DIRECTION ( 'NONE',  ( 1.000000000000000000, 0.000000000000000000, 0.000000000000000000 ) ) ;
#143 = EDGE_CURVE ( 'NONE', #8, #39, #316, .T. ) ;
#144 = CALENDAR_DATE ( 2022, 19, 9 ) ;
#145 = FACE_BOUND ( 'NONE', #250, .T. ) ;
#146 = DIRECTION ( 'NONE',  ( 1.000000000000000000, 0.000000000000000000, 0.000000000000000000 ) ) ;
#147 = CYLINDRICAL_SURFACE ( 'NONE', #34, 11.00000000000000000 ) ;
#148 = DIRECTION ( 'NONE',  ( -0.000000000000000000, -0.000000000000000000, -1.000000000000000000 ) ) ;
#149 = ORIENTED_EDGE ( 'NONE', *, *, #319, .T. ) ;
#150 = CARTESIAN_POINT ( 'NONE',  ( -11.00000000000000000, 0.000000000000000000, 7.000000000000000000 ) ) ;
#151 = ORIENTED_EDGE ( 'NONE', *, *, #120, .T. ) ;
#152 = CARTESIAN_POINT ( 'NONE',  ( 0.000000000000000000, 0.000000000000000000, 327.0000000000000000 ) ) ;
#153 = ADVANCED_FACE ( 'NONE', ( #352 ), #286, .F. ) ;
#154 = EDGE_LOOP ( 'NONE', ( #298, #66, #107, #183 ) ) ;
#155 = AXIS2_PLACEMENT_3D ( 'NONE', #134, #37, #18 ) ;
#156 = DIRECTION ( 'NONE',  ( 1.000000000000000000, 0.000000000000000000, 0.000000000000000000 ) ) ;
#157 = ORIENTED_EDGE ( 'NONE', *, *, #332, .T. ) ;
#158 = EDGE_CURVE ( 'NONE', #184, #39, #118, .T. ) ;
#159 = ORIENTED_EDGE ( 'NONE', *, *, #255, .T. ) ;
#160 = FACE_OUTER_BOUND ( 'NONE', #181, .T. ) ;
#161 = DIRECTION ( 'NONE',  ( -0.000000000000000000, -0.000000000000000000, -1.000000000000000000 ) ) ;
#162 = CC_DESIGN_PERSON_AND_ORGANIZATION_ASSIGNMENT ( #379, #84, ( #21 ) ) ;
#163 = VECTOR ( 'NONE', #174, 1000.000000000000000 ) ;
#164 = ORIENTED_EDGE ( 'NONE', *, *, #252, .T. ) ;
#165 = CALENDAR_DATE ( 2022, 19, 9 ) ;
#166 = AXIS2_PLACEMENT_3D ( 'NONE', #222, #278, #69 ) ;
#167 = DIRECTION ( 'NONE',  ( 0.000000000000000000, 0.000000000000000000, 1.000000000000000000 ) ) ;
#168 = SHAPE_DEFINITION_REPRESENTATION ( #353, #296 ) ;
#169 = DIRECTION ( 'NONE',  ( -1.000000000000000000, 0.000000000000000000, 0.000000000000000000 ) ) ;
#170 = MECHANICAL_CONTEXT ( 'NONE', #22, 'mechanical' ) ;
#171 = CARTESIAN_POINT ( 'NONE',  ( 0.000000000000000000, 0.000000000000000000, 7.000000000000000000 ) ) ;
#172 = ADVANCED_FACE ( 'NONE', ( #116 ), #231, .T. ) ;
#173 = PERSON_AND_ORGANIZATION_ROLE ( 'creator' ) ;
#174 = DIRECTION ( 'NONE',  ( -0.000000000000000000, -0.000000000000000000, -1.000000000000000000 ) ) ;
#175 = AXIS2_PLACEMENT_3D ( 'NONE', #81, #318, #169 ) ;
#176 = CIRCLE ( 'NONE', #82, 7.000000000000000888 ) ;
#177 = CC_DESIGN_PERSON_AND_ORGANIZATION_ASSIGNMENT ( #110, #173, ( #180 ) ) ;
#178 = FACE_OUTER_BOUND ( 'NONE', #43, .T. ) ;
#179 = FACE_BOUND ( 'NONE', #4, .T. ) ;
#180 = PRODUCT_DEFINITION ( 'NEZNÁMÝ', '', #21, #269 ) ;
#181 = EDGE_LOOP ( 'NONE', ( #157, #128, #261, #5 ) ) ;
#182 = DIRECTION ( 'NONE',  ( 1.000000000000000000, 0.000000000000000000, 0.000000000000000000 ) ) ;
#183 = ORIENTED_EDGE ( 'NONE', *, *, #255, .F. ) ;
#184 = VERTEX_POINT ( 'NONE', #50 ) ;
#185 = ADVANCED_FACE ( 'NONE', ( #294 ), #289, .T. ) ;
#186 = ORIENTED_EDGE ( 'NONE', *, *, #229, .T. ) ;
#187 = CC_DESIGN_APPROVAL ( #136, ( #180 ) ) ;
#188 = DIRECTION ( 'NONE',  ( 0.000000000000000000, 0.000000000000000000, 1.000000000000000000 ) ) ;
#189 = CARTESIAN_POINT ( 'NONE',  ( -7.000000000000000888, 0.000000000000000000, 327.0000000000000000 ) ) ;
#190 = DIRECTION ( 'NONE',  ( 0.000000000000000000, -1.000000000000000000, 0.000000000000000000 ) ) ;
#191 = DIRECTION ( 'NONE',  ( 1.224646799147353207E-16, 1.000000000000000000, -0.000000000000000000 ) ) ;
#192 = AXIS2_PLACEMENT_3D ( 'NONE', #284, #191, #104 ) ;
#193 = APPROVAL_DATE_TIME ( #230, #88 ) ;
#194 = CYLINDRICAL_SURFACE ( 'NONE', #20, 5.000000000000000000 ) ;
#195 = ADVANCED_FACE ( 'NONE', ( #145, #114 ), #263, .F. ) ;
#196 = DATE_AND_TIME ( #165, #75 ) ;
#197 = APPROVAL_ROLE ( '' ) ;
#198 = CARTESIAN_POINT ( 'NONE',  ( 0.000000000000000000, 0.000000000000000000, 7.699999999999985079 ) ) ;
#199 = AXIS2_PLACEMENT_3D ( 'NONE', #217, #188, #309 ) ;
#200 = PRODUCT ( 'ae6f', 'ae6f', '', ( #170 ) ) ;
#201 = EDGE_CURVE ( 'NONE', #12, #358, #312, .T. ) ;
#202 = DIRECTION ( 'NONE',  ( 0.000000000000000000, 0.000000000000000000, 1.000000000000000000 ) ) ;
#203 = CARTESIAN_POINT ( 'NONE',  ( 0.000000000000000000, 0.000000000000000000, 327.0000000000000000 ) ) ;
#204 = AXIS2_PLACEMENT_3D ( 'NONE', #349, #167, #142 ) ;
#205 = CIRCLE ( 'NONE', #166, 7.700000000000001066 ) ;
#206 = DIRECTION ( 'NONE',  ( -0.000000000000000000, -0.000000000000000000, -1.000000000000000000 ) ) ;
#207 = EDGE_LOOP ( 'NONE', ( #210, #151, #248, #58 ) ) ;
#208 = ADVANCED_FACE ( 'NONE', ( #19 ), #147, .T. ) ;
#209 = EDGE_LOOP ( 'NONE', ( #211, #214 ) ) ;
#210 = ORIENTED_EDGE ( 'NONE', *, *, #98, .F. ) ;
#211 = ORIENTED_EDGE ( 'NONE', *, *, #332, .F. ) ;
#212 = LOCAL_TIME ( 13, 22, 26.00000000000000000, #54 ) ;
#213 = DIRECTION ( 'NONE',  ( 0.000000000000000000, 0.000000000000000000, 1.000000000000000000 ) ) ;
#214 = ORIENTED_EDGE ( 'NONE', *, *, #120, .F. ) ;
#215 = ADVANCED_FACE ( 'NONE', ( #78 ), #194, .F. ) ;
#216 =( NAMED_UNIT ( * ) PLANE_ANGLE_UNIT ( ) SI_UNIT ( $, .RADIAN. ) );
#217 = CARTESIAN_POINT ( 'NONE',  ( 0.000000000000000000, 0.000000000000000000, 327.0000000000000000 ) ) ;
#218 = AXIS2_PLACEMENT_3D ( 'NONE', #152, #300, #56 ) ;
#219 = DIRECTION ( 'NONE',  ( 0.000000000000000000, 0.000000000000000000, 1.000000000000000000 ) ) ;
#220 = EDGE_CURVE ( 'NONE', #39, #184, #89, .T. ) ;
#221 = DIRECTION ( 'NONE',  ( 0.000000000000000000, 0.000000000000000000, 1.000000000000000000 ) ) ;
#222 = CARTESIAN_POINT ( 'NONE',  ( 0.000000000000000000, 0.000000000000000000, 7.000000000000000000 ) ) ;
#223 = CARTESIAN_POINT ( 'NONE',  ( -5.000000000000000000, 0.000000000000000000, 0.000000000000000000 ) ) ;
#224 = DATE_TIME_ROLE ( 'creation_date' ) ;
#225 = ORIENTED_EDGE ( 'NONE', *, *, #1, .F. ) ;
#226 = VECTOR ( 'NONE', #161, 1000.000000000000000 ) ;
#227 = PERSON_AND_ORGANIZATION_ROLE ( 'classification_officer' ) ;
#228 = CARTESIAN_POINT ( 'NONE',  ( 0.000000000000000000, 0.000000000000000000, 0.000000000000000000 ) ) ;
#229 = EDGE_CURVE ( 'NONE', #93, #8, #67, .T. ) ;
#230 = DATE_AND_TIME ( #144, #239 ) ;
#231 = CYLINDRICAL_SURFACE ( 'NONE', #175, 11.00000000000000000 ) ;
#232 = AXIS2_PLACEMENT_3D ( 'NONE', #302, #32, #274 ) ;
#233 = CARTESIAN_POINT ( 'NONE',  ( 0.000000000000000000, 0.000000000000000000, 327.0000000000000000 ) ) ;
#234 = CIRCLE ( 'NONE', #62, 7.000000000000000888 ) ;
#235 = DIRECTION ( 'NONE',  ( -0.000000000000000000, -0.000000000000000000, -1.000000000000000000 ) ) ;
#236 = EDGE_CURVE ( 'NONE', #101, #305, #336, .T. ) ;
#237 = CYLINDRICAL_SURFACE ( 'NONE', #36, 7.000000000000000888 ) ;
#238 = AXIS2_PLACEMENT_3D ( 'NONE', #139, #213, #63 ) ;
#239 = LOCAL_TIME ( 13, 22, 26.00000000000000000, #49 ) ;
#240 = ORIENTED_EDGE ( 'NONE', *, *, #355, .T. ) ;
#241 = VERTEX_POINT ( 'NONE', #122 ) ;
#242 = ORIENTED_EDGE ( 'NONE', *, *, #29, .F. ) ;
#243 = ORIENTED_EDGE ( 'NONE', *, *, #70, .T. ) ;
#244 = AXIS2_PLACEMENT_3D ( 'NONE', #265, #202, #146 ) ;
#245 = CARTESIAN_POINT ( 'NONE',  ( 0.000000000000000000, 0.000000000000000000, 7.699999999999985079 ) ) ;
#246 = PRODUCT_RELATED_PRODUCT_CATEGORY ( 'detail', '', ( #200 ) ) ;
#247 = EDGE_LOOP ( 'NONE', ( #242, #125, #41, #371 ) ) ;
#248 = ORIENTED_EDGE ( 'NONE', *, *, #360, .T. ) ;
#249 = CARTESIAN_POINT ( 'NONE',  ( 5.000000000000000000, 6.123233995736766282E-16, 0.000000000000000000 ) ) ;
#250 = EDGE_LOOP ( 'NONE', ( #45, #33 ) ) ;
#251 = MANIFOLD_SOLID_BREP ( 'Odebrat vysunutím3', #325 ) ;
#252 = EDGE_CURVE ( 'NONE', #359, #137, #96, .T. ) ;
#253 = EDGE_LOOP ( 'NONE', ( #100, #283, #97, #225 ) ) ;
#254 = AXIS2_PLACEMENT_3D ( 'NONE', #321, #79, #377 ) ;
#255 = EDGE_CURVE ( 'NONE', #93, #184, #272, .T. ) ;
#256 = FACE_BOUND ( 'NONE', #209, .T. ) ;
#257 = DATE_AND_TIME ( #141, #3 ) ;
#258 = ORIENTED_EDGE ( 'NONE', *, *, #158, .T. ) ;
#259 = PERSON_AND_ORGANIZATION ( #281, #90 ) ;
#260 = DIRECTION ( 'NONE',  ( 0.000000000000000000, 0.000000000000000000, 1.000000000000000000 ) ) ;
#261 = ORIENTED_EDGE ( 'NONE', *, *, #277, .T. ) ;
#262 = APPROVAL_STATUS ( 'not_yet_approved' ) ;
#263 = PLANE ( 'NONE',  #372 ) ;
#264 = AXIS2_PLACEMENT_3D ( 'NONE', #198, #260, #24 ) ;
#265 = CARTESIAN_POINT ( 'NONE',  ( 0.000000000000000000, 0.000000000000000000, 0.000000000000000000 ) ) ;
#266 = DIRECTION ( 'NONE',  ( -0.000000000000000000, -0.000000000000000000, -1.000000000000000000 ) ) ;
#267 = EDGE_CURVE ( 'NONE', #8, #93, #83, .T. ) ;
#268 = VECTOR ( 'NONE', #40, 1000.000000000000000 ) ;
#269 = DESIGN_CONTEXT ( 'detailed design', #273, 'design' ) ;
#270 = ORIENTED_EDGE ( 'NONE', *, *, #201, .F. ) ;
#271 = CIRCLE ( 'NONE', #92, 0.7000000000000000666 ) ;
#272 = LINE ( 'NONE', #150, #338 ) ;
#273 = APPLICATION_CONTEXT ( 'configuration controlled 3d designs of mechanical parts and assemblies' ) ;
#274 = DIRECTION ( 'NONE',  ( 1.000000000000000000, 0.000000000000000000, -0.000000000000000000 ) ) ;
#275 = DIRECTION ( 'NONE',  ( 0.000000000000000000, 0.000000000000000000, 1.000000000000000000 ) ) ;
#276 = ORIENTED_EDGE ( 'NONE', *, *, #143, .F. ) ;
#277 = EDGE_CURVE ( 'NONE', #305, #101, #42, .T. ) ;
#278 = DIRECTION ( 'NONE',  ( -0.000000000000000000, -0.000000000000000000, -1.000000000000000000 ) ) ;
#279 = CARTESIAN_POINT ( 'NONE',  ( 0.000000000000000000, 0.000000000000000000, 327.0000000000000000 ) ) ;
#280 = APPROVAL_PERSON_ORGANIZATION ( #320, #136, #344 ) ;
#281 = PERSON ( 'NEURÈENÝ', 'NEURÈENÝ', 'NEURÈENÝ', ('NEURÈENÝ'), ('NEURÈENÝ'), ('NEURÈENÝ') ) ;
#282 = DIRECTION ( 'NONE',  ( -1.000000000000000000, 0.000000000000000000, 0.000000000000000000 ) ) ;
#283 = ORIENTED_EDGE ( 'NONE', *, *, #130, .T. ) ;
#284 = CARTESIAN_POINT ( 'NONE',  ( -7.700000000000001066, 9.429780353434621002E-16, 7.699999999999985079 ) ) ;
#285 = DIRECTION ( 'NONE',  ( -1.000000000000000000, 0.000000000000000000, 0.000000000000000000 ) ) ;
#286 = TOROIDAL_SURFACE ( 'NONE', #264, 7.700000000000001066, 0.6999999999999999556 ) ;
#287 = DATE_AND_TIME ( #80, #212 ) ;
#288 = CARTESIAN_POINT ( 'NONE',  ( 7.000000000000000888, 8.572527594031474176E-16, 327.0000000000000000 ) ) ;
#289 = CYLINDRICAL_SURFACE ( 'NONE', #323, 7.000000000000000888 ) ;
#290 = ORIENTED_EDGE ( 'NONE', *, *, #1, .T. ) ;
#291 = ADVANCED_FACE ( 'NONE', ( #179, #178 ), #30, .T. ) ;
#292 = APPROVAL_ROLE ( '' ) ;
#293 = DIRECTION ( 'NONE',  ( 1.000000000000000000, 0.000000000000000000, 0.000000000000000000 ) ) ;
#294 = FACE_OUTER_BOUND ( 'NONE', #329, .T. ) ;
#295 = CIRCLE ( 'NONE', #192, 0.7000000000000000666 ) ;
#296 = ADVANCED_BREP_SHAPE_REPRESENTATION ( 'ae6f', ( #251, #244 ), #138 ) ;
#297 = CARTESIAN_POINT ( 'NONE',  ( 0.000000000000000000, 0.000000000000000000, 0.000000000000000000 ) ) ;
#298 = ORIENTED_EDGE ( 'NONE', *, *, #267, .F. ) ;
#299 = ORIENTED_EDGE ( 'NONE', *, *, #70, .F. ) ;
#300 = DIRECTION ( 'NONE',  ( 0.000000000000000000, 0.000000000000000000, 1.000000000000000000 ) ) ;
#301 = LOCAL_TIME ( 13, 22, 26.00000000000000000, #17 ) ;
#302 = CARTESIAN_POINT ( 'NONE',  ( 0.000000000000000000, 0.000000000000000000, 7.000000000000000000 ) ) ;
#303 = EDGE_LOOP ( 'NONE', ( #124, #334 ) ) ;
#304 = ADVANCED_FACE ( 'NONE', ( #9 ), #237, .T. ) ;
#305 = VERTEX_POINT ( 'NONE', #249 ) ;
#306 =( NAMED_UNIT ( * ) SI_UNIT ( $, .STERADIAN. ) SOLID_ANGLE_UNIT ( ) );
#307 = CARTESIAN_POINT ( 'NONE',  ( 0.000000000000000000, 0.000000000000000000, 327.0000000000000000 ) ) ;
#308 = AXIS2_PLACEMENT_3D ( 'NONE', #72, #339, #366 ) ;
#309 = DIRECTION ( 'NONE',  ( 1.000000000000000000, 0.000000000000000000, 0.000000000000000000 ) ) ;
#310 = CARTESIAN_POINT ( 'NONE',  ( -5.000000000000000000, 0.000000000000000000, 327.0000000000000000 ) ) ;
#311 = ORIENTED_EDGE ( 'NONE', *, *, #130, .F. ) ;
#312 = CIRCLE ( 'NONE', #102, 7.700000000000001066 ) ;
#313 = CARTESIAN_POINT ( 'NONE',  ( -11.00000000000000000, 0.000000000000000000, 7.000000000000000000 ) ) ;
#314 = CC_DESIGN_DATE_AND_TIME_ASSIGNMENT ( #257, #348, ( #132 ) ) ;
#315 = CARTESIAN_POINT ( 'NONE',  ( 0.000000000000000000, 0.000000000000000000, 327.0000000000000000 ) ) ;
#316 = LINE ( 'NONE', #48, #163 ) ;
#317 = PERSON_AND_ORGANIZATION_ROLE ( 'design_supplier' ) ;
#318 = DIRECTION ( 'NONE',  ( -0.000000000000000000, -0.000000000000000000, -1.000000000000000000 ) ) ;
#319 = EDGE_CURVE ( 'NONE', #131, #241, #176, .T. ) ;
#320 = PERSON_AND_ORGANIZATION ( #281, #90 ) ;
#321 = CARTESIAN_POINT ( 'NONE',  ( 0.000000000000000000, 0.000000000000000000, 7.699999999999985079 ) ) ;
#322 = APPLICATION_PROTOCOL_DEFINITION ( 'international standard', 'config_control_design', 1994, #22 ) ;
#323 = AXIS2_PLACEMENT_3D ( 'NONE', #233, #235, #26 ) ;
#324 = CARTESIAN_POINT ( 'NONE',  ( 0.000000000000000000, 0.000000000000000000, 7.000000000000000000 ) ) ;
#325 = CLOSED_SHELL ( 'NONE', ( #6, #153, #304, #208, #172, #291, #195, #185, #60, #126, #215 ) ) ;
#326 = DIRECTION ( 'NONE',  ( -0.000000000000000000, -0.000000000000000000, -1.000000000000000000 ) ) ;
#327 = UNCERTAINTY_MEASURE_WITH_UNIT (LENGTH_MEASURE( 1.000000000000000082E-05 ), #15, 'distance_accuracy_value', 'NONE');
#328 = DIRECTION ( 'NONE',  ( 1.000000000000000000, 0.000000000000000000, 0.000000000000000000 ) ) ;
#329 = EDGE_LOOP ( 'NONE', ( #311, #299, #290, #149 ) ) ;
#330 = VERTEX_POINT ( 'NONE', #335 ) ;
#331 = CARTESIAN_POINT ( 'NONE',  ( 0.000000000000000000, 0.000000000000000000, 0.000000000000000000 ) ) ;
#332 = EDGE_CURVE ( 'NONE', #369, #330, #373, .T. ) ;
#333 = CARTESIAN_POINT ( 'NONE',  ( -5.000000000000000000, 0.000000000000000000, 327.0000000000000000 ) ) ;
#334 = ORIENTED_EDGE ( 'NONE', *, *, #220, .F. ) ;
#335 = CARTESIAN_POINT ( 'NONE',  ( 5.000000000000000000, 6.123233995736766282E-16, 327.0000000000000000 ) ) ;
#336 = CIRCLE ( 'NONE', #2, 5.000000000000000000 ) ;
#337 = CARTESIAN_POINT ( 'NONE',  ( 11.00000000000000000, 1.347111479062088405E-15, 7.000000000000000000 ) ) ;
#338 = VECTOR ( 'NONE', #59, 1000.000000000000000 ) ;
#339 = DIRECTION ( 'NONE',  ( 0.000000000000000000, 0.000000000000000000, 1.000000000000000000 ) ) ;
#340 = DIRECTION ( 'NONE',  ( 1.000000000000000000, 0.000000000000000000, 0.000000000000000000 ) ) ;
#341 = CARTESIAN_POINT ( 'NONE',  ( 7.000000000000000888, 8.572527594031474176E-16, 327.0000000000000000 ) ) ;
#342 = DIRECTION ( 'NONE',  ( 1.000000000000000000, 0.000000000000000000, 0.000000000000000000 ) ) ;
#343 = CYLINDRICAL_SURFACE ( 'NONE', #155, 5.000000000000000000 ) ;
#344 = APPROVAL_ROLE ( '' ) ;
#345 = DIRECTION ( 'NONE',  ( -1.000000000000000000, 0.000000000000000000, 0.000000000000000000 ) ) ;
#346 = APPLICATION_PROTOCOL_DEFINITION ( 'international standard', 'config_control_design', 1994, #273 ) ;
#347 = CARTESIAN_POINT ( 'NONE',  ( -7.000000000000000888, 0.000000000000000000, 7.699999999999985079 ) ) ;
#348 = DATE_TIME_ROLE ( 'classification_date' ) ;
#349 = CARTESIAN_POINT ( 'NONE',  ( 0.000000000000000000, 0.000000000000000000, 0.000000000000000000 ) ) ;
#350 = APPROVAL_STATUS ( 'not_yet_approved' ) ;
#351 = CC_DESIGN_PERSON_AND_ORGANIZATION_ASSIGNMENT ( #46, #87, ( #200 ) ) ;
#352 = FACE_OUTER_BOUND ( 'NONE', #362, .T. ) ;
#353 = PRODUCT_DEFINITION_SHAPE ( 'NONE', 'NONE',  #180 ) ;
#354 = CARTESIAN_POINT ( 'NONE',  ( 0.000000000000000000, 0.000000000000000000, 7.000000000000000000 ) ) ;
#355 = EDGE_CURVE ( 'NONE', #358, #12, #205, .T. ) ;
#356 = APPROVAL ( #262, 'NEURÈENÝ' ) ;
#357 = AXIS2_PLACEMENT_3D ( 'NONE', #297, #326, #182 ) ;
#358 = VERTEX_POINT ( 'NONE', #363 ) ;
#359 = VERTEX_POINT ( 'NONE', #341 ) ;
#360 = EDGE_CURVE ( 'NONE', #369, #101, #99, .T. ) ;
#361 = DIRECTION ( 'NONE',  ( 1.000000000000000000, 0.000000000000000000, 0.000000000000000000 ) ) ;
#362 = EDGE_LOOP ( 'NONE', ( #61, #95, #270, #365 ) ) ;
#363 = CARTESIAN_POINT ( 'NONE',  ( -7.700000000000001066, 9.429780353434621002E-16, 6.999999999999992006 ) ) ;
#364 = LINE ( 'NONE', #11, #106 ) ;
#365 = ORIENTED_EDGE ( 'NONE', *, *, #74, .F. ) ;
#366 = DIRECTION ( 'NONE',  ( 1.000000000000000000, 0.000000000000000000, 0.000000000000000000 ) ) ;
#367 = CIRCLE ( 'NONE', #199, 5.000000000000000000 ) ;
#368 = FACE_OUTER_BOUND ( 'NONE', #27, .T. ) ;
#369 = VERTEX_POINT ( 'NONE', #333 ) ;
#370 = APPROVAL_STATUS ( 'not_yet_approved' ) ;
#371 = ORIENTED_EDGE ( 'NONE', *, *, #355, .F. ) ;
#372 = AXIS2_PLACEMENT_3D ( 'NONE', #228, #85, #53 ) ;
#373 = CIRCLE ( 'NONE', #308, 5.000000000000000000 ) ;
#374 = COORDINATED_UNIVERSAL_TIME_OFFSET ( 1, 0, .AHEAD. ) ;
#375 = ORIENTED_EDGE ( 'NONE', *, *, #201, .T. ) ;
#376 = PERSON_AND_ORGANIZATION ( #281, #90 ) ;
#377 = DIRECTION ( 'NONE',  ( 1.000000000000000000, 0.000000000000000000, 0.000000000000000000 ) ) ;
#378 = CC_DESIGN_DATE_AND_TIME_ASSIGNMENT ( #287, #224, ( #180 ) ) ;
#379 = PERSON_AND_ORGANIZATION ( #281, #90 ) ;
#380 = CARTESIAN_POINT ( 'NONE',  ( -7.000000000000000888, 0.000000000000000000, 327.0000000000000000 ) ) ;
#381 = APPROVAL_PERSON_ORGANIZATION ( #113, #356, #197 ) ;
ENDSEC;
END-ISO-10303-21;
