ISO-10303-21;
HEADER;
FILE_DESCRIPTION (( 'STEP AP203' ),
    '1' );
FILE_NAME ('d63a.STEP',
    '2022-07-10T09:04:29',
    ( '' ),
    ( '' ),
    'SwSTEP 2.0',
    'SolidWorks 2019',
    '' );
FILE_SCHEMA (( 'CONFIG_CONTROL_DESIGN' ));
ENDSEC;

DATA;
#1 = EDGE_CURVE ( 'NONE', #190, #74, #281, .T. ) ;
#2 = DIRECTION ( 'NONE',  ( 0.000000000000000000, 0.000000000000000000, 1.000000000000000000 ) ) ;
#3 = ORIENTED_EDGE ( 'NONE', *, *, #30, .F. ) ;
#4 = DIRECTION ( 'NONE',  ( -1.000000000000000000, 0.000000000000000000, 0.000000000000000000 ) ) ;
#5 = EDGE_LOOP ( 'NONE', ( #195, #52, #362, #332 ) ) ;
#6 = LINE ( 'NONE', #112, #165 ) ;
#7 = EDGE_CURVE ( 'NONE', #46, #153, #139, .T. ) ;
#8 = ORIENTED_EDGE ( 'NONE', *, *, #200, .F. ) ;
#9 =( NAMED_UNIT ( * ) PLANE_ANGLE_UNIT ( ) SI_UNIT ( $, .RADIAN. ) );
#10 = ORIENTED_EDGE ( 'NONE', *, *, #204, .T. ) ;
#11 = PERSON_AND_ORGANIZATION ( #239, #135 ) ;
#12 = CARTESIAN_POINT ( 'NONE',  ( 0.000000000000000000, 0.000000000000000000, 7.000000000000000000 ) ) ;
#13 = SECURITY_CLASSIFICATION_LEVEL ( 'unclassified' ) ;
#14 = EDGE_LOOP ( 'NONE', ( #17, #129, #182, #76 ) ) ;
#15 = ORIENTED_EDGE ( 'NONE', *, *, #168, .T. ) ;
#16 = CARTESIAN_POINT ( 'NONE',  ( -6.700000000000001066, 8.205133554287267548E-16, 7.699999999999998401 ) ) ;
#17 = ORIENTED_EDGE ( 'NONE', *, *, #301, .F. ) ;
#18 = EDGE_CURVE ( 'NONE', #218, #128, #360, .T. ) ;
#19 = CC_DESIGN_APPROVAL ( #142, ( #105 ) ) ;
#20 = CARTESIAN_POINT ( 'NONE',  ( -6.000000000000000888, 0.000000000000000000, 107.0000000000000142 ) ) ;
#21 = LINE ( 'NONE', #377, #143 ) ;
#22 = AXIS2_PLACEMENT_3D ( 'NONE', #12, #251, #100 ) ;
#23 = FACE_BOUND ( 'NONE', #70, .T. ) ;
#24 = APPROVAL_PERSON_ORGANIZATION ( #191, #56, #48 ) ;
#25 = DIRECTION ( 'NONE',  ( -1.000000000000000000, 0.000000000000000000, 0.000000000000000000 ) ) ;
#26 = DIRECTION ( 'NONE',  ( -0.000000000000000000, -0.000000000000000000, -1.000000000000000000 ) ) ;
#27 = AXIS2_PLACEMENT_3D ( 'NONE', #155, #275, #215 ) ;
#28 = CYLINDRICAL_SURFACE ( 'NONE', #330, 10.00000000000000000 ) ;
#29 = ORIENTED_EDGE ( 'NONE', *, *, #204, .F. ) ;
#30 = EDGE_CURVE ( 'NONE', #116, #190, #273, .T. ) ;
#32 = AXIS2_PLACEMENT_3D ( 'NONE', #203, #321, #25 ) ;
#31 = CYLINDRICAL_SURFACE ( 'NONE', #47, 4.000000000000000000 ) ;
#33 = CIRCLE ( 'NONE', #115, 6.000000000000000888 ) ;
#34 = ORIENTED_EDGE ( 'NONE', *, *, #18, .T. ) ;
#35 = DIRECTION ( 'NONE',  ( 1.000000000000000000, 0.000000000000000000, 0.000000000000000000 ) ) ;
#36 = EDGE_CURVE ( 'NONE', #116, #265, #196, .T. ) ;
#37 = DIRECTION ( 'NONE',  ( 1.000000000000000000, 0.000000000000000000, 0.000000000000000000 ) ) ;
#38 = ADVANCED_BREP_SHAPE_REPRESENTATION ( 'd63a', ( #179, #308 ), #213 ) ;
#39 = DIRECTION ( 'NONE',  ( 1.000000000000000000, 0.000000000000000000, 0.000000000000000000 ) ) ;
#40 = CARTESIAN_POINT ( 'NONE',  ( 0.000000000000000000, 0.000000000000000000, 0.000000000000000000 ) ) ;
#41 = ORIENTED_EDGE ( 'NONE', *, *, #259, .F. ) ;
#42 = DIRECTION ( 'NONE',  ( 1.000000000000000000, 0.000000000000000000, 0.000000000000000000 ) ) ;
#43 = DESIGN_CONTEXT ( 'detailed design', #354, 'design' ) ;
#44 = ADVANCED_FACE ( 'NONE', ( #340 ), #227, .F. ) ;
#45 = DIRECTION ( 'NONE',  ( 0.000000000000000000, 0.000000000000000000, 1.000000000000000000 ) ) ;
#46 = VERTEX_POINT ( 'NONE', #258 ) ;
#47 = AXIS2_PLACEMENT_3D ( 'NONE', #295, #291, #4 ) ;
#48 = APPROVAL_ROLE ( '' ) ;
#49 = EDGE_LOOP ( 'NONE', ( #174, #302 ) ) ;
#50 = APPROVAL_DATE_TIME ( #277, #72 ) ;
#51 = CC_DESIGN_PERSON_AND_ORGANIZATION_ASSIGNMENT ( #11, #79, ( #54 ) ) ;
#52 = ORIENTED_EDGE ( 'NONE', *, *, #124, .F. ) ;
#53 = CARTESIAN_POINT ( 'NONE',  ( 0.000000000000000000, 0.000000000000000000, 107.0000000000000142 ) ) ;
#54 = PRODUCT_DEFINITION_FORMATION_WITH_SPECIFIED_SOURCE ( 'LIBOVOLNÝ', '', #318, .NOT_KNOWN. ) ;
#55 = DIRECTION ( 'NONE',  ( 0.000000000000000000, 0.000000000000000000, 1.000000000000000000 ) ) ;
#56 = APPROVAL ( #309, 'NEURÈENÝ' ) ;
#57 = CARTESIAN_POINT ( 'NONE',  ( -6.700000000000001066, 8.205133554287267548E-16, 6.999999999999999112 ) ) ;
#58 = CLOSED_SHELL ( 'NONE', ( #279, #78, #209, #243, #180, #235, #263, #219, #222, #66, #44 ) ) ;
#59 = DIRECTION ( 'NONE',  ( 0.000000000000000000, 0.000000000000000000, -1.000000000000000000 ) ) ;
#60 = FACE_OUTER_BOUND ( 'NONE', #282, .T. ) ;
#61 = CC_DESIGN_DATE_AND_TIME_ASSIGNMENT ( #71, #75, ( #356 ) ) ;
#62 = CARTESIAN_POINT ( 'NONE',  ( -10.00000000000000000, 0.000000000000000000, 7.000000000000000000 ) ) ;
#63 = EDGE_LOOP ( 'NONE', ( #304, #278, #34, #141 ) ) ;
#64 = CARTESIAN_POINT ( 'NONE',  ( 6.700000000000001066, 0.000000000000000000, 6.999999999999999112 ) ) ;
#65 = ORIENTED_EDGE ( 'NONE', *, *, #30, .T. ) ;
#66 = ADVANCED_FACE ( 'NONE', ( #379 ), #233, .F. ) ;
#67 = CARTESIAN_POINT ( 'NONE',  ( 0.000000000000000000, 0.000000000000000000, 7.000000000000000000 ) ) ;
#68 = DIRECTION ( 'NONE',  ( -0.000000000000000000, -0.000000000000000000, -1.000000000000000000 ) ) ;
#69 = SHAPE_DEFINITION_REPRESENTATION ( #171, #38 ) ;
#70 = EDGE_LOOP ( 'NONE', ( #193, #242 ) ) ;
#71 = DATE_AND_TIME ( #335, #130 ) ;
#72 = APPROVAL ( #156, 'NEURÈENÝ' ) ;
#73 = ORIENTED_EDGE ( 'NONE', *, *, #252, .F. ) ;
#74 = VERTEX_POINT ( 'NONE', #57 ) ;
#75 = DATE_TIME_ROLE ( 'classification_date' ) ;
#76 = ORIENTED_EDGE ( 'NONE', *, *, #376, .F. ) ;
#77 = CC_DESIGN_APPROVAL ( #56, ( #356 ) ) ;
#78 = ADVANCED_FACE ( 'NONE', ( #60 ), #104, .F. ) ;
#79 = PERSON_AND_ORGANIZATION_ROLE ( 'design_supplier' ) ;
#80 = EDGE_LOOP ( 'NONE', ( #10, #310 ) ) ;
#81 = CARTESIAN_POINT ( 'NONE',  ( 0.000000000000000000, 0.000000000000000000, 107.0000000000000142 ) ) ;
#82 = CIRCLE ( 'NONE', #292, 6.000000000000000888 ) ;
#83 = DIRECTION ( 'NONE',  ( -1.000000000000000000, 0.000000000000000000, 0.000000000000000000 ) ) ;
#84 = DIRECTION ( 'NONE',  ( 1.000000000000000000, 0.000000000000000000, -0.000000000000000000 ) ) ;
#85 = DIRECTION ( 'NONE',  ( 0.000000000000000000, 0.000000000000000000, 1.000000000000000000 ) ) ;
#86 = DIRECTION ( 'NONE',  ( -0.000000000000000000, -0.000000000000000000, -1.000000000000000000 ) ) ;
#87 = CARTESIAN_POINT ( 'NONE',  ( 0.000000000000000000, 0.000000000000000000, 7.000000000000000000 ) ) ;
#88 = ORIENTED_EDGE ( 'NONE', *, *, #365, .T. ) ;
#89 = DIRECTION ( 'NONE',  ( 0.000000000000000000, 0.000000000000000000, 1.000000000000000000 ) ) ;
#91 = FACE_OUTER_BOUND ( 'NONE', #14, .T. ) ;
#90 = CIRCLE ( 'NONE', #224, 4.000000000000000000 ) ;
#92 = AXIS2_PLACEMENT_3D ( 'NONE', #109, #234, #93 ) ;
#93 = DIRECTION ( 'NONE',  ( 1.000000000000000000, 0.000000000000000000, 0.000000000000000000 ) ) ;
#94 = COORDINATED_UNIVERSAL_TIME_OFFSET ( 1, 0, .AHEAD. ) ;
#95 = DIRECTION ( 'NONE',  ( 0.000000000000000000, 0.000000000000000000, 1.000000000000000000 ) ) ;
#96 = VECTOR ( 'NONE', #173, 1000.000000000000000 ) ;
#97 = DIRECTION ( 'NONE',  ( -0.000000000000000000, -0.000000000000000000, -1.000000000000000000 ) ) ;
#98 = VERTEX_POINT ( 'NONE', #20 ) ;
#99 = CC_DESIGN_DATE_AND_TIME_ASSIGNMENT ( #303, #154, ( #105 ) ) ;
#100 = DIRECTION ( 'NONE',  ( 1.000000000000000000, 0.000000000000000000, 0.000000000000000000 ) ) ;
#101 = AXIS2_PLACEMENT_3D ( 'NONE', #197, #167, #286 ) ;
#102 = CARTESIAN_POINT ( 'NONE',  ( 0.000000000000000000, 0.000000000000000000, 0.000000000000000000 ) ) ;
#103 = FACE_OUTER_BOUND ( 'NONE', #368, .T. ) ;
#104 = TOROIDAL_SURFACE ( 'NONE', #296, 6.700000000000001066, 0.6999999999999999556 ) ;
#105 = PRODUCT_DEFINITION ( 'NEZNÁMÝ', '', #54, #43 ) ;
#106 = CARTESIAN_POINT ( 'NONE',  ( -4.000000000000000000, 0.000000000000000000, 107.0000000000000142 ) ) ;
#107 = PLANE ( 'NONE',  #288 ) ;
#108 = DIRECTION ( 'NONE',  ( 1.000000000000000000, 0.000000000000000000, 0.000000000000000000 ) ) ;
#109 = CARTESIAN_POINT ( 'NONE',  ( 0.000000000000000000, 0.000000000000000000, 7.000000000000000000 ) ) ;
#110 = CIRCLE ( 'NONE', #207, 10.00000000000000000 ) ;
#111 = CARTESIAN_POINT ( 'NONE',  ( 0.000000000000000000, 0.000000000000000000, 0.000000000000000000 ) ) ;
#112 = CARTESIAN_POINT ( 'NONE',  ( 4.000000000000000000, 4.898587196589411843E-16, 107.0000000000000142 ) ) ;
#113 = VERTEX_POINT ( 'NONE', #106 ) ;
#115 = AXIS2_PLACEMENT_3D ( 'NONE', #380, #350, #37 ) ;
#114 = DIRECTION ( 'NONE',  ( 1.000000000000000000, 0.000000000000000000, 0.000000000000000000 ) ) ;
#116 = VERTEX_POINT ( 'NONE', #342 ) ;
#117 =( NAMED_UNIT ( * ) SI_UNIT ( $, .STERADIAN. ) SOLID_ANGLE_UNIT ( ) );
#118 = APPLICATION_PROTOCOL_DEFINITION ( 'international standard', 'config_control_design', 1994, #354 ) ;
#119 = EDGE_LOOP ( 'NONE', ( #336, #88, #15, #157 ) ) ;
#120 = CIRCLE ( 'NONE', #343, 6.700000000000001066 ) ;
#121 = ORIENTED_EDGE ( 'NONE', *, *, #1, .F. ) ;
#122 = CC_DESIGN_APPROVAL ( #72, ( #54 ) ) ;
#123 = PERSON_AND_ORGANIZATION ( #239, #135 ) ;
#124 = EDGE_CURVE ( 'NONE', #98, #381, #127, .T. ) ;
#125 = ORIENTED_EDGE ( 'NONE', *, *, #7, .F. ) ;
#126 = APPROVAL_ROLE ( '' ) ;
#127 = CIRCLE ( 'NONE', #175, 6.000000000000000888 ) ;
#128 = VERTEX_POINT ( 'NONE', #133 ) ;
#129 = ORIENTED_EDGE ( 'NONE', *, *, #229, .T. ) ;
#130 = LOCAL_TIME ( 11, 4, 29.00000000000000000, #361 ) ;
#131 = CARTESIAN_POINT ( 'NONE',  ( 0.000000000000000000, 0.000000000000000000, 107.0000000000000142 ) ) ;
#132 = CC_DESIGN_PERSON_AND_ORGANIZATION_ASSIGNMENT ( #183, #211, ( #318 ) ) ;
#133 = CARTESIAN_POINT ( 'NONE',  ( -4.000000000000000000, 0.000000000000000000, 0.000000000000000000 ) ) ;
#134 = CARTESIAN_POINT ( 'NONE',  ( 0.000000000000000000, 0.000000000000000000, 0.000000000000000000 ) ) ;
#135 = ORGANIZATION ( 'NEURÈENÝ', 'NEURÈENÝ', '' ) ;
#136 = PRODUCT_RELATED_PRODUCT_CATEGORY ( 'detail', '', ( #318 ) ) ;
#137 = DIRECTION ( 'NONE',  ( -0.000000000000000000, -0.000000000000000000, -1.000000000000000000 ) ) ;
#138 = DIRECTION ( 'NONE',  ( 0.000000000000000000, 0.000000000000000000, -1.000000000000000000 ) ) ;
#139 = CIRCLE ( 'NONE', #22, 10.00000000000000000 ) ;
#140 = FACE_OUTER_BOUND ( 'NONE', #63, .T. ) ;
#141 = ORIENTED_EDGE ( 'NONE', *, *, #168, .F. ) ;
#142 = APPROVAL ( #338, 'NEURÈENÝ' ) ;
#143 = VECTOR ( 'NONE', #138, 1000.000000000000000 ) ;
#144 = APPROVAL_PERSON_ORGANIZATION ( #333, #142, #245 ) ;
#145 = LINE ( 'NONE', #238, #158 ) ;
#146 = ORIENTED_EDGE ( 'NONE', *, *, #341, .F. ) ;
#147 = DIRECTION ( 'NONE',  ( 0.000000000000000000, 0.000000000000000000, 1.000000000000000000 ) ) ;
#148 = AXIS2_PLACEMENT_3D ( 'NONE', #53, #59, #284 ) ;
#149 = CARTESIAN_POINT ( 'NONE',  ( 0.000000000000000000, 0.000000000000000000, 107.0000000000000142 ) ) ;
#151 = AXIS2_PLACEMENT_3D ( 'NONE', #87, #89, #232 ) ;
#150 = DIRECTION ( 'NONE',  ( 1.000000000000000000, 0.000000000000000000, -0.000000000000000000 ) ) ;
#152 = MECHANICAL_CONTEXT ( 'NONE', #357, 'mechanical' ) ;
#153 = VERTEX_POINT ( 'NONE', #314 ) ;
#154 = DATE_TIME_ROLE ( 'creation_date' ) ;
#155 = CARTESIAN_POINT ( 'NONE',  ( 6.700000000000001066, 0.000000000000000000, 7.699999999999998401 ) ) ;
#156 = APPROVAL_STATUS ( 'not_yet_approved' ) ;
#157 = ORIENTED_EDGE ( 'NONE', *, *, #259, .T. ) ;
#158 = VECTOR ( 'NONE', #86, 1000.000000000000000 ) ;
#159 = COORDINATED_UNIVERSAL_TIME_OFFSET ( 1, 0, .AHEAD. ) ;
#160 = EDGE_LOOP ( 'NONE', ( #271, #298 ) ) ;
#161 = APPROVAL_DATE_TIME ( #194, #56 ) ;
#162 = ORIENTED_EDGE ( 'NONE', *, *, #36, .F. ) ;
#163 = DIRECTION ( 'NONE',  ( 0.000000000000000000, 0.000000000000000000, 1.000000000000000000 ) ) ;
#164 = EDGE_CURVE ( 'NONE', #113, #280, #313, .T. ) ;
#165 = VECTOR ( 'NONE', #230, 1000.000000000000000 ) ;
#166 = DIRECTION ( 'NONE',  ( 0.000000000000000000, 0.000000000000000000, 1.000000000000000000 ) ) ;
#167 = DIRECTION ( 'NONE',  ( -0.000000000000000000, -0.000000000000000000, -1.000000000000000000 ) ) ;
#168 = EDGE_CURVE ( 'NONE', #113, #128, #21, .T. ) ;
#169 = DIRECTION ( 'NONE',  ( 0.000000000000000000, 0.000000000000000000, 1.000000000000000000 ) ) ;
#170 = CIRCLE ( 'NONE', #299, 10.00000000000000000 ) ;
#171 = PRODUCT_DEFINITION_SHAPE ( 'NONE', 'NONE',  #105 ) ;
#172 = DIRECTION ( 'NONE',  ( 0.000000000000000000, 0.000000000000000000, 1.000000000000000000 ) ) ;
#173 = DIRECTION ( 'NONE',  ( -0.000000000000000000, -0.000000000000000000, -1.000000000000000000 ) ) ;
#174 = ORIENTED_EDGE ( 'NONE', *, *, #7, .T. ) ;
#175 = AXIS2_PLACEMENT_3D ( 'NONE', #373, #198, #285 ) ;
#176 = CARTESIAN_POINT ( 'NONE',  ( 10.00000000000000000, 1.224646799147353256E-15, 7.000000000000000000 ) ) ;
#177 = FACE_BOUND ( 'NONE', #339, .T. ) ;
#178 = DIRECTION ( 'NONE',  ( -1.000000000000000000, 0.000000000000000000, 0.000000000000000000 ) ) ;
#179 = MANIFOLD_SOLID_BREP ( 'Odebrat vysunutím3', #58 ) ;
#180 = ADVANCED_FACE ( 'NONE', ( #103 ), #221, .T. ) ;
#181 = CARTESIAN_POINT ( 'NONE',  ( 0.000000000000000000, 0.000000000000000000, 0.000000000000000000 ) ) ;
#182 = ORIENTED_EDGE ( 'NONE', *, *, #188, .T. ) ;
#184 = CIRCLE ( 'NONE', #92, 6.700000000000001066 ) ;
#183 = PERSON_AND_ORGANIZATION ( #239, #135 ) ;
#185 = CARTESIAN_POINT ( 'NONE',  ( 0.000000000000000000, 0.000000000000000000, 7.699999999999998401 ) ) ;
#186 = DIRECTION ( 'NONE',  ( 1.000000000000000000, 0.000000000000000000, 0.000000000000000000 ) ) ;
#187 = EDGE_LOOP ( 'NONE', ( #8, #352, #65, #253 ) ) ;
#188 = EDGE_CURVE ( 'NONE', #290, #246, #199, .T. ) ;
#189 = DATE_AND_TIME ( #270, #322 ) ;
#190 = VERTEX_POINT ( 'NONE', #378 ) ;
#191 = PERSON_AND_ORGANIZATION ( #239, #135 ) ;
#192 = AXIS2_PLACEMENT_3D ( 'NONE', #345, #137, #83 ) ;
#193 = ORIENTED_EDGE ( 'NONE', *, *, #164, .F. ) ;
#194 = DATE_AND_TIME ( #369, #237 ) ;
#195 = ORIENTED_EDGE ( 'NONE', *, *, #293, .F. ) ;
#196 = CIRCLE ( 'NONE', #27, 0.7000000000000000666 ) ;
#197 = CARTESIAN_POINT ( 'NONE',  ( 0.000000000000000000, 0.000000000000000000, 107.0000000000000142 ) ) ;
#198 = DIRECTION ( 'NONE',  ( 0.000000000000000000, 0.000000000000000000, 1.000000000000000000 ) ) ;
#199 = CIRCLE ( 'NONE', #244, 10.00000000000000000 ) ;
#200 = EDGE_CURVE ( 'NONE', #381, #98, #82, .T. ) ;
#201 = LINE ( 'NONE', #176, #261 ) ;
#202 = AXIS2_PLACEMENT_3D ( 'NONE', #16, #366, #370 ) ;
#203 = CARTESIAN_POINT ( 'NONE',  ( 0.000000000000000000, 0.000000000000000000, 7.000000000000000000 ) ) ;
#204 = EDGE_CURVE ( 'NONE', #265, #74, #120, .T. ) ;
#205 = DIRECTION ( 'NONE',  ( -0.000000000000000000, -0.000000000000000000, -1.000000000000000000 ) ) ;
#206 = DIRECTION ( 'NONE',  ( 0.000000000000000000, 0.000000000000000000, 1.000000000000000000 ) ) ;
#207 = AXIS2_PLACEMENT_3D ( 'NONE', #324, #147, #35 ) ;
#208 = DIRECTION ( 'NONE',  ( -0.000000000000000000, -0.000000000000000000, -1.000000000000000000 ) ) ;
#209 = ADVANCED_FACE ( 'NONE', ( #374 ), #220, .T. ) ;
#210 = LINE ( 'NONE', #294, #283 ) ;
#211 = PERSON_AND_ORGANIZATION_ROLE ( 'design_owner' ) ;
#213 =( GEOMETRIC_REPRESENTATION_CONTEXT ( 3 ) GLOBAL_UNCERTAINTY_ASSIGNED_CONTEXT ( ( #241 ) ) GLOBAL_UNIT_ASSIGNED_CONTEXT ( ( #311, #9, #117 ) ) REPRESENTATION_CONTEXT ( 'NONE', 'WORKASPACE' ) );
#212 = COORDINATED_UNIVERSAL_TIME_OFFSET ( 1, 0, .AHEAD. ) ;
#214 = EDGE_LOOP ( 'NONE', ( #73, #231 ) ) ;
#215 = DIRECTION ( 'NONE',  ( 0.000000000000000000, 0.000000000000000000, -1.000000000000000000 ) ) ;
#216 = ORIENTED_EDGE ( 'NONE', *, *, #229, .F. ) ;
#217 = PERSON_AND_ORGANIZATION_ROLE ( 'creator' ) ;
#218 = VERTEX_POINT ( 'NONE', #346 ) ;
#219 = ADVANCED_FACE ( 'NONE', ( #256 ), #223, .T. ) ;
#220 = CYLINDRICAL_SURFACE ( 'NONE', #101, 6.000000000000000888 ) ;
#221 = CYLINDRICAL_SURFACE ( 'NONE', #32, 10.00000000000000000 ) ;
#222 = ADVANCED_FACE ( 'NONE', ( #23, #257 ), #107, .T. ) ;
#223 = CYLINDRICAL_SURFACE ( 'NONE', #192, 6.000000000000000888 ) ;
#224 = AXIS2_PLACEMENT_3D ( 'NONE', #149, #267, #114 ) ;
#225 = AXIS2_PLACEMENT_3D ( 'NONE', #131, #85, #254 ) ;
#226 = CARTESIAN_POINT ( 'NONE',  ( 0.000000000000000000, 0.000000000000000000, 107.0000000000000142 ) ) ;
#227 = CYLINDRICAL_SURFACE ( 'NONE', #148, 4.000000000000000000 ) ;
#228 = CARTESIAN_POINT ( 'NONE',  ( 0.000000000000000000, 0.000000000000000000, 0.000000000000000000 ) ) ;
#229 = EDGE_CURVE ( 'NONE', #153, #290, #201, .T. ) ;
#230 = DIRECTION ( 'NONE',  ( 0.000000000000000000, 0.000000000000000000, -1.000000000000000000 ) ) ;
#231 = ORIENTED_EDGE ( 'NONE', *, *, #188, .F. ) ;
#232 = DIRECTION ( 'NONE',  ( 1.000000000000000000, 0.000000000000000000, -0.000000000000000000 ) ) ;
#233 = TOROIDAL_SURFACE ( 'NONE', #249, 6.700000000000001066, 0.6999999999999999556 ) ;
#234 = DIRECTION ( 'NONE',  ( -0.000000000000000000, -0.000000000000000000, -1.000000000000000000 ) ) ;
#235 = ADVANCED_FACE ( 'NONE', ( #358, #327 ), #355, .T. ) ;
#236 = ORIENTED_EDGE ( 'NONE', *, *, #376, .T. ) ;
#237 = LOCAL_TIME ( 11, 4, 29.00000000000000000, #159 ) ;
#238 = CARTESIAN_POINT ( 'NONE',  ( -6.000000000000000888, 0.000000000000000000, 107.0000000000000142 ) ) ;
#239 = PERSON ( 'NEURÈENÝ', 'NEURÈENÝ', 'NEURÈENÝ', ('NEURÈENÝ'), ('NEURÈENÝ'), ('NEURÈENÝ') ) ;
#240 = PERSON_AND_ORGANIZATION ( #239, #135 ) ;
#241 = UNCERTAINTY_MEASURE_WITH_UNIT (LENGTH_MEASURE( 1.000000000000000082E-05 ), #311, 'distance_accuracy_value', 'NONE');
#242 = ORIENTED_EDGE ( 'NONE', *, *, #365, .F. ) ;
#243 = ADVANCED_FACE ( 'NONE', ( #91 ), #28, .T. ) ;
#244 = AXIS2_PLACEMENT_3D ( 'NONE', #134, #172, #316 ) ;
#245 = APPROVAL_ROLE ( '' ) ;
#246 = VERTEX_POINT ( 'NONE', #264 ) ;
#247 = PERSON_AND_ORGANIZATION ( #239, #135 ) ;
#248 = ORIENTED_EDGE ( 'NONE', *, *, #18, .F. ) ;
#249 = AXIS2_PLACEMENT_3D ( 'NONE', #320, #163, #319 ) ;
#250 = CALENDAR_DATE ( 2022, 10, 7 ) ;
#251 = DIRECTION ( 'NONE',  ( 0.000000000000000000, 0.000000000000000000, 1.000000000000000000 ) ) ;
#252 = EDGE_CURVE ( 'NONE', #246, #290, #170, .T. ) ;
#253 = ORIENTED_EDGE ( 'NONE', *, *, #372, .F. ) ;
#254 = DIRECTION ( 'NONE',  ( 1.000000000000000000, 0.000000000000000000, 0.000000000000000000 ) ) ;
#255 = DIRECTION ( 'NONE',  ( 1.000000000000000000, 0.000000000000000000, 0.000000000000000000 ) ) ;
#256 = FACE_OUTER_BOUND ( 'NONE', #5, .T. ) ;
#257 = FACE_OUTER_BOUND ( 'NONE', #160, .T. ) ;
#258 = CARTESIAN_POINT ( 'NONE',  ( -10.00000000000000000, 0.000000000000000000, 7.000000000000000000 ) ) ;
#259 = EDGE_CURVE ( 'NONE', #128, #218, #344, .T. ) ;
#260 = DIRECTION ( 'NONE',  ( -0.000000000000000000, -0.000000000000000000, -1.000000000000000000 ) ) ;
#261 = VECTOR ( 'NONE', #205, 1000.000000000000000 ) ;
#262 = CARTESIAN_POINT ( 'NONE',  ( 6.000000000000000888, 7.347880794884120722E-16, 107.0000000000000142 ) ) ;
#263 = ADVANCED_FACE ( 'NONE', ( #177, #325 ), #351, .F. ) ;
#264 = CARTESIAN_POINT ( 'NONE',  ( -10.00000000000000000, 0.000000000000000000, 0.000000000000000000 ) ) ;
#265 = VERTEX_POINT ( 'NONE', #64 ) ;
#266 = AXIS2_PLACEMENT_3D ( 'NONE', #185, #95, #42 ) ;
#267 = DIRECTION ( 'NONE',  ( 0.000000000000000000, 0.000000000000000000, 1.000000000000000000 ) ) ;
#268 = CARTESIAN_POINT ( 'NONE',  ( 10.00000000000000000, 1.224646799147353256E-15, 0.000000000000000000 ) ) ;
#269 = EDGE_LOOP ( 'NONE', ( #121, #3, #334, #312 ) ) ;
#270 = CALENDAR_DATE ( 2022, 10, 7 ) ;
#271 = ORIENTED_EDGE ( 'NONE', *, *, #124, .T. ) ;
#272 = CC_DESIGN_PERSON_AND_ORGANIZATION_ASSIGNMENT ( #305, #217, ( #105 ) ) ;
#273 = CIRCLE ( 'NONE', #266, 6.000000000000000888 ) ;
#274 = CALENDAR_DATE ( 2022, 10, 7 ) ;
#275 = DIRECTION ( 'NONE',  ( 0.000000000000000000, -1.000000000000000000, 0.000000000000000000 ) ) ;
#277 = DATE_AND_TIME ( #250, #315 ) ;
#276 = CC_DESIGN_SECURITY_CLASSIFICATION ( #356, ( #54 ) ) ;
#278 = ORIENTED_EDGE ( 'NONE', *, *, #307, .T. ) ;
#279 = ADVANCED_FACE ( 'NONE', ( #140 ), #31, .F. ) ;
#280 = VERTEX_POINT ( 'NONE', #353 ) ;
#281 = CIRCLE ( 'NONE', #202, 0.7000000000000000666 ) ;
#282 = EDGE_LOOP ( 'NONE', ( #146, #306, #29, #162 ) ) ;
#283 = VECTOR ( 'NONE', #260, 1000.000000000000000 ) ;
#284 = DIRECTION ( 'NONE',  ( -1.000000000000000000, 0.000000000000000000, 0.000000000000000000 ) ) ;
#285 = DIRECTION ( 'NONE',  ( 1.000000000000000000, 0.000000000000000000, 0.000000000000000000 ) ) ;
#286 = DIRECTION ( 'NONE',  ( -1.000000000000000000, 0.000000000000000000, 0.000000000000000000 ) ) ;
#287 = DIRECTION ( 'NONE',  ( 1.000000000000000000, 0.000000000000000000, 0.000000000000000000 ) ) ;
#288 = AXIS2_PLACEMENT_3D ( 'NONE', #226, #169, #84 ) ;
#289 = CARTESIAN_POINT ( 'NONE',  ( 0.000000000000000000, 0.000000000000000000, 7.000000000000000000 ) ) ;
#290 = VERTEX_POINT ( 'NONE', #268 ) ;
#291 = DIRECTION ( 'NONE',  ( 0.000000000000000000, 0.000000000000000000, -1.000000000000000000 ) ) ;
#292 = AXIS2_PLACEMENT_3D ( 'NONE', #81, #55, #255 ) ;
#293 = EDGE_CURVE ( 'NONE', #381, #116, #210, .T. ) ;
#294 = CARTESIAN_POINT ( 'NONE',  ( 6.000000000000000888, 7.347880794884120722E-16, 107.0000000000000142 ) ) ;
#295 = CARTESIAN_POINT ( 'NONE',  ( 0.000000000000000000, 0.000000000000000000, 107.0000000000000142 ) ) ;
#296 = AXIS2_PLACEMENT_3D ( 'NONE', #348, #166, #108 ) ;
#297 = DIRECTION ( 'NONE',  ( 1.000000000000000000, 0.000000000000000000, 0.000000000000000000 ) ) ;
#298 = ORIENTED_EDGE ( 'NONE', *, *, #200, .T. ) ;
#299 = AXIS2_PLACEMENT_3D ( 'NONE', #181, #2, #39 ) ;
#300 = APPROVAL_DATE_TIME ( #189, #142 ) ;
#301 = EDGE_CURVE ( 'NONE', #153, #46, #110, .T. ) ;
#302 = ORIENTED_EDGE ( 'NONE', *, *, #301, .T. ) ;
#303 = DATE_AND_TIME ( #274, #337 ) ;
#304 = ORIENTED_EDGE ( 'NONE', *, *, #164, .T. ) ;
#305 = PERSON_AND_ORGANIZATION ( #239, #135 ) ;
#306 = ORIENTED_EDGE ( 'NONE', *, *, #1, .T. ) ;
#307 = EDGE_CURVE ( 'NONE', #280, #218, #6, .T. ) ;
#308 = AXIS2_PLACEMENT_3D ( 'NONE', #40, #45, #186 ) ;
#309 = APPROVAL_STATUS ( 'not_yet_approved' ) ;
#310 = ORIENTED_EDGE ( 'NONE', *, *, #317, .T. ) ;
#311 =( LENGTH_UNIT ( ) NAMED_UNIT ( * ) SI_UNIT ( .MILLI., .METRE. ) );
#312 = ORIENTED_EDGE ( 'NONE', *, *, #317, .F. ) ;
#313 = CIRCLE ( 'NONE', #225, 4.000000000000000000 ) ;
#314 = CARTESIAN_POINT ( 'NONE',  ( 10.00000000000000000, 1.224646799147353256E-15, 7.000000000000000000 ) ) ;
#315 = LOCAL_TIME ( 11, 4, 29.00000000000000000, #331 ) ;
#316 = DIRECTION ( 'NONE',  ( 1.000000000000000000, 0.000000000000000000, 0.000000000000000000 ) ) ;
#317 = EDGE_CURVE ( 'NONE', #74, #265, #184, .T. ) ;
#318 = PRODUCT ( 'd63a', 'd63a', '', ( #152 ) ) ;
#319 = DIRECTION ( 'NONE',  ( 1.000000000000000000, 0.000000000000000000, 0.000000000000000000 ) ) ;
#320 = CARTESIAN_POINT ( 'NONE',  ( 0.000000000000000000, 0.000000000000000000, 7.699999999999998401 ) ) ;
#321 = DIRECTION ( 'NONE',  ( -0.000000000000000000, -0.000000000000000000, -1.000000000000000000 ) ) ;
#322 = LOCAL_TIME ( 11, 4, 29.00000000000000000, #212 ) ;
#323 = LINE ( 'NONE', #62, #96 ) ;
#324 = CARTESIAN_POINT ( 'NONE',  ( 0.000000000000000000, 0.000000000000000000, 7.000000000000000000 ) ) ;
#325 = FACE_OUTER_BOUND ( 'NONE', #214, .T. ) ;
#326 = AXIS2_PLACEMENT_3D ( 'NONE', #111, #208, #297 ) ;
#327 = FACE_OUTER_BOUND ( 'NONE', #49, .T. ) ;
#328 = PERSON_AND_ORGANIZATION_ROLE ( 'creator' ) ;
#329 = DIRECTION ( 'NONE',  ( 1.000000000000000000, 0.000000000000000000, 0.000000000000000000 ) ) ;
#330 = AXIS2_PLACEMENT_3D ( 'NONE', #67, #68, #178 ) ;
#331 = COORDINATED_UNIVERSAL_TIME_OFFSET ( 1, 0, .AHEAD. ) ;
#332 = ORIENTED_EDGE ( 'NONE', *, *, #341, .T. ) ;
#333 = PERSON_AND_ORGANIZATION ( #239, #135 ) ;
#334 = ORIENTED_EDGE ( 'NONE', *, *, #36, .T. ) ;
#335 = CALENDAR_DATE ( 2022, 10, 7 ) ;
#336 = ORIENTED_EDGE ( 'NONE', *, *, #307, .F. ) ;
#337 = LOCAL_TIME ( 11, 4, 29.00000000000000000, #94 ) ;
#338 = APPROVAL_STATUS ( 'not_yet_approved' ) ;
#339 = EDGE_LOOP ( 'NONE', ( #41, #248 ) ) ;
#340 = FACE_OUTER_BOUND ( 'NONE', #119, .T. ) ;
#341 = EDGE_CURVE ( 'NONE', #190, #116, #33, .T. ) ;
#342 = CARTESIAN_POINT ( 'NONE',  ( 6.000000000000000888, 7.347880794884120722E-16, 7.699999999999998401 ) ) ;
#343 = AXIS2_PLACEMENT_3D ( 'NONE', #289, #26, #287 ) ;
#344 = CIRCLE ( 'NONE', #326, 4.000000000000000000 ) ;
#345 = CARTESIAN_POINT ( 'NONE',  ( 0.000000000000000000, 0.000000000000000000, 107.0000000000000142 ) ) ;
#346 = CARTESIAN_POINT ( 'NONE',  ( 4.000000000000000000, 4.898587196589411843E-16, 0.000000000000000000 ) ) ;
#347 = CC_DESIGN_PERSON_AND_ORGANIZATION_ASSIGNMENT ( #247, #328, ( #54 ) ) ;
#348 = CARTESIAN_POINT ( 'NONE',  ( 0.000000000000000000, 0.000000000000000000, 7.699999999999998401 ) ) ;
#349 = AXIS2_PLACEMENT_3D ( 'NONE', #102, #97, #329 ) ;
#350 = DIRECTION ( 'NONE',  ( 0.000000000000000000, 0.000000000000000000, 1.000000000000000000 ) ) ;
#351 = PLANE ( 'NONE',  #375 ) ;
#352 = ORIENTED_EDGE ( 'NONE', *, *, #293, .T. ) ;
#353 = CARTESIAN_POINT ( 'NONE',  ( 4.000000000000000000, 4.898587196589411843E-16, 107.0000000000000142 ) ) ;
#354 = APPLICATION_CONTEXT ( 'configuration controlled 3d designs of mechanical parts and assemblies' ) ;
#355 = PLANE ( 'NONE',  #151 ) ;
#356 = SECURITY_CLASSIFICATION ( '', '', #13 ) ;
#357 = APPLICATION_CONTEXT ( 'configuration controlled 3d designs of mechanical parts and assemblies' ) ;
#358 = FACE_BOUND ( 'NONE', #80, .T. ) ;
#359 = CC_DESIGN_PERSON_AND_ORGANIZATION_ASSIGNMENT ( #240, #367, ( #356 ) ) ;
#360 = CIRCLE ( 'NONE', #349, 4.000000000000000000 ) ;
#361 = COORDINATED_UNIVERSAL_TIME_OFFSET ( 1, 0, .AHEAD. ) ;
#362 = ORIENTED_EDGE ( 'NONE', *, *, #372, .T. ) ;
#363 = APPROVAL_PERSON_ORGANIZATION ( #123, #72, #126 ) ;
#364 = APPLICATION_PROTOCOL_DEFINITION ( 'international standard', 'config_control_design', 1994, #357 ) ;
#365 = EDGE_CURVE ( 'NONE', #280, #113, #90, .T. ) ;
#366 = DIRECTION ( 'NONE',  ( 1.224646799147353207E-16, 1.000000000000000000, -0.000000000000000000 ) ) ;
#367 = PERSON_AND_ORGANIZATION_ROLE ( 'classification_officer' ) ;
#368 = EDGE_LOOP ( 'NONE', ( #216, #125, #236, #371 ) ) ;
#369 = CALENDAR_DATE ( 2022, 10, 7 ) ;
#370 = DIRECTION ( 'NONE',  ( -1.000000000000000000, 1.224646799147353454E-16, 0.000000000000000000 ) ) ;
#371 = ORIENTED_EDGE ( 'NONE', *, *, #252, .T. ) ;
#372 = EDGE_CURVE ( 'NONE', #98, #190, #145, .T. ) ;
#373 = CARTESIAN_POINT ( 'NONE',  ( 0.000000000000000000, 0.000000000000000000, 107.0000000000000142 ) ) ;
#374 = FACE_OUTER_BOUND ( 'NONE', #187, .T. ) ;
#375 = AXIS2_PLACEMENT_3D ( 'NONE', #228, #206, #150 ) ;
#376 = EDGE_CURVE ( 'NONE', #46, #246, #323, .T. ) ;
#377 = CARTESIAN_POINT ( 'NONE',  ( -4.000000000000000000, 0.000000000000000000, 107.0000000000000142 ) ) ;
#378 = CARTESIAN_POINT ( 'NONE',  ( -6.000000000000000888, 0.000000000000000000, 7.699999999999998401 ) ) ;
#379 = FACE_OUTER_BOUND ( 'NONE', #269, .T. ) ;
#380 = CARTESIAN_POINT ( 'NONE',  ( 0.000000000000000000, 0.000000000000000000, 7.699999999999998401 ) ) ;
#381 = VERTEX_POINT ( 'NONE', #262 ) ;
ENDSEC;
END-ISO-10303-21;
