ISO-10303-21;
HEADER;
FILE_DESCRIPTION (( 'STEP AP203' ),
    '1' );
FILE_NAME ('59ba.STEP',
    '2022-07-10T09:04:38',
    ( '' ),
    ( '' ),
    'SwSTEP 2.0',
    'SolidWorks 2019',
    '' );
FILE_SCHEMA (( 'CONFIG_CONTROL_DESIGN' ));
ENDSEC;

DATA;
#1 = MANIFOLD_SOLID_BREP ( 'Odebrat vysunutím3', #183 ) ;
#2 = PRODUCT_DEFINITION_SHAPE ( 'NONE', 'NONE',  #216 ) ;
#3 = CIRCLE ( 'NONE', #82, 4.000000000000000000 ) ;
#4 = APPLICATION_PROTOCOL_DEFINITION ( 'international standard', 'config_control_design', 1994, #173 ) ;
#5 = CALENDAR_DATE ( 2022, 10, 7 ) ;
#6 = CARTESIAN_POINT ( 'NONE',  ( 0.000000000000000000, 0.000000000000000000, 0.000000000000000000 ) ) ;
#7 = PLANE ( 'NONE',  #278 ) ;
#8 = EDGE_CURVE ( 'NONE', #354, #111, #381, .T. ) ;
#9 = LOCAL_TIME ( 11, 4, 38.00000000000000000, #339 ) ;
#10 = PERSON_AND_ORGANIZATION_ROLE ( 'design_supplier' ) ;
#11 = FACE_OUTER_BOUND ( 'NONE', #30, .T. ) ;
#12 = ORIENTED_EDGE ( 'NONE', *, *, #357, .T. ) ;
#13 = CARTESIAN_POINT ( 'NONE',  ( 0.000000000000000000, 0.000000000000000000, 82.00000000000000000 ) ) ;
#14 = LOCAL_TIME ( 11, 4, 38.00000000000000000, #35 ) ;
#15 = VERTEX_POINT ( 'NONE', #213 ) ;
#16 = ADVANCED_FACE ( 'NONE', ( #39, #300 ), #184, .F. ) ;
#17 = CARTESIAN_POINT ( 'NONE',  ( 0.000000000000000000, 0.000000000000000000, 82.00000000000000000 ) ) ;
#18 = DIRECTION ( 'NONE',  ( 1.000000000000000000, 0.000000000000000000, 0.000000000000000000 ) ) ;
#19 = ORIENTED_EDGE ( 'NONE', *, *, #341, .T. ) ;
#20 = ORIENTED_EDGE ( 'NONE', *, *, #242, .F. ) ;
#21 = LOCAL_TIME ( 11, 4, 38.00000000000000000, #201 ) ;
#22 = CARTESIAN_POINT ( 'NONE',  ( 6.700000000000001066, 0.000000000000000000, 7.699999999999998401 ) ) ;
#23 = CIRCLE ( 'NONE', #140, 4.000000000000000000 ) ;
#24 = UNCERTAINTY_MEASURE_WITH_UNIT (LENGTH_MEASURE( 1.000000000000000082E-05 ), #335, 'distance_accuracy_value', 'NONE');
#25 = LINE ( 'NONE', #208, #34 ) ;
#26 = VERTEX_POINT ( 'NONE', #143 ) ;
#27 = DIRECTION ( 'NONE',  ( 0.000000000000000000, 0.000000000000000000, 1.000000000000000000 ) ) ;
#28 = EDGE_LOOP ( 'NONE', ( #260, #175, #155, #237 ) ) ;
#29 = EDGE_CURVE ( 'NONE', #80, #111, #23, .T. ) ;
#30 = EDGE_LOOP ( 'NONE', ( #253, #323, #54, #267 ) ) ;
#31 = CIRCLE ( 'NONE', #128, 6.000000000000000888 ) ;
#32 = APPLICATION_CONTEXT ( 'configuration controlled 3d designs of mechanical parts and assemblies' ) ;
#33 = EDGE_CURVE ( 'NONE', #15, #78, #363, .T. ) ;
#34 = VECTOR ( 'NONE', #134, 1000.000000000000000 ) ;
#35 = COORDINATED_UNIVERSAL_TIME_OFFSET ( 1, 0, .AHEAD. ) ;
#36 = CARTESIAN_POINT ( 'NONE',  ( -10.00000000000000000, 0.000000000000000000, 0.000000000000000000 ) ) ;
#37 = CARTESIAN_POINT ( 'NONE',  ( -6.700000000000001066, 8.205133554287267548E-16, 7.699999999999998401 ) ) ;
#38 =( NAMED_UNIT ( * ) SI_UNIT ( $, .STERADIAN. ) SOLID_ANGLE_UNIT ( ) );
#39 = FACE_BOUND ( 'NONE', #132, .T. ) ;
#40 = EDGE_CURVE ( 'NONE', #85, #83, #243, .T. ) ;
#41 = AXIS2_PLACEMENT_3D ( 'NONE', #192, #310, #187 ) ;
#42 = APPROVAL_PERSON_ORGANIZATION ( #44, #291, #221 ) ;
#43 = ORIENTED_EDGE ( 'NONE', *, *, #329, .F. ) ;
#44 = PERSON_AND_ORGANIZATION ( #163, #212 ) ;
#45 = EDGE_CURVE ( 'NONE', #288, #83, #118, .T. ) ;
#46 = TOROIDAL_SURFACE ( 'NONE', #130, 6.700000000000001066, 0.6999999999999999556 ) ;
#47 = CC_DESIGN_PERSON_AND_ORGANIZATION_ASSIGNMENT ( #298, #296, ( #333 ) ) ;
#48 = ORIENTED_EDGE ( 'NONE', *, *, #168, .F. ) ;
#49 = AXIS2_PLACEMENT_3D ( 'NONE', #220, #60, #179 ) ;
#50 = CARTESIAN_POINT ( 'NONE',  ( -4.000000000000000000, 0.000000000000000000, 82.00000000000000000 ) ) ;
#51 = ORIENTED_EDGE ( 'NONE', *, *, #185, .F. ) ;
#52 = CARTESIAN_POINT ( 'NONE',  ( 0.000000000000000000, 0.000000000000000000, 7.699999999999998401 ) ) ;
#53 = ADVANCED_FACE ( 'NONE', ( #122 ), #58, .T. ) ;
#54 = ORIENTED_EDGE ( 'NONE', *, *, #121, .T. ) ;
#55 = VERTEX_POINT ( 'NONE', #61 ) ;
#56 = AXIS2_PLACEMENT_3D ( 'NONE', #13, #127, #312 ) ;
#57 =( NAMED_UNIT ( * ) PLANE_ANGLE_UNIT ( ) SI_UNIT ( $, .RADIAN. ) );
#58 = CYLINDRICAL_SURFACE ( 'NONE', #233, 10.00000000000000000 ) ;
#59 = AXIS2_PLACEMENT_3D ( 'NONE', #272, #244, #92 ) ;
#60 = DIRECTION ( 'NONE',  ( 0.000000000000000000, 0.000000000000000000, 1.000000000000000000 ) ) ;
#61 = CARTESIAN_POINT ( 'NONE',  ( 10.00000000000000000, 1.224646799147353256E-15, 7.000000000000000000 ) ) ;
#62 = CARTESIAN_POINT ( 'NONE',  ( 0.000000000000000000, 0.000000000000000000, 7.000000000000000000 ) ) ;
#63 = AXIS2_PLACEMENT_3D ( 'NONE', #235, #351, #205 ) ;
#64 = CARTESIAN_POINT ( 'NONE',  ( 0.000000000000000000, 0.000000000000000000, 82.00000000000000000 ) ) ;
#65 = FACE_OUTER_BOUND ( 'NONE', #153, .T. ) ;
#66 = DIRECTION ( 'NONE',  ( 0.000000000000000000, 0.000000000000000000, 1.000000000000000000 ) ) ;
#67 = PERSON_AND_ORGANIZATION ( #163, #212 ) ;
#68 = APPROVAL_PERSON_ORGANIZATION ( #282, #228, #203 ) ;
#69 = CALENDAR_DATE ( 2022, 10, 7 ) ;
#70 = DIRECTION ( 'NONE',  ( 0.000000000000000000, 0.000000000000000000, 1.000000000000000000 ) ) ;
#71 = CC_DESIGN_PERSON_AND_ORGANIZATION_ASSIGNMENT ( #186, #10, ( #275 ) ) ;
#72 = DATE_TIME_ROLE ( 'classification_date' ) ;
#73 = CARTESIAN_POINT ( 'NONE',  ( -6.000000000000000888, 0.000000000000000000, 82.00000000000000000 ) ) ;
#74 = ORIENTED_EDGE ( 'NONE', *, *, #329, .T. ) ;
#75 = CIRCLE ( 'NONE', #105, 6.000000000000000888 ) ;
#76 = EDGE_CURVE ( 'NONE', #15, #138, #31, .T. ) ;
#77 = CARTESIAN_POINT ( 'NONE',  ( 0.000000000000000000, 0.000000000000000000, 7.000000000000000000 ) ) ;
#78 = VERTEX_POINT ( 'NONE', #120 ) ;
#79 = DIRECTION ( 'NONE',  ( 1.000000000000000000, 0.000000000000000000, 0.000000000000000000 ) ) ;
#80 = VERTEX_POINT ( 'NONE', #273 ) ;
#81 = APPROVAL_STATUS ( 'not_yet_approved' ) ;
#82 = AXIS2_PLACEMENT_3D ( 'NONE', #350, #259, #79 ) ;
#83 = VERTEX_POINT ( 'NONE', #36 ) ;
#84 = DIRECTION ( 'NONE',  ( 0.000000000000000000, -1.000000000000000000, 0.000000000000000000 ) ) ;
#85 = VERTEX_POINT ( 'NONE', #147 ) ;
#86 = ORIENTED_EDGE ( 'NONE', *, *, #97, .T. ) ;
#87 = EDGE_CURVE ( 'NONE', #55, #288, #247, .T. ) ;
#88 = VECTOR ( 'NONE', #373, 1000.000000000000000 ) ;
#89 = DIRECTION ( 'NONE',  ( -0.000000000000000000, -0.000000000000000000, -1.000000000000000000 ) ) ;
#90 = APPROVAL_STATUS ( 'not_yet_approved' ) ;
#91 = DIRECTION ( 'NONE',  ( 0.000000000000000000, 0.000000000000000000, 1.000000000000000000 ) ) ;
#92 = DIRECTION ( 'NONE',  ( 1.000000000000000000, 0.000000000000000000, 0.000000000000000000 ) ) ;
#93 = APPROVAL_PERSON_ORGANIZATION ( #358, #316, #180 ) ;
#94 = ADVANCED_FACE ( 'NONE', ( #218, #65 ), #7, .T. ) ;
#95 = DIRECTION ( 'NONE',  ( 0.000000000000000000, 0.000000000000000000, 1.000000000000000000 ) ) ;
#96 = FACE_OUTER_BOUND ( 'NONE', #311, .T. ) ;
#97 = EDGE_CURVE ( 'NONE', #26, #169, #108, .T. ) ;
#98 = LOCAL_TIME ( 11, 4, 38.00000000000000000, #223 ) ;
#99 = SECURITY_CLASSIFICATION_LEVEL ( 'unclassified' ) ;
#100 = FACE_OUTER_BOUND ( 'NONE', #117, .T. ) ;
#101 = DIRECTION ( 'NONE',  ( -1.000000000000000000, 0.000000000000000000, 0.000000000000000000 ) ) ;
#102 = EDGE_LOOP ( 'NONE', ( #136, #345 ) ) ;
#103 = CYLINDRICAL_SURFACE ( 'NONE', #313, 4.000000000000000000 ) ;
#104 = AXIS2_PLACEMENT_3D ( 'NONE', #17, #165, #293 ) ;
#105 = AXIS2_PLACEMENT_3D ( 'NONE', #238, #112, #171 ) ;
#106 = ADVANCED_FACE ( 'NONE', ( #11 ), #307, .T. ) ;
#107 = CALENDAR_DATE ( 2022, 10, 7 ) ;
#108 = CIRCLE ( 'NONE', #318, 6.000000000000000888 ) ;
#109 = EDGE_LOOP ( 'NONE', ( #289, #129, #375, #157 ) ) ;
#110 = CARTESIAN_POINT ( 'NONE',  ( 6.700000000000001066, 0.000000000000000000, 6.999999999999999112 ) ) ;
#111 = VERTEX_POINT ( 'NONE', #123 ) ;
#112 = DIRECTION ( 'NONE',  ( 0.000000000000000000, 0.000000000000000000, 1.000000000000000000 ) ) ;
#113 = TOROIDAL_SURFACE ( 'NONE', #258, 6.700000000000001066, 0.6999999999999999556 ) ;
#114 = CARTESIAN_POINT ( 'NONE',  ( -10.00000000000000000, 0.000000000000000000, 7.000000000000000000 ) ) ;
#115 = ORIENTED_EDGE ( 'NONE', *, *, #193, .T. ) ;
#116 = ADVANCED_FACE ( 'NONE', ( #100 ), #103, .F. ) ;
#117 = EDGE_LOOP ( 'NONE', ( #236, #195, #355, #115 ) ) ;
#118 = LINE ( 'NONE', #361, #285 ) ;
#119 = CIRCLE ( 'NONE', #188, 0.7000000000000000666 ) ;
#120 = CARTESIAN_POINT ( 'NONE',  ( -6.700000000000001066, 8.205133554287267548E-16, 6.999999999999999112 ) ) ;
#121 = EDGE_CURVE ( 'NONE', #138, #15, #366, .T. ) ;
#122 = FACE_OUTER_BOUND ( 'NONE', #109, .T. ) ;
#123 = CARTESIAN_POINT ( 'NONE',  ( -4.000000000000000000, 0.000000000000000000, 0.000000000000000000 ) ) ;
#124 = DIRECTION ( 'NONE',  ( 0.000000000000000000, 0.000000000000000000, 1.000000000000000000 ) ) ;
#125 = ORIENTED_EDGE ( 'NONE', *, *, #33, .T. ) ;
#126 = CC_DESIGN_SECURITY_CLASSIFICATION ( #377, ( #275 ) ) ;
#127 = DIRECTION ( 'NONE',  ( 0.000000000000000000, 0.000000000000000000, -1.000000000000000000 ) ) ;
#128 = AXIS2_PLACEMENT_3D ( 'NONE', #149, #95, #297 ) ;
#129 = ORIENTED_EDGE ( 'NONE', *, *, #246, .F. ) ;
#130 = AXIS2_PLACEMENT_3D ( 'NONE', #154, #315, #343 ) ;
#131 = CYLINDRICAL_SURFACE ( 'NONE', #167, 6.000000000000000888 ) ;
#132 = EDGE_LOOP ( 'NONE', ( #227, #370 ) ) ;
#133 = CALENDAR_DATE ( 2022, 10, 7 ) ;
#134 = DIRECTION ( 'NONE',  ( -0.000000000000000000, -0.000000000000000000, -1.000000000000000000 ) ) ;
#135 = CC_DESIGN_PERSON_AND_ORGANIZATION_ASSIGNMENT ( #67, #365, ( #275 ) ) ;
#136 = ORIENTED_EDGE ( 'NONE', *, *, #347, .F. ) ;
#137 = ORIENTED_EDGE ( 'NONE', *, *, #87, .T. ) ;
#138 = VERTEX_POINT ( 'NONE', #248 ) ;
#139 = DIRECTION ( 'NONE',  ( 1.000000000000000000, 0.000000000000000000, 0.000000000000000000 ) ) ;
#140 = AXIS2_PLACEMENT_3D ( 'NONE', #6, #269, #332 ) ;
#141 = VERTEX_POINT ( 'NONE', #224 ) ;
#142 = PLANE ( 'NONE',  #299 ) ;
#143 = CARTESIAN_POINT ( 'NONE',  ( 6.000000000000000888, 7.347880794884120722E-16, 82.00000000000000000 ) ) ;
#144 = CARTESIAN_POINT ( 'NONE',  ( -4.000000000000000000, 0.000000000000000000, 82.00000000000000000 ) ) ;
#145 =( GEOMETRIC_REPRESENTATION_CONTEXT ( 3 ) GLOBAL_UNCERTAINTY_ASSIGNED_CONTEXT ( ( #24 ) ) GLOBAL_UNIT_ASSIGNED_CONTEXT ( ( #335, #57, #38 ) ) REPRESENTATION_CONTEXT ( 'NONE', 'WORKASPACE' ) );
#146 = FACE_BOUND ( 'NONE', #234, .T. ) ;
#147 = CARTESIAN_POINT ( 'NONE',  ( 10.00000000000000000, 1.224646799147353256E-15, 0.000000000000000000 ) ) ;
#148 = DIRECTION ( 'NONE',  ( 1.000000000000000000, 0.000000000000000000, -0.000000000000000000 ) ) ;
#149 = CARTESIAN_POINT ( 'NONE',  ( 0.000000000000000000, 0.000000000000000000, 7.699999999999998401 ) ) ;
#150 = CARTESIAN_POINT ( 'NONE',  ( 0.000000000000000000, 0.000000000000000000, 0.000000000000000000 ) ) ;
#151 = AXIS2_PLACEMENT_3D ( 'NONE', #77, #27, #322 ) ;
#152 = CALENDAR_DATE ( 2022, 10, 7 ) ;
#153 = EDGE_LOOP ( 'NONE', ( #294, #137 ) ) ;
#154 = CARTESIAN_POINT ( 'NONE',  ( 0.000000000000000000, 0.000000000000000000, 7.699999999999998401 ) ) ;
#155 = ORIENTED_EDGE ( 'NONE', *, *, #40, .T. ) ;
#156 = DATE_AND_TIME ( #69, #98 ) ;
#157 = ORIENTED_EDGE ( 'NONE', *, *, #347, .T. ) ;
#158 = CC_DESIGN_APPROVAL ( #291, ( #275 ) ) ;
#159 = LINE ( 'NONE', #229, #250 ) ;
#160 = ADVANCED_FACE ( 'NONE', ( #198 ), #46, .F. ) ;
#161 = CARTESIAN_POINT ( 'NONE',  ( 0.000000000000000000, 0.000000000000000000, 0.000000000000000000 ) ) ;
#162 = EDGE_LOOP ( 'NONE', ( #51, #43, #12, #352 ) ) ;
#163 = PERSON ( 'NEURÈENÝ', 'NEURÈENÝ', 'NEURÈENÝ', ('NEURÈENÝ'), ('NEURÈENÝ'), ('NEURÈENÝ') ) ;
#164 = DESIGN_CONTEXT ( 'detailed design', #173, 'design' ) ;
#165 = DIRECTION ( 'NONE',  ( 0.000000000000000000, 0.000000000000000000, 1.000000000000000000 ) ) ;
#166 = EDGE_LOOP ( 'NONE', ( #372, #125, #48, #209 ) ) ;
#167 = AXIS2_PLACEMENT_3D ( 'NONE', #319, #287, #290 ) ;
#168 = EDGE_CURVE ( 'NONE', #327, #78, #174, .T. ) ;
#169 = VERTEX_POINT ( 'NONE', #73 ) ;
#170 = FACE_OUTER_BOUND ( 'NONE', #166, .T. ) ;
#171 = DIRECTION ( 'NONE',  ( 1.000000000000000000, 0.000000000000000000, 0.000000000000000000 ) ) ;
#172 = DIRECTION ( 'NONE',  ( 0.000000000000000000, 0.000000000000000000, 1.000000000000000000 ) ) ;
#173 = APPLICATION_CONTEXT ( 'configuration controlled 3d designs of mechanical parts and assemblies' ) ;
#174 = CIRCLE ( 'NONE', #41, 6.700000000000001066 ) ;
#175 = ORIENTED_EDGE ( 'NONE', *, *, #268, .T. ) ;
#176 = CIRCLE ( 'NONE', #314, 10.00000000000000000 ) ;
#177 = CC_DESIGN_PERSON_AND_ORGANIZATION_ASSIGNMENT ( #279, #191, ( #377 ) ) ;
#178 = DIRECTION ( 'NONE',  ( 1.000000000000000000, 0.000000000000000000, -0.000000000000000000 ) ) ;
#179 = DIRECTION ( 'NONE',  ( 1.000000000000000000, 0.000000000000000000, 0.000000000000000000 ) ) ;
#180 = APPROVAL_ROLE ( '' ) ;
#181 = AXIS2_PLACEMENT_3D ( 'NONE', #304, #211, #331 ) ;
#182 = APPROVAL_DATE_TIME ( #336, #316 ) ;
#183 = CLOSED_SHELL ( 'NONE', ( #200, #280, #106, #360, #53, #94, #16, #254, #380, #160, #116 ) ) ;
#184 = PLANE ( 'NONE',  #317 ) ;
#185 = EDGE_CURVE ( 'NONE', #26, #138, #159, .T. ) ;
#186 = PERSON_AND_ORGANIZATION ( #163, #212 ) ;
#187 = DIRECTION ( 'NONE',  ( 1.000000000000000000, 0.000000000000000000, 0.000000000000000000 ) ) ;
#188 = AXIS2_PLACEMENT_3D ( 'NONE', #22, #84, #207 ) ;
#189 = PERSON_AND_ORGANIZATION_ROLE ( 'creator' ) ;
#190 = CARTESIAN_POINT ( 'NONE',  ( 0.000000000000000000, 0.000000000000000000, 82.00000000000000000 ) ) ;
#191 = PERSON_AND_ORGANIZATION_ROLE ( 'classification_officer' ) ;
#192 = CARTESIAN_POINT ( 'NONE',  ( 0.000000000000000000, 0.000000000000000000, 7.000000000000000000 ) ) ;
#193 = EDGE_CURVE ( 'NONE', #111, #80, #210, .T. ) ;
#194 = DIRECTION ( 'NONE',  ( 1.000000000000000000, 0.000000000000000000, 0.000000000000000000 ) ) ;
#195 = ORIENTED_EDGE ( 'NONE', *, *, #263, .T. ) ;
#196 = AXIS2_PLACEMENT_3D ( 'NONE', #161, #286, #18 ) ;
#197 = VECTOR ( 'NONE', #326, 1000.000000000000000 ) ;
#198 = FACE_OUTER_BOUND ( 'NONE', #369, .T. ) ;
#199 = FACE_OUTER_BOUND ( 'NONE', #162, .T. ) ;
#200 = ADVANCED_FACE ( 'NONE', ( #96 ), #283, .F. ) ;
#201 = COORDINATED_UNIVERSAL_TIME_OFFSET ( 1, 0, .AHEAD. ) ;
#202 = EDGE_LOOP ( 'NONE', ( #74, #86 ) ) ;
#203 = APPROVAL_ROLE ( '' ) ;
#204 = AXIS2_PLACEMENT_3D ( 'NONE', #222, #230, #340 ) ;
#205 = DIRECTION ( 'NONE',  ( 1.000000000000000000, 0.000000000000000000, 0.000000000000000000 ) ) ;
#206 = ORIENTED_EDGE ( 'NONE', *, *, #29, .T. ) ;
#207 = DIRECTION ( 'NONE',  ( 0.000000000000000000, 0.000000000000000000, -1.000000000000000000 ) ) ;
#208 = CARTESIAN_POINT ( 'NONE',  ( 10.00000000000000000, 1.224646799147353256E-15, 7.000000000000000000 ) ) ;
#209 = ORIENTED_EDGE ( 'NONE', *, *, #251, .F. ) ;
#210 = CIRCLE ( 'NONE', #196, 4.000000000000000000 ) ;
#211 = DIRECTION ( 'NONE',  ( -0.000000000000000000, -0.000000000000000000, -1.000000000000000000 ) ) ;
#212 = ORGANIZATION ( 'NEURÈENÝ', 'NEURÈENÝ', '' ) ;
#213 = CARTESIAN_POINT ( 'NONE',  ( -6.000000000000000888, 0.000000000000000000, 7.699999999999998401 ) ) ;
#214 = DIRECTION ( 'NONE',  ( 0.000000000000000000, 0.000000000000000000, 1.000000000000000000 ) ) ;
#215 = DIRECTION ( 'NONE',  ( -0.000000000000000000, -0.000000000000000000, -1.000000000000000000 ) ) ;
#216 = PRODUCT_DEFINITION ( 'NEZNÁMÝ', '', #275, #164 ) ;
#217 = FACE_OUTER_BOUND ( 'NONE', #28, .T. ) ;
#218 = FACE_BOUND ( 'NONE', #325, .T. ) ;
#219 = CC_DESIGN_APPROVAL ( #228, ( #377 ) ) ;
#220 = CARTESIAN_POINT ( 'NONE',  ( 0.000000000000000000, 0.000000000000000000, 0.000000000000000000 ) ) ;
#221 = APPROVAL_ROLE ( '' ) ;
#222 = CARTESIAN_POINT ( 'NONE',  ( 0.000000000000000000, 0.000000000000000000, 7.699999999999998401 ) ) ;
#223 = COORDINATED_UNIVERSAL_TIME_OFFSET ( 1, 0, .AHEAD. ) ;
#224 = CARTESIAN_POINT ( 'NONE',  ( 4.000000000000000000, 4.898587196589412829E-16, 82.00000000000000000 ) ) ;
#225 = APPROVAL_DATE_TIME ( #257, #291 ) ;
#226 = DIRECTION ( 'NONE',  ( 0.000000000000000000, 0.000000000000000000, -1.000000000000000000 ) ) ;
#227 = ORIENTED_EDGE ( 'NONE', *, *, #193, .F. ) ;
#228 = APPROVAL ( #321, 'NEURÈENÝ' ) ;
#229 = CARTESIAN_POINT ( 'NONE',  ( 6.000000000000000888, 7.347880794884120722E-16, 82.00000000000000000 ) ) ;
#230 = DIRECTION ( 'NONE',  ( 0.000000000000000000, 0.000000000000000000, 1.000000000000000000 ) ) ;
#231 = CIRCLE ( 'NONE', #63, 6.700000000000001066 ) ;
#232 = DATE_AND_TIME ( #107, #21 ) ;
#233 = AXIS2_PLACEMENT_3D ( 'NONE', #62, #215, #334 ) ;
#234 = EDGE_LOOP ( 'NONE', ( #20, #262 ) ) ;
#235 = CARTESIAN_POINT ( 'NONE',  ( 0.000000000000000000, 0.000000000000000000, 7.000000000000000000 ) ) ;
#236 = ORIENTED_EDGE ( 'NONE', *, *, #274, .F. ) ;
#237 = ORIENTED_EDGE ( 'NONE', *, *, #45, .F. ) ;
#238 = CARTESIAN_POINT ( 'NONE',  ( 0.000000000000000000, 0.000000000000000000, 82.00000000000000000 ) ) ;
#239 = ORIENTED_EDGE ( 'NONE', *, *, #274, .T. ) ;
#240 = AXIS2_PLACEMENT_3D ( 'NONE', #190, #252, #367 ) ;
#241 = FACE_OUTER_BOUND ( 'NONE', #202, .T. ) ;
#242 = EDGE_CURVE ( 'NONE', #354, #141, #348, .T. ) ;
#243 = CIRCLE ( 'NONE', #301, 10.00000000000000000 ) ;
#244 = DIRECTION ( 'NONE',  ( 0.000000000000000000, 0.000000000000000000, 1.000000000000000000 ) ) ;
#245 = DIRECTION ( 'NONE',  ( 0.000000000000000000, 0.000000000000000000, -1.000000000000000000 ) ) ;
#246 = EDGE_CURVE ( 'NONE', #288, #55, #256, .T. ) ;
#247 = CIRCLE ( 'NONE', #59, 10.00000000000000000 ) ;
#248 = CARTESIAN_POINT ( 'NONE',  ( 6.000000000000000888, 7.347880794884120722E-16, 7.699999999999998401 ) ) ;
#249 = ORIENTED_EDGE ( 'NONE', *, *, #121, .F. ) ;
#250 = VECTOR ( 'NONE', #255, 1000.000000000000000 ) ;
#251 = EDGE_CURVE ( 'NONE', #138, #327, #119, .T. ) ;
#252 = DIRECTION ( 'NONE',  ( -0.000000000000000000, -0.000000000000000000, -1.000000000000000000 ) ) ;
#253 = ORIENTED_EDGE ( 'NONE', *, *, #97, .F. ) ;
#254 = ADVANCED_FACE ( 'NONE', ( #199 ), #131, .T. ) ;
#255 = DIRECTION ( 'NONE',  ( -0.000000000000000000, -0.000000000000000000, -1.000000000000000000 ) ) ;
#256 = CIRCLE ( 'NONE', #151, 10.00000000000000000 ) ;
#257 = DATE_AND_TIME ( #152, #9 ) ;
#258 = AXIS2_PLACEMENT_3D ( 'NONE', #52, #376, #378 ) ;
#259 = DIRECTION ( 'NONE',  ( 0.000000000000000000, 0.000000000000000000, 1.000000000000000000 ) ) ;
#260 = ORIENTED_EDGE ( 'NONE', *, *, #87, .F. ) ;
#261 = LINE ( 'NONE', #292, #88 ) ;
#262 = ORIENTED_EDGE ( 'NONE', *, *, #263, .F. ) ;
#263 = EDGE_CURVE ( 'NONE', #141, #354, #3, .T. ) ;
#264 = CARTESIAN_POINT ( 'NONE',  ( 4.000000000000000000, 4.898587196589412829E-16, 82.00000000000000000 ) ) ;
#265 = ORIENTED_EDGE ( 'NONE', *, *, #33, .F. ) ;
#266 = VECTOR ( 'NONE', #245, 1000.000000000000000 ) ;
#267 = ORIENTED_EDGE ( 'NONE', *, *, #357, .F. ) ;
#268 = EDGE_CURVE ( 'NONE', #55, #85, #25, .T. ) ;
#269 = DIRECTION ( 'NONE',  ( -0.000000000000000000, -0.000000000000000000, -1.000000000000000000 ) ) ;
#270 = MECHANICAL_CONTEXT ( 'NONE', #32, 'mechanical' ) ;
#271 = AXIS2_PLACEMENT_3D ( 'NONE', #37, #359, #362 ) ;
#272 = CARTESIAN_POINT ( 'NONE',  ( 0.000000000000000000, 0.000000000000000000, 7.000000000000000000 ) ) ;
#273 = CARTESIAN_POINT ( 'NONE',  ( 4.000000000000000000, 4.898587196589412829E-16, 0.000000000000000000 ) ) ;
#274 = EDGE_CURVE ( 'NONE', #141, #80, #353, .T. ) ;
#275 = PRODUCT_DEFINITION_FORMATION_WITH_SPECIFIED_SOURCE ( 'LIBOVOLNÝ', '', #333, .NOT_KNOWN. ) ;
#276 = DATE_AND_TIME ( #133, #368 ) ;
#277 = DIRECTION ( 'NONE',  ( 1.000000000000000000, 0.000000000000000000, -0.000000000000000000 ) ) ;
#278 = AXIS2_PLACEMENT_3D ( 'NONE', #305, #124, #277 ) ;
#279 = PERSON_AND_ORGANIZATION ( #163, #212 ) ;
#280 = ADVANCED_FACE ( 'NONE', ( #170 ), #113, .F. ) ;
#281 = ORIENTED_EDGE ( 'NONE', *, *, #242, .T. ) ;
#282 = PERSON_AND_ORGANIZATION ( #163, #212 ) ;
#283 = CYLINDRICAL_SURFACE ( 'NONE', #56, 4.000000000000000000 ) ;
#284 = ORIENTED_EDGE ( 'NONE', *, *, #168, .T. ) ;
#285 = VECTOR ( 'NONE', #89, 1000.000000000000000 ) ;
#286 = DIRECTION ( 'NONE',  ( -0.000000000000000000, -0.000000000000000000, -1.000000000000000000 ) ) ;
#287 = DIRECTION ( 'NONE',  ( -0.000000000000000000, -0.000000000000000000, -1.000000000000000000 ) ) ;
#288 = VERTEX_POINT ( 'NONE', #114 ) ;
#289 = ORIENTED_EDGE ( 'NONE', *, *, #268, .F. ) ;
#290 = DIRECTION ( 'NONE',  ( -1.000000000000000000, 0.000000000000000000, 0.000000000000000000 ) ) ;
#291 = APPROVAL ( #81, 'NEURÈENÝ' ) ;
#292 = CARTESIAN_POINT ( 'NONE',  ( -6.000000000000000888, 0.000000000000000000, 82.00000000000000000 ) ) ;
#293 = DIRECTION ( 'NONE',  ( 1.000000000000000000, 0.000000000000000000, 0.000000000000000000 ) ) ;
#294 = ORIENTED_EDGE ( 'NONE', *, *, #246, .T. ) ;
#295 = CC_DESIGN_DATE_AND_TIME_ASSIGNMENT ( #276, #72, ( #377 ) ) ;
#296 = PERSON_AND_ORGANIZATION_ROLE ( 'design_owner' ) ;
#297 = DIRECTION ( 'NONE',  ( 1.000000000000000000, 0.000000000000000000, 0.000000000000000000 ) ) ;
#298 = PERSON_AND_ORGANIZATION ( #163, #212 ) ;
#299 = AXIS2_PLACEMENT_3D ( 'NONE', #64, #214, #148 ) ;
#300 = FACE_OUTER_BOUND ( 'NONE', #102, .T. ) ;
#301 = AXIS2_PLACEMENT_3D ( 'NONE', #150, #91, #338 ) ;
#302 = CARTESIAN_POINT ( 'NONE',  ( 0.000000000000000000, 0.000000000000000000, 0.000000000000000000 ) ) ;
#303 = PRODUCT_RELATED_PRODUCT_CATEGORY ( 'detail', '', ( #333 ) ) ;
#304 = CARTESIAN_POINT ( 'NONE',  ( 0.000000000000000000, 0.000000000000000000, 7.000000000000000000 ) ) ;
#305 = CARTESIAN_POINT ( 'NONE',  ( 0.000000000000000000, 0.000000000000000000, 7.000000000000000000 ) ) ;
#306 = APPROVAL_DATE_TIME ( #232, #228 ) ;
#307 = CYLINDRICAL_SURFACE ( 'NONE', #240, 6.000000000000000888 ) ;
#308 = DATE_TIME_ROLE ( 'creation_date' ) ;
#309 = CARTESIAN_POINT ( 'NONE',  ( 0.000000000000000000, 0.000000000000000000, 82.00000000000000000 ) ) ;
#310 = DIRECTION ( 'NONE',  ( -0.000000000000000000, -0.000000000000000000, -1.000000000000000000 ) ) ;
#311 = EDGE_LOOP ( 'NONE', ( #281, #239, #206, #379 ) ) ;
#312 = DIRECTION ( 'NONE',  ( -1.000000000000000000, 0.000000000000000000, 0.000000000000000000 ) ) ;
#313 = AXIS2_PLACEMENT_3D ( 'NONE', #346, #226, #101 ) ;
#314 = AXIS2_PLACEMENT_3D ( 'NONE', #324, #172, #139 ) ;
#315 = DIRECTION ( 'NONE',  ( 0.000000000000000000, 0.000000000000000000, 1.000000000000000000 ) ) ;
#316 = APPROVAL ( #90, 'NEURÈENÝ' ) ;
#317 = AXIS2_PLACEMENT_3D ( 'NONE', #302, #66, #178 ) ;
#318 = AXIS2_PLACEMENT_3D ( 'NONE', #309, #70, #194 ) ;
#319 = CARTESIAN_POINT ( 'NONE',  ( 0.000000000000000000, 0.000000000000000000, 82.00000000000000000 ) ) ;
#320 = ORIENTED_EDGE ( 'NONE', *, *, #251, .T. ) ;
#321 = APPROVAL_STATUS ( 'not_yet_approved' ) ;
#322 = DIRECTION ( 'NONE',  ( 1.000000000000000000, 0.000000000000000000, 0.000000000000000000 ) ) ;
#323 = ORIENTED_EDGE ( 'NONE', *, *, #185, .T. ) ;
#324 = CARTESIAN_POINT ( 'NONE',  ( 0.000000000000000000, 0.000000000000000000, 0.000000000000000000 ) ) ;
#325 = EDGE_LOOP ( 'NONE', ( #284, #19 ) ) ;
#326 = DIRECTION ( 'NONE',  ( 0.000000000000000000, 0.000000000000000000, -1.000000000000000000 ) ) ;
#327 = VERTEX_POINT ( 'NONE', #110 ) ;
#328 = ORIENTED_EDGE ( 'NONE', *, *, #341, .F. ) ;
#329 = EDGE_CURVE ( 'NONE', #169, #26, #75, .T. ) ;
#330 = ADVANCED_BREP_SHAPE_REPRESENTATION ( '59ba', ( #1, #49 ), #145 ) ;
#331 = DIRECTION ( 'NONE',  ( -1.000000000000000000, 0.000000000000000000, 0.000000000000000000 ) ) ;
#332 = DIRECTION ( 'NONE',  ( 1.000000000000000000, 0.000000000000000000, 0.000000000000000000 ) ) ;
#333 = PRODUCT ( '59ba', '59ba', '', ( #270 ) ) ;
#334 = DIRECTION ( 'NONE',  ( -1.000000000000000000, 0.000000000000000000, 0.000000000000000000 ) ) ;
#335 =( LENGTH_UNIT ( ) NAMED_UNIT ( * ) SI_UNIT ( .MILLI., .METRE. ) );
#336 = DATE_AND_TIME ( #5, #14 ) ;
#337 = APPLICATION_PROTOCOL_DEFINITION ( 'international standard', 'config_control_design', 1994, #32 ) ;
#338 = DIRECTION ( 'NONE',  ( 1.000000000000000000, 0.000000000000000000, 0.000000000000000000 ) ) ;
#339 = COORDINATED_UNIVERSAL_TIME_OFFSET ( 1, 0, .AHEAD. ) ;
#340 = DIRECTION ( 'NONE',  ( 1.000000000000000000, 0.000000000000000000, 0.000000000000000000 ) ) ;
#341 = EDGE_CURVE ( 'NONE', #78, #327, #231, .T. ) ;
#342 = PERSON_AND_ORGANIZATION ( #163, #212 ) ;
#343 = DIRECTION ( 'NONE',  ( 1.000000000000000000, 0.000000000000000000, 0.000000000000000000 ) ) ;
#344 = COORDINATED_UNIVERSAL_TIME_OFFSET ( 1, 0, .AHEAD. ) ;
#345 = ORIENTED_EDGE ( 'NONE', *, *, #40, .F. ) ;
#346 = CARTESIAN_POINT ( 'NONE',  ( 0.000000000000000000, 0.000000000000000000, 82.00000000000000000 ) ) ;
#347 = EDGE_CURVE ( 'NONE', #83, #85, #176, .T. ) ;
#348 = CIRCLE ( 'NONE', #104, 4.000000000000000000 ) ;
#349 = SHAPE_DEFINITION_REPRESENTATION ( #2, #330 ) ;
#350 = CARTESIAN_POINT ( 'NONE',  ( 0.000000000000000000, 0.000000000000000000, 82.00000000000000000 ) ) ;
#351 = DIRECTION ( 'NONE',  ( -0.000000000000000000, -0.000000000000000000, -1.000000000000000000 ) ) ;
#352 = ORIENTED_EDGE ( 'NONE', *, *, #76, .T. ) ;
#353 = LINE ( 'NONE', #264, #197 ) ;
#354 = VERTEX_POINT ( 'NONE', #50 ) ;
#355 = ORIENTED_EDGE ( 'NONE', *, *, #8, .T. ) ;
#356 = CYLINDRICAL_SURFACE ( 'NONE', #181, 10.00000000000000000 ) ;
#357 = EDGE_CURVE ( 'NONE', #169, #15, #261, .T. ) ;
#358 = PERSON_AND_ORGANIZATION ( #163, #212 ) ;
#359 = DIRECTION ( 'NONE',  ( 1.224646799147353207E-16, 1.000000000000000000, -0.000000000000000000 ) ) ;
#360 = ADVANCED_FACE ( 'NONE', ( #217 ), #356, .T. ) ;
#361 = CARTESIAN_POINT ( 'NONE',  ( -10.00000000000000000, 0.000000000000000000, 7.000000000000000000 ) ) ;
#362 = DIRECTION ( 'NONE',  ( -1.000000000000000000, 1.224646799147353454E-16, 0.000000000000000000 ) ) ;
#363 = CIRCLE ( 'NONE', #271, 0.7000000000000000666 ) ;
#364 = CC_DESIGN_DATE_AND_TIME_ASSIGNMENT ( #156, #308, ( #216 ) ) ;
#365 = PERSON_AND_ORGANIZATION_ROLE ( 'creator' ) ;
#366 = CIRCLE ( 'NONE', #204, 6.000000000000000888 ) ;
#367 = DIRECTION ( 'NONE',  ( -1.000000000000000000, 0.000000000000000000, 0.000000000000000000 ) ) ;
#368 = LOCAL_TIME ( 11, 4, 38.00000000000000000, #344 ) ;
#369 = EDGE_LOOP ( 'NONE', ( #265, #249, #320, #328 ) ) ;
#370 = ORIENTED_EDGE ( 'NONE', *, *, #29, .F. ) ;
#371 = CC_DESIGN_PERSON_AND_ORGANIZATION_ASSIGNMENT ( #342, #189, ( #216 ) ) ;
#372 = ORIENTED_EDGE ( 'NONE', *, *, #76, .F. ) ;
#373 = DIRECTION ( 'NONE',  ( -0.000000000000000000, -0.000000000000000000, -1.000000000000000000 ) ) ;
#374 = CC_DESIGN_APPROVAL ( #316, ( #216 ) ) ;
#375 = ORIENTED_EDGE ( 'NONE', *, *, #45, .T. ) ;
#376 = DIRECTION ( 'NONE',  ( 0.000000000000000000, 0.000000000000000000, 1.000000000000000000 ) ) ;
#377 = SECURITY_CLASSIFICATION ( '', '', #99 ) ;
#378 = DIRECTION ( 'NONE',  ( 1.000000000000000000, 0.000000000000000000, 0.000000000000000000 ) ) ;
#379 = ORIENTED_EDGE ( 'NONE', *, *, #8, .F. ) ;
#380 = ADVANCED_FACE ( 'NONE', ( #146, #241 ), #142, .T. ) ;
#381 = LINE ( 'NONE', #144, #266 ) ;
ENDSEC;
END-ISO-10303-21;
