ISO-10303-21;
HEADER;
FILE_DESCRIPTION (( 'STEP AP203' ),
    '1' );
FILE_NAME ('b767.STEP',
    '2022-07-10T09:11:00',
    ( '' ),
    ( '' ),
    'SwSTEP 2.0',
    'SolidWorks 2019',
    '' );
FILE_SCHEMA (( 'CONFIG_CONTROL_DESIGN' ));
ENDSEC;

DATA;
#1 = CIRCLE ( 'NONE', #204, 2.250000000000000000 ) ;
#2 = CC_DESIGN_PERSON_AND_ORGANIZATION_ASSIGNMENT ( #97, #12, ( #181 ) ) ;
#3 = ORIENTED_EDGE ( 'NONE', *, *, #221, .T. ) ;
#4 = ORIENTED_EDGE ( 'NONE', *, *, #343, .T. ) ;
#5 = AXIS2_PLACEMENT_3D ( 'NONE', #123, #124, #93 ) ;
#6 = AXIS2_PLACEMENT_3D ( 'NONE', #79, #189, #48 ) ;
#7 = EDGE_LOOP ( 'NONE', ( #238, #356, #18, #265 ) ) ;
#8 = ORIENTED_EDGE ( 'NONE', *, *, #186, .F. ) ;
#9 = CIRCLE ( 'NONE', #224, 7.000000000000000000 ) ;
#10 = APPROVAL_STATUS ( 'not_yet_approved' ) ;
#11 = ORIENTED_EDGE ( 'NONE', *, *, #150, .F. ) ;
#12 = PERSON_AND_ORGANIZATION_ROLE ( 'creator' ) ;
#13 = CARTESIAN_POINT ( 'NONE',  ( -2.250000000000000000, 0.000000000000000000, 0.000000000000000000 ) ) ;
#14 = ADVANCED_FACE ( 'NONE', ( #120 ), #125, .F. ) ;
#15 = PRODUCT ( 'b767', 'b767', '', ( #304 ) ) ;
#16 = DIRECTION ( 'NONE',  ( 1.000000000000000000, 0.000000000000000000, 0.000000000000000000 ) ) ;
#17 = DIRECTION ( 'NONE',  ( 1.000000000000000000, 0.000000000000000000, 0.000000000000000000 ) ) ;
#18 = ORIENTED_EDGE ( 'NONE', *, *, #235, .T. ) ;
#19 = COORDINATED_UNIVERSAL_TIME_OFFSET ( 1, 0, .AHEAD. ) ;
#20 = DIRECTION ( 'NONE',  ( 1.000000000000000000, 0.000000000000000000, 0.000000000000000000 ) ) ;
#21 = DIRECTION ( 'NONE',  ( 0.000000000000000000, 0.000000000000000000, 1.000000000000000000 ) ) ;
#22 = DIRECTION ( 'NONE',  ( -0.000000000000000000, -0.000000000000000000, -1.000000000000000000 ) ) ;
#23 = CARTESIAN_POINT ( 'NONE',  ( 7.000000000000000000, 8.572527594031473190E-16, 5.000000000000000000 ) ) ;
#24 = CIRCLE ( 'NONE', #318, 7.000000000000000000 ) ;
#25 = LOCAL_TIME ( 11, 11, 0.000000000000000000, #55 ) ;
#26 = DATE_AND_TIME ( #324, #193 ) ;
#27 = AXIS2_PLACEMENT_3D ( 'NONE', #216, #210, #348 ) ;
#28 = VECTOR ( 'NONE', #333, 1000.000000000000000 ) ;
#29 = PRODUCT_DEFINITION_SHAPE ( 'NONE', 'NONE',  #181 ) ;
#30 = EDGE_LOOP ( 'NONE', ( #147, #299 ) ) ;
#31 = ORIENTED_EDGE ( 'NONE', *, *, #314, .T. ) ;
#32 = AXIS2_PLACEMENT_3D ( 'NONE', #80, #190, #133 ) ;
#33 = VERTEX_POINT ( 'NONE', #13 ) ;
#34 = EDGE_LOOP ( 'NONE', ( #206, #202, #63, #296 ) ) ;
#35 = PERSON_AND_ORGANIZATION_ROLE ( 'design_owner' ) ;
#36 = CARTESIAN_POINT ( 'NONE',  ( 0.000000000000000000, 0.000000000000000000, 5.000000000000000000 ) ) ;
#37 = AXIS2_PLACEMENT_3D ( 'NONE', #319, #283, #347 ) ;
#38 = LINE ( 'NONE', #122, #273 ) ;
#39 = PLANE ( 'NONE',  #5 ) ;
#40 = CARTESIAN_POINT ( 'NONE',  ( 0.000000000000000000, 0.000000000000000000, 0.000000000000000000 ) ) ;
#41 = APPLICATION_PROTOCOL_DEFINITION ( 'international standard', 'config_control_design', 1994, #100 ) ;
#42 = VERTEX_POINT ( 'NONE', #94 ) ;
#43 = DIRECTION ( 'NONE',  ( 1.000000000000000000, 0.000000000000000000, 0.000000000000000000 ) ) ;
#44 = DIRECTION ( 'NONE',  ( 1.000000000000000000, 0.000000000000000000, 0.000000000000000000 ) ) ;
#45 = DIRECTION ( 'NONE',  ( -0.000000000000000000, -0.000000000000000000, -1.000000000000000000 ) ) ;
#46 = FACE_OUTER_BOUND ( 'NONE', #355, .T. ) ;
#47 = EDGE_CURVE ( 'NONE', #360, #233, #293, .T. ) ;
#48 = DIRECTION ( 'NONE',  ( 1.000000000000000000, 0.000000000000000000, 0.000000000000000000 ) ) ;
#49 = EDGE_CURVE ( 'NONE', #70, #305, #24, .T. ) ;
#50 = CARTESIAN_POINT ( 'NONE',  ( 0.000000000000000000, 0.000000000000000000, 5.000000000000000000 ) ) ;
#51 = CARTESIAN_POINT ( 'NONE',  ( 0.000000000000000000, 0.000000000000000000, 5.000000000000000000 ) ) ;
#52 = DIRECTION ( 'NONE',  ( 0.000000000000000000, 0.000000000000000000, -1.000000000000000000 ) ) ;
#53 = PERSON_AND_ORGANIZATION ( #56, #178 ) ;
#54 = ADVANCED_FACE ( 'NONE', ( #177, #308 ), #39, .F. ) ;
#55 = COORDINATED_UNIVERSAL_TIME_OFFSET ( 1, 0, .AHEAD. ) ;
#56 = PERSON ( 'NEURÈENÝ', 'NEURÈENÝ', 'NEURÈENÝ', ('NEURÈENÝ'), ('NEURÈENÝ'), ('NEURÈENÝ') ) ;
#57 = ADVANCED_FACE ( 'NONE', ( #46 ), #277, .T. ) ;
#58 = CIRCLE ( 'NONE', #105, 4.000000000000000000 ) ;
#59 = CC_DESIGN_SECURITY_CLASSIFICATION ( #350, ( #290 ) ) ;
#60 = ORIENTED_EDGE ( 'NONE', *, *, #259, .T. ) ;
#61 = EDGE_CURVE ( 'NONE', #365, #143, #272, .T. ) ;
#62 = EDGE_CURVE ( 'NONE', #233, #360, #377, .T. ) ;
#63 = ORIENTED_EDGE ( 'NONE', *, *, #62, .F. ) ;
#64 = CARTESIAN_POINT ( 'NONE',  ( 0.000000000000000000, 0.000000000000000000, 180.0000000000000000 ) ) ;
#65 = EDGE_LOOP ( 'NONE', ( #183, #274 ) ) ;
#66 = ADVANCED_FACE ( 'NONE', ( #337 ), #331, .F. ) ;
#67 = ORIENTED_EDGE ( 'NONE', *, *, #198, .F. ) ;
#68 = DIRECTION ( 'NONE',  ( 0.000000000000000000, 0.000000000000000000, -1.000000000000000000 ) ) ;
#69 = AXIS2_PLACEMENT_3D ( 'NONE', #187, #225, #185 ) ;
#70 = VERTEX_POINT ( 'NONE', #131 ) ;
#71 = CARTESIAN_POINT ( 'NONE',  ( 0.000000000000000000, 0.000000000000000000, 180.0000000000000000 ) ) ;
#72 =( LENGTH_UNIT ( ) NAMED_UNIT ( * ) SI_UNIT ( .MILLI., .METRE. ) );
#73 = DIRECTION ( 'NONE',  ( 1.000000000000000000, 0.000000000000000000, 0.000000000000000000 ) ) ;
#74 = DIRECTION ( 'NONE',  ( 1.224646799147353207E-16, 1.000000000000000000, -0.000000000000000000 ) ) ;
#75 = DIRECTION ( 'NONE',  ( 0.000000000000000000, 0.000000000000000000, 1.000000000000000000 ) ) ;
#76 = DIRECTION ( 'NONE',  ( -1.000000000000000000, 1.224646799147351482E-16, 0.000000000000000000 ) ) ;
#77 = CYLINDRICAL_SURFACE ( 'NONE', #110, 2.250000000000000000 ) ;
#78 = CIRCLE ( 'NONE', #166, 2.250000000000000000 ) ;
#79 = CARTESIAN_POINT ( 'NONE',  ( 0.000000000000000000, 0.000000000000000000, 180.0000000000000000 ) ) ;
#80 = CARTESIAN_POINT ( 'NONE',  ( 0.000000000000000000, 0.000000000000000000, 5.500000000000005329 ) ) ;
#81 = CALENDAR_DATE ( 2022, 10, 7 ) ;
#82 = VECTOR ( 'NONE', #160, 1000.000000000000000 ) ;
#83 = CALENDAR_DATE ( 2022, 10, 7 ) ;
#84 = ORIENTED_EDGE ( 'NONE', *, *, #235, .F. ) ;
#85 = EDGE_LOOP ( 'NONE', ( #8, #151 ) ) ;
#86 = APPROVAL ( #191, 'NEURÈENÝ' ) ;
#87 = ORIENTED_EDGE ( 'NONE', *, *, #47, .F. ) ;
#88 = AXIS2_PLACEMENT_3D ( 'NONE', #36, #311, #92 ) ;
#89 = EDGE_LOOP ( 'NONE', ( #279, #340 ) ) ;
#90 = AXIS2_PLACEMENT_3D ( 'NONE', #64, #317, #44 ) ;
#91 = ORIENTED_EDGE ( 'NONE', *, *, #197, .T. ) ;
#92 = DIRECTION ( 'NONE',  ( 1.000000000000000000, 0.000000000000000000, 0.000000000000000000 ) ) ;
#93 = DIRECTION ( 'NONE',  ( 1.000000000000000000, 0.000000000000000000, -0.000000000000000000 ) ) ;
#94 = CARTESIAN_POINT ( 'NONE',  ( 2.250000000000000000, 2.755455298081543792E-16, 0.000000000000000000 ) ) ;
#95 = AXIS2_PLACEMENT_3D ( 'NONE', #363, #322, #52 ) ;
#96 = DIRECTION ( 'NONE',  ( 1.000000000000000000, 0.000000000000000000, 0.000000000000000000 ) ) ;
#97 = PERSON_AND_ORGANIZATION ( #56, #178 ) ;
#98 = CARTESIAN_POINT ( 'NONE',  ( -4.500000000000000888, 5.510910596163089556E-16, 5.500000000000005329 ) ) ;
#99 = DIRECTION ( 'NONE',  ( -0.000000000000000000, -0.000000000000000000, -1.000000000000000000 ) ) ;
#100 = APPLICATION_CONTEXT ( 'configuration controlled 3d designs of mechanical parts and assemblies' ) ;
#101 = DIRECTION ( 'NONE',  ( 1.000000000000000000, 0.000000000000000000, 0.000000000000000000 ) ) ;
#102 = DIRECTION ( 'NONE',  ( -0.000000000000000000, -0.000000000000000000, -1.000000000000000000 ) ) ;
#103 = DIRECTION ( 'NONE',  ( 0.000000000000000000, 0.000000000000000000, 1.000000000000000000 ) ) ;
#104 = DIRECTION ( 'NONE',  ( 0.000000000000000000, 0.000000000000000000, 1.000000000000000000 ) ) ;
#105 = AXIS2_PLACEMENT_3D ( 'NONE', #255, #155, #73 ) ;
#106 = CIRCLE ( 'NONE', #69, 4.000000000000000000 ) ;
#107 = CC_DESIGN_PERSON_AND_ORGANIZATION_ASSIGNMENT ( #246, #35, ( #15 ) ) ;
#108 = APPROVAL_DATE_TIME ( #26, #86 ) ;
#109 = PERSON_AND_ORGANIZATION_ROLE ( 'design_supplier' ) ;
#110 = AXIS2_PLACEMENT_3D ( 'NONE', #320, #68, #367 ) ;
#111 = APPROVAL_PERSON_ORGANIZATION ( #129, #298, #380 ) ;
#112 = EDGE_CURVE ( 'NONE', #70, #234, #242, .T. ) ;
#113 = ORIENTED_EDGE ( 'NONE', *, *, #126, .T. ) ;
#114 = AXIS2_PLACEMENT_3D ( 'NONE', #244, #214, #240 ) ;
#115 = ORIENTED_EDGE ( 'NONE', *, *, #357, .F. ) ;
#116 = EDGE_LOOP ( 'NONE', ( #67, #84, #113, #87 ) ) ;
#117 = ORIENTED_EDGE ( 'NONE', *, *, #229, .F. ) ;
#118 = CIRCLE ( 'NONE', #6, 4.000000000000000000 ) ;
#119 = APPROVAL_ROLE ( '' ) ;
#120 = FACE_OUTER_BOUND ( 'NONE', #334, .T. ) ;
#121 = DIRECTION ( 'NONE',  ( 0.000000000000000000, 0.000000000000000000, 1.000000000000000000 ) ) ;
#122 = CARTESIAN_POINT ( 'NONE',  ( 4.000000000000000000, 4.898587196589412829E-16, 180.0000000000000000 ) ) ;
#123 = CARTESIAN_POINT ( 'NONE',  ( 0.000000000000000000, 0.000000000000000000, 0.000000000000000000 ) ) ;
#124 = DIRECTION ( 'NONE',  ( 0.000000000000000000, 0.000000000000000000, 1.000000000000000000 ) ) ;
#125 = CYLINDRICAL_SURFACE ( 'NONE', #114, 2.250000000000000000 ) ;
#126 = EDGE_CURVE ( 'NONE', #330, #233, #199, .T. ) ;
#127 = PLANE ( 'NONE',  #205 ) ;
#128 = CIRCLE ( 'NONE', #354, 2.250000000000000000 ) ;
#129 = PERSON_AND_ORGANIZATION ( #56, #178 ) ;
#130 = CARTESIAN_POINT ( 'NONE',  ( 0.000000000000000000, 0.000000000000000000, 180.0000000000000000 ) ) ;
#131 = CARTESIAN_POINT ( 'NONE',  ( 7.000000000000000000, 8.572527594031473190E-16, 5.000000000000000000 ) ) ;
#132 = FACE_OUTER_BOUND ( 'NONE', #7, .T. ) ;
#133 = DIRECTION ( 'NONE',  ( 1.000000000000000000, 0.000000000000000000, 0.000000000000000000 ) ) ;
#134 = ADVANCED_FACE ( 'NONE', ( #188 ), #141, .F. ) ;
#135 = UNCERTAINTY_MEASURE_WITH_UNIT (LENGTH_MEASURE( 1.000000000000000082E-05 ), #72, 'distance_accuracy_value', 'NONE');
#136 = CIRCLE ( 'NONE', #359, 7.000000000000000000 ) ;
#137 = ADVANCED_BREP_SHAPE_REPRESENTATION ( 'b767', ( #182, #263 ), #172 ) ;
#138 = VECTOR ( 'NONE', #250, 1000.000000000000000 ) ;
#139 = VERTEX_POINT ( 'NONE', #163 ) ;
#140 = ORIENTED_EDGE ( 'NONE', *, *, #49, .F. ) ;
#141 = TOROIDAL_SURFACE ( 'NONE', #192, 4.500000000000000888, 0.5000000000000000000 ) ;
#142 = CC_DESIGN_APPROVAL ( #86, ( #350 ) ) ;
#143 = VERTEX_POINT ( 'NONE', #256 ) ;
#144 = ORIENTED_EDGE ( 'NONE', *, *, #186, .T. ) ;
#145 = LINE ( 'NONE', #346, #28 ) ;
#146 = VERTEX_POINT ( 'NONE', #153 ) ;
#147 = ORIENTED_EDGE ( 'NONE', *, *, #62, .T. ) ;
#148 = DIRECTION ( 'NONE',  ( -0.000000000000000000, -0.000000000000000000, -1.000000000000000000 ) ) ;
#149 = CARTESIAN_POINT ( 'NONE',  ( 0.000000000000000000, 0.000000000000000000, 0.000000000000000000 ) ) ;
#150 = EDGE_CURVE ( 'NONE', #231, #33, #223, .T. ) ;
#151 = ORIENTED_EDGE ( 'NONE', *, *, #294, .F. ) ;
#152 = PRODUCT_RELATED_PRODUCT_CATEGORY ( 'detail', '', ( #15 ) ) ;
#153 = CARTESIAN_POINT ( 'NONE',  ( -7.000000000000000000, 0.000000000000000000, 0.000000000000000000 ) ) ;
#154 = DATE_AND_TIME ( #275, #282 ) ;
#155 = DIRECTION ( 'NONE',  ( 0.000000000000000000, 0.000000000000000000, 1.000000000000000000 ) ) ;
#156 = AXIS2_PLACEMENT_3D ( 'NONE', #50, #121, #345 ) ;
#157 = CARTESIAN_POINT ( 'NONE',  ( 0.000000000000000000, 0.000000000000000000, 5.000000000000000000 ) ) ;
#158 = AXIS2_PLACEMENT_3D ( 'NONE', #130, #351, #371 ) ;
#159 = FACE_OUTER_BOUND ( 'NONE', #236, .T. ) ;
#160 = DIRECTION ( 'NONE',  ( 0.000000000000000000, 0.000000000000000000, -1.000000000000000000 ) ) ;
#161 = SECURITY_CLASSIFICATION_LEVEL ( 'unclassified' ) ;
#162 = CARTESIAN_POINT ( 'NONE',  ( -2.250000000000000000, 0.000000000000000000, 180.0000000000000000 ) ) ;
#163 = CARTESIAN_POINT ( 'NONE',  ( 2.250000000000000000, 2.755455298081543792E-16, 180.0000000000000000 ) ) ;
#164 = DATE_AND_TIME ( #83, #257 ) ;
#165 = ADVANCED_FACE ( 'NONE', ( #369 ), #77, .F. ) ;
#166 = AXIS2_PLACEMENT_3D ( 'NONE', #344, #218, #101 ) ;
#167 = EDGE_CURVE ( 'NONE', #365, #358, #352, .T. ) ;
#168 = ADVANCED_FACE ( 'NONE', ( #372, #341 ), #219, .T. ) ;
#169 = ORIENTED_EDGE ( 'NONE', *, *, #150, .T. ) ;
#170 = ORIENTED_EDGE ( 'NONE', *, *, #271, .F. ) ;
#171 = VECTOR ( 'NONE', #375, 1000.000000000000000 ) ;
#172 =( GEOMETRIC_REPRESENTATION_CONTEXT ( 3 ) GLOBAL_UNCERTAINTY_ASSIGNED_CONTEXT ( ( #135 ) ) GLOBAL_UNIT_ASSIGNED_CONTEXT ( ( #72, #251, #335 ) ) REPRESENTATION_CONTEXT ( 'NONE', 'WORKASPACE' ) );
#173 = ORIENTED_EDGE ( 'NONE', *, *, #167, .T. ) ;
#174 = ADVANCED_FACE ( 'NONE', ( #179, #245 ), #127, .T. ) ;
#175 = ORIENTED_EDGE ( 'NONE', *, *, #61, .F. ) ;
#176 = APPROVAL_DATE_TIME ( #154, #230 ) ;
#177 = FACE_BOUND ( 'NONE', #85, .T. ) ;
#178 = ORGANIZATION ( 'NEURÈENÝ', 'NEURÈENÝ', '' ) ;
#179 = FACE_BOUND ( 'NONE', #65, .T. ) ;
#180 = CARTESIAN_POINT ( 'NONE',  ( 0.000000000000000000, 0.000000000000000000, 180.0000000000000000 ) ) ;
#181 = PRODUCT_DEFINITION ( 'NEZNÁMÝ', '', #290, #378 ) ;
#182 = MANIFOLD_SOLID_BREP ( 'Odebrat vysunutím3', #338 ) ;
#183 = ORIENTED_EDGE ( 'NONE', *, *, #343, .F. ) ;
#184 = LINE ( 'NONE', #312, #138 ) ;
#185 = DIRECTION ( 'NONE',  ( 1.000000000000000000, 0.000000000000000000, 0.000000000000000000 ) ) ;
#186 = EDGE_CURVE ( 'NONE', #33, #42, #1, .T. ) ;
#187 = CARTESIAN_POINT ( 'NONE',  ( 0.000000000000000000, 0.000000000000000000, 5.500000000000005329 ) ) ;
#188 = FACE_OUTER_BOUND ( 'NONE', #116, .T. ) ;
#189 = DIRECTION ( 'NONE',  ( 0.000000000000000000, 0.000000000000000000, 1.000000000000000000 ) ) ;
#190 = DIRECTION ( 'NONE',  ( 0.000000000000000000, 0.000000000000000000, 1.000000000000000000 ) ) ;
#191 = APPROVAL_STATUS ( 'not_yet_approved' ) ;
#192 = AXIS2_PLACEMENT_3D ( 'NONE', #226, #253, #43 ) ;
#193 = LOCAL_TIME ( 11, 11, 0.000000000000000000, #196 ) ;
#194 = APPROVAL_DATE_TIME ( #258, #298 ) ;
#195 = CC_DESIGN_DATE_AND_TIME_ASSIGNMENT ( #313, #281, ( #181 ) ) ;
#196 = COORDINATED_UNIVERSAL_TIME_OFFSET ( 1, 0, .AHEAD. ) ;
#197 = EDGE_CURVE ( 'NONE', #139, #42, #184, .T. ) ;
#198 = EDGE_CURVE ( 'NONE', #358, #360, #237, .T. ) ;
#199 = CIRCLE ( 'NONE', #95, 0.5000000000000004441 ) ;
#200 = CIRCLE ( 'NONE', #37, 7.000000000000000000 ) ;
#201 = EDGE_LOOP ( 'NONE', ( #329, #270 ) ) ;
#202 = ORIENTED_EDGE ( 'NONE', *, *, #198, .T. ) ;
#203 = ORIENTED_EDGE ( 'NONE', *, *, #366, .F. ) ;
#204 = AXIS2_PLACEMENT_3D ( 'NONE', #40, #148, #96 ) ;
#205 = AXIS2_PLACEMENT_3D ( 'NONE', #316, #104, #309 ) ;
#206 = ORIENTED_EDGE ( 'NONE', *, *, #259, .F. ) ;
#207 = ORIENTED_EDGE ( 'NONE', *, *, #366, .T. ) ;
#208 = CARTESIAN_POINT ( 'NONE',  ( -4.000000000000000000, 0.000000000000000000, 180.0000000000000000 ) ) ;
#209 = DIRECTION ( 'NONE',  ( 0.000000000000000000, 0.000000000000000000, 1.000000000000000000 ) ) ;
#210 = DIRECTION ( 'NONE',  ( -0.000000000000000000, -0.000000000000000000, -1.000000000000000000 ) ) ;
#211 = CC_DESIGN_PERSON_AND_ORGANIZATION_ASSIGNMENT ( #227, #260, ( #350 ) ) ;
#212 = FACE_OUTER_BOUND ( 'NONE', #332, .T. ) ;
#213 = VECTOR ( 'NONE', #286, 1000.000000000000000 ) ;
#214 = DIRECTION ( 'NONE',  ( 0.000000000000000000, 0.000000000000000000, -1.000000000000000000 ) ) ;
#215 = APPROVAL_PERSON_ORGANIZATION ( #53, #86, #291 ) ;
#216 = CARTESIAN_POINT ( 'NONE',  ( 0.000000000000000000, 0.000000000000000000, 5.000000000000000000 ) ) ;
#217 = CALENDAR_DATE ( 2022, 10, 7 ) ;
#218 = DIRECTION ( 'NONE',  ( 0.000000000000000000, 0.000000000000000000, 1.000000000000000000 ) ) ;
#219 = PLANE ( 'NONE',  #156 ) ;
#220 = CARTESIAN_POINT ( 'NONE',  ( -7.000000000000000000, 0.000000000000000000, 5.000000000000000000 ) ) ;
#221 = EDGE_CURVE ( 'NONE', #139, #231, #78, .T. ) ;
#222 = CARTESIAN_POINT ( 'NONE',  ( 7.000000000000000000, 8.572527594031473190E-16, 0.000000000000000000 ) ) ;
#223 = LINE ( 'NONE', #284, #82 ) ;
#224 = AXIS2_PLACEMENT_3D ( 'NONE', #374, #103, #315 ) ;
#225 = DIRECTION ( 'NONE',  ( 0.000000000000000000, 0.000000000000000000, 1.000000000000000000 ) ) ;
#226 = CARTESIAN_POINT ( 'NONE',  ( 0.000000000000000000, 0.000000000000000000, 5.500000000000005329 ) ) ;
#227 = PERSON_AND_ORGANIZATION ( #56, #178 ) ;
#228 = DATE_TIME_ROLE ( 'classification_date' ) ;
#229 = EDGE_CURVE ( 'NONE', #234, #146, #9, .T. ) ;
#230 = APPROVAL ( #10, 'NEURÈENÝ' ) ;
#231 = VERTEX_POINT ( 'NONE', #162 ) ;
#232 = AXIS2_PLACEMENT_3D ( 'NONE', #180, #99, #306 ) ;
#233 = VERTEX_POINT ( 'NONE', #321 ) ;
#234 = VERTEX_POINT ( 'NONE', #222 ) ;
#235 = EDGE_CURVE ( 'NONE', #330, #358, #58, .T. ) ;
#236 = EDGE_LOOP ( 'NONE', ( #301, #170, #31, #207 ) ) ;
#237 = CIRCLE ( 'NONE', #349, 0.5000000000000004441 ) ;
#238 = ORIENTED_EDGE ( 'NONE', *, *, #289, .F. ) ;
#239 = COORDINATED_UNIVERSAL_TIME_OFFSET ( 1, 0, .AHEAD. ) ;
#240 = DIRECTION ( 'NONE',  ( -1.000000000000000000, 0.000000000000000000, 0.000000000000000000 ) ) ;
#241 = ADVANCED_FACE ( 'NONE', ( #132 ), #252, .T. ) ;
#242 = LINE ( 'NONE', #23, #213 ) ;
#243 = CARTESIAN_POINT ( 'NONE',  ( -4.000000000000000000, 0.000000000000000000, 5.500000000000005329 ) ) ;
#244 = CARTESIAN_POINT ( 'NONE',  ( 0.000000000000000000, 0.000000000000000000, 180.0000000000000000 ) ) ;
#245 = FACE_OUTER_BOUND ( 'NONE', #201, .T. ) ;
#246 = PERSON_AND_ORGANIZATION ( #56, #178 ) ;
#247 = AXIS2_PLACEMENT_3D ( 'NONE', #71, #21, #16 ) ;
#248 = EDGE_LOOP ( 'NONE', ( #203, #117 ) ) ;
#249 = CC_DESIGN_APPROVAL ( #230, ( #181 ) ) ;
#250 = DIRECTION ( 'NONE',  ( 0.000000000000000000, 0.000000000000000000, -1.000000000000000000 ) ) ;
#251 =( NAMED_UNIT ( * ) PLANE_ANGLE_UNIT ( ) SI_UNIT ( $, .RADIAN. ) );
#252 = CYLINDRICAL_SURFACE ( 'NONE', #158, 4.000000000000000000 ) ;
#253 = DIRECTION ( 'NONE',  ( 0.000000000000000000, 0.000000000000000000, 1.000000000000000000 ) ) ;
#254 = APPLICATION_PROTOCOL_DEFINITION ( 'international standard', 'config_control_design', 1994, #302 ) ;
#255 = CARTESIAN_POINT ( 'NONE',  ( 0.000000000000000000, 0.000000000000000000, 5.500000000000005329 ) ) ;
#256 = CARTESIAN_POINT ( 'NONE',  ( 4.000000000000000000, 4.898587196589412829E-16, 180.0000000000000000 ) ) ;
#257 = LOCAL_TIME ( 11, 11, 0.000000000000000000, #379 ) ;
#258 = DATE_AND_TIME ( #81, #25 ) ;
#259 = EDGE_CURVE ( 'NONE', #358, #330, #106, .T. ) ;
#260 = PERSON_AND_ORGANIZATION_ROLE ( 'classification_officer' ) ;
#261 = PERSON_AND_ORGANIZATION ( #56, #178 ) ;
#262 = APPROVAL_PERSON_ORGANIZATION ( #368, #230, #119 ) ;
#263 = AXIS2_PLACEMENT_3D ( 'NONE', #149, #278, #361 ) ;
#264 = ORIENTED_EDGE ( 'NONE', *, *, #229, .T. ) ;
#265 = ORIENTED_EDGE ( 'NONE', *, *, #167, .F. ) ;
#266 = AXIS2_PLACEMENT_3D ( 'NONE', #157, #102, #280 ) ;
#267 = CC_DESIGN_APPROVAL ( #298, ( #290 ) ) ;
#268 = CC_DESIGN_PERSON_AND_ORGANIZATION_ASSIGNMENT ( #261, #353, ( #290 ) ) ;
#269 = ORIENTED_EDGE ( 'NONE', *, *, #314, .F. ) ;
#270 = ORIENTED_EDGE ( 'NONE', *, *, #289, .T. ) ;
#271 = EDGE_CURVE ( 'NONE', #305, #70, #200, .T. ) ;
#272 = CIRCLE ( 'NONE', #247, 4.000000000000000000 ) ;
#273 = VECTOR ( 'NONE', #373, 1000.000000000000000 ) ;
#274 = ORIENTED_EDGE ( 'NONE', *, *, #221, .F. ) ;
#275 = CALENDAR_DATE ( 2022, 10, 7 ) ;
#276 = EDGE_LOOP ( 'NONE', ( #4, #91, #303, #11 ) ) ;
#277 = CYLINDRICAL_SURFACE ( 'NONE', #266, 7.000000000000000000 ) ;
#278 = DIRECTION ( 'NONE',  ( 0.000000000000000000, 0.000000000000000000, 1.000000000000000000 ) ) ;
#279 = ORIENTED_EDGE ( 'NONE', *, *, #271, .T. ) ;
#280 = DIRECTION ( 'NONE',  ( -1.000000000000000000, 0.000000000000000000, 0.000000000000000000 ) ) ;
#281 = DATE_TIME_ROLE ( 'creation_date' ) ;
#282 = LOCAL_TIME ( 11, 11, 0.000000000000000000, #239 ) ;
#283 = DIRECTION ( 'NONE',  ( 0.000000000000000000, 0.000000000000000000, 1.000000000000000000 ) ) ;
#284 = CARTESIAN_POINT ( 'NONE',  ( -2.250000000000000000, 0.000000000000000000, 180.0000000000000000 ) ) ;
#285 = CYLINDRICAL_SURFACE ( 'NONE', #307, 7.000000000000000000 ) ;
#286 = DIRECTION ( 'NONE',  ( -0.000000000000000000, -0.000000000000000000, -1.000000000000000000 ) ) ;
#287 = CARTESIAN_POINT ( 'NONE',  ( 0.000000000000000000, 0.000000000000000000, 0.000000000000000000 ) ) ;
#288 = CARTESIAN_POINT ( 'NONE',  ( -4.000000000000000000, 0.000000000000000000, 180.0000000000000000 ) ) ;
#289 = EDGE_CURVE ( 'NONE', #143, #365, #118, .T. ) ;
#290 = PRODUCT_DEFINITION_FORMATION_WITH_SPECIFIED_SOURCE ( 'LIBOVOLNÝ', '', #15, .NOT_KNOWN. ) ;
#291 = APPROVAL_ROLE ( '' ) ;
#292 = CC_DESIGN_PERSON_AND_ORGANIZATION_ASSIGNMENT ( #326, #109, ( #290 ) ) ;
#293 = CIRCLE ( 'NONE', #88, 4.500000000000000888 ) ;
#294 = EDGE_CURVE ( 'NONE', #42, #33, #128, .T. ) ;
#295 = ORIENTED_EDGE ( 'NONE', *, *, #197, .F. ) ;
#296 = ORIENTED_EDGE ( 'NONE', *, *, #126, .F. ) ;
#297 = ADVANCED_FACE ( 'NONE', ( #159 ), #285, .T. ) ;
#298 = APPROVAL ( #381, 'NEURÈENÝ' ) ;
#299 = ORIENTED_EDGE ( 'NONE', *, *, #47, .T. ) ;
#300 = CIRCLE ( 'NONE', #90, 2.250000000000000000 ) ;
#301 = ORIENTED_EDGE ( 'NONE', *, *, #112, .F. ) ;
#302 = APPLICATION_CONTEXT ( 'configuration controlled 3d designs of mechanical parts and assemblies' ) ;
#303 = ORIENTED_EDGE ( 'NONE', *, *, #294, .T. ) ;
#304 = MECHANICAL_CONTEXT ( 'NONE', #100, 'mechanical' ) ;
#305 = VERTEX_POINT ( 'NONE', #220 ) ;
#306 = DIRECTION ( 'NONE',  ( -1.000000000000000000, 0.000000000000000000, 0.000000000000000000 ) ) ;
#307 = AXIS2_PLACEMENT_3D ( 'NONE', #51, #22, #370 ) ;
#308 = FACE_OUTER_BOUND ( 'NONE', #248, .T. ) ;
#309 = DIRECTION ( 'NONE',  ( 1.000000000000000000, 0.000000000000000000, -0.000000000000000000 ) ) ;
#310 = CARTESIAN_POINT ( 'NONE',  ( 4.000000000000000000, 4.898587196589412829E-16, 5.500000000000005329 ) ) ;
#311 = DIRECTION ( 'NONE',  ( -0.000000000000000000, -0.000000000000000000, -1.000000000000000000 ) ) ;
#312 = CARTESIAN_POINT ( 'NONE',  ( 2.250000000000000000, 2.755455298081543792E-16, 180.0000000000000000 ) ) ;
#313 = DATE_AND_TIME ( #217, #325 ) ;
#314 = EDGE_CURVE ( 'NONE', #305, #146, #145, .T. ) ;
#315 = DIRECTION ( 'NONE',  ( 1.000000000000000000, 0.000000000000000000, 0.000000000000000000 ) ) ;
#316 = CARTESIAN_POINT ( 'NONE',  ( 0.000000000000000000, 0.000000000000000000, 180.0000000000000000 ) ) ;
#317 = DIRECTION ( 'NONE',  ( 0.000000000000000000, 0.000000000000000000, 1.000000000000000000 ) ) ;
#318 = AXIS2_PLACEMENT_3D ( 'NONE', #362, #209, #336 ) ;
#319 = CARTESIAN_POINT ( 'NONE',  ( 0.000000000000000000, 0.000000000000000000, 5.000000000000000000 ) ) ;
#320 = CARTESIAN_POINT ( 'NONE',  ( 0.000000000000000000, 0.000000000000000000, 180.0000000000000000 ) ) ;
#321 = CARTESIAN_POINT ( 'NONE',  ( 4.500000000000000888, 0.000000000000000000, 5.000000000000002665 ) ) ;
#322 = DIRECTION ( 'NONE',  ( 0.000000000000000000, -1.000000000000000000, 0.000000000000000000 ) ) ;
#323 = CC_DESIGN_DATE_AND_TIME_ASSIGNMENT ( #164, #228, ( #350 ) ) ;
#324 = CALENDAR_DATE ( 2022, 10, 7 ) ;
#325 = LOCAL_TIME ( 11, 11, 0.000000000000000000, #19 ) ;
#326 = PERSON_AND_ORGANIZATION ( #56, #178 ) ;
#327 = ORIENTED_EDGE ( 'NONE', *, *, #112, .T. ) ;
#328 = ADVANCED_FACE ( 'NONE', ( #212 ), #339, .T. ) ;
#329 = ORIENTED_EDGE ( 'NONE', *, *, #61, .T. ) ;
#330 = VERTEX_POINT ( 'NONE', #310 ) ;
#331 = TOROIDAL_SURFACE ( 'NONE', #32, 4.500000000000000888, 0.5000000000000000000 ) ;
#332 = EDGE_LOOP ( 'NONE', ( #115, #175, #173, #60 ) ) ;
#333 = DIRECTION ( 'NONE',  ( -0.000000000000000000, -0.000000000000000000, -1.000000000000000000 ) ) ;
#334 = EDGE_LOOP ( 'NONE', ( #295, #3, #169, #144 ) ) ;
#335 =( NAMED_UNIT ( * ) SI_UNIT ( $, .STERADIAN. ) SOLID_ANGLE_UNIT ( ) );
#336 = DIRECTION ( 'NONE',  ( 1.000000000000000000, 0.000000000000000000, 0.000000000000000000 ) ) ;
#337 = FACE_OUTER_BOUND ( 'NONE', #34, .T. ) ;
#338 = CLOSED_SHELL ( 'NONE', ( #165, #66, #241, #57, #297, #168, #54, #328, #174, #134, #14 ) ) ;
#339 = CYLINDRICAL_SURFACE ( 'NONE', #232, 4.000000000000000000 ) ;
#340 = ORIENTED_EDGE ( 'NONE', *, *, #49, .T. ) ;
#341 = FACE_OUTER_BOUND ( 'NONE', #89, .T. ) ;
#342 = CARTESIAN_POINT ( 'NONE',  ( 0.000000000000000000, 0.000000000000000000, 0.000000000000000000 ) ) ;
#343 = EDGE_CURVE ( 'NONE', #231, #139, #300, .T. ) ;
#344 = CARTESIAN_POINT ( 'NONE',  ( 0.000000000000000000, 0.000000000000000000, 180.0000000000000000 ) ) ;
#345 = DIRECTION ( 'NONE',  ( 1.000000000000000000, 0.000000000000000000, -0.000000000000000000 ) ) ;
#346 = CARTESIAN_POINT ( 'NONE',  ( -7.000000000000000000, 0.000000000000000000, 5.000000000000000000 ) ) ;
#347 = DIRECTION ( 'NONE',  ( 1.000000000000000000, 0.000000000000000000, 0.000000000000000000 ) ) ;
#348 = DIRECTION ( 'NONE',  ( 1.000000000000000000, 0.000000000000000000, 0.000000000000000000 ) ) ;
#349 = AXIS2_PLACEMENT_3D ( 'NONE', #98, #74, #76 ) ;
#350 = SECURITY_CLASSIFICATION ( '', '', #161 ) ;
#351 = DIRECTION ( 'NONE',  ( -0.000000000000000000, -0.000000000000000000, -1.000000000000000000 ) ) ;
#352 = LINE ( 'NONE', #288, #171 ) ;
#353 = PERSON_AND_ORGANIZATION_ROLE ( 'creator' ) ;
#354 = AXIS2_PLACEMENT_3D ( 'NONE', #287, #45, #20 ) ;
#355 = EDGE_LOOP ( 'NONE', ( #140, #327, #264, #269 ) ) ;
#356 = ORIENTED_EDGE ( 'NONE', *, *, #357, .T. ) ;
#357 = EDGE_CURVE ( 'NONE', #143, #330, #38, .T. ) ;
#358 = VERTEX_POINT ( 'NONE', #243 ) ;
#359 = AXIS2_PLACEMENT_3D ( 'NONE', #342, #75, #17 ) ;
#360 = VERTEX_POINT ( 'NONE', #364 ) ;
#361 = DIRECTION ( 'NONE',  ( 1.000000000000000000, 0.000000000000000000, 0.000000000000000000 ) ) ;
#362 = CARTESIAN_POINT ( 'NONE',  ( 0.000000000000000000, 0.000000000000000000, 5.000000000000000000 ) ) ;
#363 = CARTESIAN_POINT ( 'NONE',  ( 4.500000000000000888, 0.000000000000000000, 5.500000000000005329 ) ) ;
#364 = CARTESIAN_POINT ( 'NONE',  ( -4.500000000000000888, 5.510910596163088569E-16, 5.000000000000002665 ) ) ;
#365 = VERTEX_POINT ( 'NONE', #208 ) ;
#366 = EDGE_CURVE ( 'NONE', #146, #234, #136, .T. ) ;
#367 = DIRECTION ( 'NONE',  ( -1.000000000000000000, 0.000000000000000000, 0.000000000000000000 ) ) ;
#368 = PERSON_AND_ORGANIZATION ( #56, #178 ) ;
#369 = FACE_OUTER_BOUND ( 'NONE', #276, .T. ) ;
#370 = DIRECTION ( 'NONE',  ( -1.000000000000000000, 0.000000000000000000, 0.000000000000000000 ) ) ;
#371 = DIRECTION ( 'NONE',  ( -1.000000000000000000, 0.000000000000000000, 0.000000000000000000 ) ) ;
#372 = FACE_BOUND ( 'NONE', #30, .T. ) ;
#373 = DIRECTION ( 'NONE',  ( -0.000000000000000000, -0.000000000000000000, -1.000000000000000000 ) ) ;
#374 = CARTESIAN_POINT ( 'NONE',  ( 0.000000000000000000, 0.000000000000000000, 0.000000000000000000 ) ) ;
#375 = DIRECTION ( 'NONE',  ( -0.000000000000000000, -0.000000000000000000, -1.000000000000000000 ) ) ;
#376 = SHAPE_DEFINITION_REPRESENTATION ( #29, #137 ) ;
#377 = CIRCLE ( 'NONE', #27, 4.500000000000000888 ) ;
#378 = DESIGN_CONTEXT ( 'detailed design', #302, 'design' ) ;
#379 = COORDINATED_UNIVERSAL_TIME_OFFSET ( 1, 0, .AHEAD. ) ;
#380 = APPROVAL_ROLE ( '' ) ;
#381 = APPROVAL_STATUS ( 'not_yet_approved' ) ;
ENDSEC;
END-ISO-10303-21;
