ISO-10303-21;
HEADER;
FILE_DESCRIPTION (( 'STEP AP203' ),
    '1' );
FILE_NAME ('42f0.STEP',
    '2022-07-10T09:12:38',
    ( '' ),
    ( '' ),
    'SwSTEP 2.0',
    'SolidWorks 2019',
    '' );
FILE_SCHEMA (( 'CONFIG_CONTROL_DESIGN' ));
ENDSEC;

DATA;
#1 = CARTESIAN_POINT ( 'NONE',  ( 0.000000000000000000, 0.000000000000000000, 5.000000000000000000 ) ) ;
#2 = AXIS2_PLACEMENT_3D ( 'NONE', #300, #34, #266 ) ;
#3 = APPLICATION_PROTOCOL_DEFINITION ( 'international standard', 'config_control_design', 1994, #316 ) ;
#4 = CARTESIAN_POINT ( 'NONE',  ( 7.000000000000000000, 8.572527594031473190E-16, 5.000000000000000000 ) ) ;
#5 = DIRECTION ( 'NONE',  ( 1.000000000000000000, 0.000000000000000000, 0.000000000000000000 ) ) ;
#6 = APPROVAL_PERSON_ORGANIZATION ( #215, #356, #152 ) ;
#7 = CALENDAR_DATE ( 2022, 10, 7 ) ;
#8 = LINE ( 'NONE', #191, #229 ) ;
#9 = DIRECTION ( 'NONE',  ( 1.000000000000000000, 0.000000000000000000, 0.000000000000000000 ) ) ;
#10 = EDGE_CURVE ( 'NONE', #200, #255, #22, .T. ) ;
#11 = SHAPE_DEFINITION_REPRESENTATION ( #361, #161 ) ;
#12 = CC_DESIGN_PERSON_AND_ORGANIZATION_ASSIGNMENT ( #63, #30, ( #165 ) ) ;
#13 = LOCAL_TIME ( 11, 12, 38.00000000000000000, #267 ) ;
#14 = APPROVAL_STATUS ( 'not_yet_approved' ) ;
#15 = DIRECTION ( 'NONE',  ( 0.000000000000000000, 0.000000000000000000, 1.000000000000000000 ) ) ;
#16 = VERTEX_POINT ( 'NONE', #208 ) ;
#17 = APPROVAL_STATUS ( 'not_yet_approved' ) ;
#18 = DIRECTION ( 'NONE',  ( 0.000000000000000000, 0.000000000000000000, 1.000000000000000000 ) ) ;
#19 = ORIENTED_EDGE ( 'NONE', *, *, #128, .F. ) ;
#20 = AXIS2_PLACEMENT_3D ( 'NONE', #73, #194, #357 ) ;
#21 = ORIENTED_EDGE ( 'NONE', *, *, #219, .F. ) ;
#22 = CIRCLE ( 'NONE', #55, 4.000000000000000000 ) ;
#23 = ORIENTED_EDGE ( 'NONE', *, *, #219, .T. ) ;
#24 = EDGE_CURVE ( 'NONE', #200, #313, #103, .T. ) ;
#25 = AXIS2_PLACEMENT_3D ( 'NONE', #170, #18, #232 ) ;
#26 = DIRECTION ( 'NONE',  ( 0.000000000000000000, 0.000000000000000000, 1.000000000000000000 ) ) ;
#27 = DIRECTION ( 'NONE',  ( 0.000000000000000000, 0.000000000000000000, 1.000000000000000000 ) ) ;
#28 = EDGE_CURVE ( 'NONE', #85, #203, #116, .T. ) ;
#29 = AXIS2_PLACEMENT_3D ( 'NONE', #290, #52, #113 ) ;
#30 = PERSON_AND_ORGANIZATION_ROLE ( 'design_owner' ) ;
#31 = DIRECTION ( 'NONE',  ( 1.000000000000000000, 0.000000000000000000, 0.000000000000000000 ) ) ;
#32 = DIRECTION ( 'NONE',  ( 0.000000000000000000, 0.000000000000000000, 1.000000000000000000 ) ) ;
#33 = CARTESIAN_POINT ( 'NONE',  ( 0.000000000000000000, 0.000000000000000000, 0.000000000000000000 ) ) ;
#34 = DIRECTION ( 'NONE',  ( 0.000000000000000000, 0.000000000000000000, 1.000000000000000000 ) ) ;
#35 = CALENDAR_DATE ( 2022, 10, 7 ) ;
#36 = DIRECTION ( 'NONE',  ( -0.000000000000000000, -0.000000000000000000, -1.000000000000000000 ) ) ;
#37 = DESIGN_CONTEXT ( 'detailed design', #122, 'design' ) ;
#38 = PERSON ( 'NEURÈENÝ', 'NEURÈENÝ', 'NEURÈENÝ', ('NEURÈENÝ'), ('NEURÈENÝ'), ('NEURÈENÝ') ) ;
#39 = APPROVAL_DATE_TIME ( #225, #120 ) ;
#40 = DIRECTION ( 'NONE',  ( 0.000000000000000000, 0.000000000000000000, -1.000000000000000000 ) ) ;
#41 = EDGE_LOOP ( 'NONE', ( #365, #50, #285, #74 ) ) ;
#42 = CIRCLE ( 'NONE', #220, 4.000000000000000000 ) ;
#43 = FACE_OUTER_BOUND ( 'NONE', #41, .T. ) ;
#44 = CIRCLE ( 'NONE', #20, 0.5000000000000004441 ) ;
#45 = PERSON_AND_ORGANIZATION ( #38, #250 ) ;
#46 = ORIENTED_EDGE ( 'NONE', *, *, #256, .T. ) ;
#47 = EDGE_CURVE ( 'NONE', #313, #373, #75, .T. ) ;
#48 = ORIENTED_EDGE ( 'NONE', *, *, #10, .F. ) ;
#49 = CYLINDRICAL_SURFACE ( 'NONE', #223, 4.000000000000000000 ) ;
#50 = ORIENTED_EDGE ( 'NONE', *, *, #261, .T. ) ;
#51 = CC_DESIGN_APPROVAL ( #120, ( #331 ) ) ;
#52 = DIRECTION ( 'NONE',  ( 0.000000000000000000, 0.000000000000000000, 1.000000000000000000 ) ) ;
#53 = ORIENTED_EDGE ( 'NONE', *, *, #261, .F. ) ;
#54 = EDGE_LOOP ( 'NONE', ( #160, #56, #280, #349 ) ) ;
#55 = AXIS2_PLACEMENT_3D ( 'NONE', #205, #87, #178 ) ;
#56 = ORIENTED_EDGE ( 'NONE', *, *, #175, .T. ) ;
#57 = SECURITY_CLASSIFICATION ( '', '', #134 ) ;
#58 = ADVANCED_FACE ( 'NONE', ( #354 ), #117, .F. ) ;
#59 = ORIENTED_EDGE ( 'NONE', *, *, #175, .F. ) ;
#60 = ADVANCED_FACE ( 'NONE', ( #328, #297 ), #322, .T. ) ;
#61 = DIRECTION ( 'NONE',  ( 0.000000000000000000, 0.000000000000000000, 1.000000000000000000 ) ) ;
#62 = CARTESIAN_POINT ( 'NONE',  ( 4.000000000000000000, 4.898587196589412829E-16, 155.0000000000000000 ) ) ;
#63 = PERSON_AND_ORGANIZATION ( #38, #250 ) ;
#64 = CARTESIAN_POINT ( 'NONE',  ( 0.000000000000000000, 0.000000000000000000, 5.500000000000005329 ) ) ;
#65 = APPROVAL ( #17, 'NEURÈENÝ' ) ;
#66 = DIRECTION ( 'NONE',  ( 0.000000000000000000, 0.000000000000000000, 1.000000000000000000 ) ) ;
#67 = CARTESIAN_POINT ( 'NONE',  ( 2.100000000000000089, 2.571758278209441957E-16, 0.000000000000000000 ) ) ;
#68 = DIRECTION ( 'NONE',  ( 1.000000000000000000, 0.000000000000000000, -0.000000000000000000 ) ) ;
#69 = DATE_TIME_ROLE ( 'creation_date' ) ;
#70 = CIRCLE ( 'NONE', #2, 4.000000000000000000 ) ;
#71 = LINE ( 'NONE', #189, #209 ) ;
#72 = VERTEX_POINT ( 'NONE', #67 ) ;
#73 = CARTESIAN_POINT ( 'NONE',  ( -4.500000000000000888, 5.510910596163089556E-16, 5.500000000000005329 ) ) ;
#74 = ORIENTED_EDGE ( 'NONE', *, *, #231, .F. ) ;
#75 = CIRCLE ( 'NONE', #292, 4.500000000000000888 ) ;
#76 = PERSON_AND_ORGANIZATION_ROLE ( 'creator' ) ;
#77 = CIRCLE ( 'NONE', #242, 7.000000000000000000 ) ;
#78 = ORIENTED_EDGE ( 'NONE', *, *, #145, .F. ) ;
#79 = CARTESIAN_POINT ( 'NONE',  ( 0.000000000000000000, 0.000000000000000000, 0.000000000000000000 ) ) ;
#80 = EDGE_LOOP ( 'NONE', ( #311, #19 ) ) ;
#81 = FACE_OUTER_BOUND ( 'NONE', #54, .T. ) ;
#82 = VERTEX_POINT ( 'NONE', #320 ) ;
#83 = FACE_OUTER_BOUND ( 'NONE', #330, .T. ) ;
#84 = DIRECTION ( 'NONE',  ( 0.000000000000000000, 0.000000000000000000, 1.000000000000000000 ) ) ;
#85 = VERTEX_POINT ( 'NONE', #264 ) ;
#86 =( LENGTH_UNIT ( ) NAMED_UNIT ( * ) SI_UNIT ( .MILLI., .METRE. ) );
#87 = DIRECTION ( 'NONE',  ( 0.000000000000000000, 0.000000000000000000, 1.000000000000000000 ) ) ;
#88 = ADVANCED_FACE ( 'NONE', ( #324 ), #109, .F. ) ;
#89 = AXIS2_PLACEMENT_3D ( 'NONE', #347, #206, #310 ) ;
#90 = CARTESIAN_POINT ( 'NONE',  ( 0.000000000000000000, 0.000000000000000000, 0.000000000000000000 ) ) ;
#91 = CIRCLE ( 'NONE', #374, 7.000000000000000000 ) ;
#92 = APPLICATION_PROTOCOL_DEFINITION ( 'international standard', 'config_control_design', 1994, #122 ) ;
#93 = CARTESIAN_POINT ( 'NONE',  ( 4.000000000000000000, 4.898587196589412829E-16, 5.500000000000005329 ) ) ;
#94 = LOCAL_TIME ( 11, 12, 38.00000000000000000, #226 ) ;
#95 = DIRECTION ( 'NONE',  ( -0.000000000000000000, -0.000000000000000000, -1.000000000000000000 ) ) ;
#96 = PERSON_AND_ORGANIZATION_ROLE ( 'classification_officer' ) ;
#97 = VERTEX_POINT ( 'NONE', #244 ) ;
#98 = LOCAL_TIME ( 11, 12, 38.00000000000000000, #157 ) ;
#99 = DIRECTION ( 'NONE',  ( 1.000000000000000000, 0.000000000000000000, 0.000000000000000000 ) ) ;
#100 = EDGE_LOOP ( 'NONE', ( #21, #380, #237, #78 ) ) ;
#101 = CC_DESIGN_PERSON_AND_ORGANIZATION_ASSIGNMENT ( #327, #76, ( #193 ) ) ;
#102 = CARTESIAN_POINT ( 'NONE',  ( 0.000000000000000000, 0.000000000000000000, 5.000000000000000000 ) ) ;
#103 = CIRCLE ( 'NONE', #154, 0.5000000000000004441 ) ;
#104 = AXIS2_PLACEMENT_3D ( 'NONE', #342, #379, #314 ) ;
#105 = CC_DESIGN_PERSON_AND_ORGANIZATION_ASSIGNMENT ( #275, #248, ( #331 ) ) ;
#106 = DIRECTION ( 'NONE',  ( -0.000000000000000000, -0.000000000000000000, -1.000000000000000000 ) ) ;
#107 = ORIENTED_EDGE ( 'NONE', *, *, #146, .F. ) ;
#108 = ORIENTED_EDGE ( 'NONE', *, *, #177, .F. ) ;
#109 = TOROIDAL_SURFACE ( 'NONE', #321, 4.500000000000000888, 0.5000000000000000000 ) ;
#110 = ORIENTED_EDGE ( 'NONE', *, *, #24, .F. ) ;
#111 = AXIS2_PLACEMENT_3D ( 'NONE', #33, #27, #263 ) ;
#112 = CC_DESIGN_APPROVAL ( #65, ( #57 ) ) ;
#113 = DIRECTION ( 'NONE',  ( 1.000000000000000000, 0.000000000000000000, -0.000000000000000000 ) ) ;
#114 = DIRECTION ( 'NONE',  ( -0.000000000000000000, -0.000000000000000000, -1.000000000000000000 ) ) ;
#115 = ORIENTED_EDGE ( 'NONE', *, *, #145, .T. ) ;
#116 = CIRCLE ( 'NONE', #367, 7.000000000000000000 ) ;
#117 = CYLINDRICAL_SURFACE ( 'NONE', #268, 2.100000000000000089 ) ;
#118 = CIRCLE ( 'NONE', #25, 2.100000000000000089 ) ;
#119 = MECHANICAL_CONTEXT ( 'NONE', #316, 'mechanical' ) ;
#120 = APPROVAL ( #14, 'NEURÈENÝ' ) ;
#121 = LINE ( 'NONE', #4, #381 ) ;
#122 = APPLICATION_CONTEXT ( 'configuration controlled 3d designs of mechanical parts and assemblies' ) ;
#123 = LINE ( 'NONE', #62, #179 ) ;
#124 = CALENDAR_DATE ( 2022, 10, 7 ) ;
#125 = DIRECTION ( 'NONE',  ( 0.000000000000000000, 0.000000000000000000, 1.000000000000000000 ) ) ;
#126 = EDGE_CURVE ( 'NONE', #203, #133, #121, .T. ) ;
#127 = PERSON_AND_ORGANIZATION ( #38, #250 ) ;
#128 = EDGE_CURVE ( 'NONE', #133, #233, #91, .T. ) ;
#129 = DIRECTION ( 'NONE',  ( -0.000000000000000000, -0.000000000000000000, -1.000000000000000000 ) ) ;
#130 = CARTESIAN_POINT ( 'NONE',  ( 0.000000000000000000, 0.000000000000000000, 5.000000000000000000 ) ) ;
#131 = COORDINATED_UNIVERSAL_TIME_OFFSET ( 1, 0, .AHEAD. ) ;
#132 = AXIS2_PLACEMENT_3D ( 'NONE', #135, #15, #309 ) ;
#133 = VERTEX_POINT ( 'NONE', #187 ) ;
#134 = SECURITY_CLASSIFICATION_LEVEL ( 'unclassified' ) ;
#135 = CARTESIAN_POINT ( 'NONE',  ( 0.000000000000000000, 0.000000000000000000, 155.0000000000000000 ) ) ;
#136 = EDGE_LOOP ( 'NONE', ( #141, #337 ) ) ;
#137 = CARTESIAN_POINT ( 'NONE',  ( 0.000000000000000000, 0.000000000000000000, 5.000000000000000000 ) ) ;
#138 = CLOSED_SHELL ( 'NONE', ( #303, #88, #375, #212, #301, #60, #363, #352, #369, #198, #58 ) ) ;
#139 = ORIENTED_EDGE ( 'NONE', *, *, #371, .T. ) ;
#140 = CARTESIAN_POINT ( 'NONE',  ( 4.500000000000000888, 0.000000000000000000, 5.000000000000002665 ) ) ;
#141 = ORIENTED_EDGE ( 'NONE', *, *, #47, .T. ) ;
#142 = DIRECTION ( 'NONE',  ( -1.000000000000000000, 0.000000000000000000, 0.000000000000000000 ) ) ;
#143 = DIRECTION ( 'NONE',  ( 0.000000000000000000, 0.000000000000000000, -1.000000000000000000 ) ) ;
#144 = CC_DESIGN_SECURITY_CLASSIFICATION ( #57, ( #331 ) ) ;
#145 = EDGE_CURVE ( 'NONE', #85, #233, #241, .T. ) ;
#146 = EDGE_CURVE ( 'NONE', #260, #82, #42, .T. ) ;
#147 = ORIENTED_EDGE ( 'NONE', *, *, #47, .F. ) ;
#148 =( NAMED_UNIT ( * ) PLANE_ANGLE_UNIT ( ) SI_UNIT ( $, .RADIAN. ) );
#149 = CC_DESIGN_DATE_AND_TIME_ASSIGNMENT ( #281, #195, ( #57 ) ) ;
#150 = AXIS2_PLACEMENT_3D ( 'NONE', #295, #61, #5 ) ;
#151 = CARTESIAN_POINT ( 'NONE',  ( 0.000000000000000000, 0.000000000000000000, 155.0000000000000000 ) ) ;
#152 = APPROVAL_ROLE ( '' ) ;
#153 = DIRECTION ( 'NONE',  ( 1.000000000000000000, 0.000000000000000000, 0.000000000000000000 ) ) ;
#154 = AXIS2_PLACEMENT_3D ( 'NONE', #259, #174, #143 ) ;
#155 =( NAMED_UNIT ( * ) SI_UNIT ( $, .STERADIAN. ) SOLID_ANGLE_UNIT ( ) );
#156 = LOCAL_TIME ( 11, 12, 38.00000000000000000, #131 ) ;
#157 = COORDINATED_UNIVERSAL_TIME_OFFSET ( 1, 0, .AHEAD. ) ;
#158 = EDGE_CURVE ( 'NONE', #255, #200, #70, .T. ) ;
#159 = PERSON_AND_ORGANIZATION ( #38, #250 ) ;
#160 = ORIENTED_EDGE ( 'NONE', *, *, #204, .F. ) ;
#161 = ADVANCED_BREP_SHAPE_REPRESENTATION ( '42f0', ( #344, #111 ), #278 ) ;
#162 = APPROVAL_ROLE ( '' ) ;
#163 = FACE_OUTER_BOUND ( 'NONE', #252, .T. ) ;
#164 = AXIS2_PLACEMENT_3D ( 'NONE', #79, #336, #99 ) ;
#165 = PRODUCT ( '42f0', '42f0', '', ( #119 ) ) ;
#166 = CYLINDRICAL_SURFACE ( 'NONE', #104, 2.100000000000000089 ) ;
#167 = EDGE_LOOP ( 'NONE', ( #222, #296 ) ) ;
#168 = DIRECTION ( 'NONE',  ( 0.000000000000000000, 0.000000000000000000, 1.000000000000000000 ) ) ;
#169 = ORIENTED_EDGE ( 'NONE', *, *, #126, .F. ) ;
#170 = CARTESIAN_POINT ( 'NONE',  ( 0.000000000000000000, 0.000000000000000000, 155.0000000000000000 ) ) ;
#171 = AXIS2_PLACEMENT_3D ( 'NONE', #183, #211, #68 ) ;
#172 = CARTESIAN_POINT ( 'NONE',  ( 0.000000000000000000, 0.000000000000000000, 155.0000000000000000 ) ) ;
#173 = APPROVAL_PERSON_ORGANIZATION ( #127, #120, #162 ) ;
#174 = DIRECTION ( 'NONE',  ( 0.000000000000000000, -1.000000000000000000, 0.000000000000000000 ) ) ;
#175 = EDGE_CURVE ( 'NONE', #82, #200, #123, .T. ) ;
#176 = ORIENTED_EDGE ( 'NONE', *, *, #231, .T. ) ;
#177 = EDGE_CURVE ( 'NONE', #373, #313, #338, .T. ) ;
#178 = DIRECTION ( 'NONE',  ( 1.000000000000000000, 0.000000000000000000, 0.000000000000000000 ) ) ;
#179 = VECTOR ( 'NONE', #240, 1000.000000000000000 ) ;
#180 = ORIENTED_EDGE ( 'NONE', *, *, #218, .T. ) ;
#181 = CARTESIAN_POINT ( 'NONE',  ( 0.000000000000000000, 0.000000000000000000, 155.0000000000000000 ) ) ;
#182 = AXIS2_PLACEMENT_3D ( 'NONE', #216, #66, #304 ) ;
#183 = CARTESIAN_POINT ( 'NONE',  ( 0.000000000000000000, 0.000000000000000000, 5.000000000000000000 ) ) ;
#184 = CC_DESIGN_PERSON_AND_ORGANIZATION_ASSIGNMENT ( #159, #96, ( #57 ) ) ;
#185 = DIRECTION ( 'NONE',  ( 1.000000000000000000, 0.000000000000000000, 0.000000000000000000 ) ) ;
#186 = CALENDAR_DATE ( 2022, 10, 7 ) ;
#187 = CARTESIAN_POINT ( 'NONE',  ( 7.000000000000000000, 8.572527594031473190E-16, 0.000000000000000000 ) ) ;
#188 = TOROIDAL_SURFACE ( 'NONE', #182, 4.500000000000000888, 0.5000000000000000000 ) ;
#189 = CARTESIAN_POINT ( 'NONE',  ( 2.100000000000000089, 2.571758278209441957E-16, 155.0000000000000000 ) ) ;
#190 = ORIENTED_EDGE ( 'NONE', *, *, #24, .T. ) ;
#191 = CARTESIAN_POINT ( 'NONE',  ( -4.000000000000000000, 0.000000000000000000, 155.0000000000000000 ) ) ;
#192 = EDGE_LOOP ( 'NONE', ( #289, #23 ) ) ;
#193 = PRODUCT_DEFINITION ( 'NEZNÁMÝ', '', #331, #37 ) ;
#194 = DIRECTION ( 'NONE',  ( 1.224646799147353207E-16, 1.000000000000000000, -0.000000000000000000 ) ) ;
#195 = DATE_TIME_ROLE ( 'classification_date' ) ;
#196 = CYLINDRICAL_SURFACE ( 'NONE', #238, 7.000000000000000000 ) ;
#197 = ORIENTED_EDGE ( 'NONE', *, *, #158, .F. ) ;
#198 = ADVANCED_FACE ( 'NONE', ( #213 ), #188, .F. ) ;
#199 = PLANE ( 'NONE',  #29 ) ;
#200 = VERTEX_POINT ( 'NONE', #93 ) ;
#201 = CYLINDRICAL_SURFACE ( 'NONE', #370, 4.000000000000000000 ) ;
#202 = LOCAL_TIME ( 11, 12, 38.00000000000000000, #332 ) ;
#203 = VERTEX_POINT ( 'NONE', #333 ) ;
#204 = EDGE_CURVE ( 'NONE', #82, #260, #217, .T. ) ;
#205 = CARTESIAN_POINT ( 'NONE',  ( 0.000000000000000000, 0.000000000000000000, 5.500000000000005329 ) ) ;
#206 = DIRECTION ( 'NONE',  ( 0.000000000000000000, 0.000000000000000000, 1.000000000000000000 ) ) ;
#207 = DIRECTION ( 'NONE',  ( 1.000000000000000000, 0.000000000000000000, 0.000000000000000000 ) ) ;
#208 = CARTESIAN_POINT ( 'NONE',  ( -2.100000000000000089, 0.000000000000000000, 155.0000000000000000 ) ) ;
#209 = VECTOR ( 'NONE', #40, 1000.000000000000000 ) ;
#210 = EDGE_CURVE ( 'NONE', #97, #72, #353, .T. ) ;
#211 = DIRECTION ( 'NONE',  ( 0.000000000000000000, 0.000000000000000000, 1.000000000000000000 ) ) ;
#212 = ADVANCED_FACE ( 'NONE', ( #230 ), #196, .T. ) ;
#213 = FACE_OUTER_BOUND ( 'NONE', #291, .T. ) ;
#214 = VECTOR ( 'NONE', #95, 1000.000000000000000 ) ;
#215 = PERSON_AND_ORGANIZATION ( #38, #250 ) ;
#216 = CARTESIAN_POINT ( 'NONE',  ( 0.000000000000000000, 0.000000000000000000, 5.500000000000005329 ) ) ;
#217 = CIRCLE ( 'NONE', #132, 4.000000000000000000 ) ;
#218 = EDGE_CURVE ( 'NONE', #255, #373, #44, .T. ) ;
#219 = EDGE_CURVE ( 'NONE', #203, #85, #77, .T. ) ;
#220 = AXIS2_PLACEMENT_3D ( 'NONE', #151, #26, #153 ) ;
#221 = PERSON_AND_ORGANIZATION ( #38, #250 ) ;
#222 = ORIENTED_EDGE ( 'NONE', *, *, #377, .F. ) ;
#223 = AXIS2_PLACEMENT_3D ( 'NONE', #172, #284, #243 ) ;
#224 = ORIENTED_EDGE ( 'NONE', *, *, #146, .T. ) ;
#225 = DATE_AND_TIME ( #35, #156 ) ;
#226 = COORDINATED_UNIVERSAL_TIME_OFFSET ( 1, 0, .AHEAD. ) ;
#227 = DIRECTION ( 'NONE',  ( 1.000000000000000000, 0.000000000000000000, 0.000000000000000000 ) ) ;
#228 = PRODUCT_RELATED_PRODUCT_CATEGORY ( 'detail', '', ( #165 ) ) ;
#229 = VECTOR ( 'NONE', #129, 1000.000000000000000 ) ;
#230 = FACE_OUTER_BOUND ( 'NONE', #100, .T. ) ;
#231 = EDGE_CURVE ( 'NONE', #16, #97, #282, .T. ) ;
#232 = DIRECTION ( 'NONE',  ( 1.000000000000000000, 0.000000000000000000, 0.000000000000000000 ) ) ;
#233 = VERTEX_POINT ( 'NONE', #279 ) ;
#234 = ORIENTED_EDGE ( 'NONE', *, *, #158, .T. ) ;
#235 = VERTEX_POINT ( 'NONE', #366 ) ;
#236 = FACE_BOUND ( 'NONE', #167, .T. ) ;
#237 = ORIENTED_EDGE ( 'NONE', *, *, #128, .T. ) ;
#238 = AXIS2_PLACEMENT_3D ( 'NONE', #137, #254, #253 ) ;
#239 = DIRECTION ( 'NONE',  ( -0.000000000000000000, -0.000000000000000000, -1.000000000000000000 ) ) ;
#240 = DIRECTION ( 'NONE',  ( -0.000000000000000000, -0.000000000000000000, -1.000000000000000000 ) ) ;
#241 = LINE ( 'NONE', #355, #214 ) ;
#242 = AXIS2_PLACEMENT_3D ( 'NONE', #102, #168, #339 ) ;
#243 = DIRECTION ( 'NONE',  ( -1.000000000000000000, 0.000000000000000000, 0.000000000000000000 ) ) ;
#244 = CARTESIAN_POINT ( 'NONE',  ( -2.100000000000000089, 0.000000000000000000, 0.000000000000000000 ) ) ;
#245 = DATE_AND_TIME ( #271, #98 ) ;
#246 = CARTESIAN_POINT ( 'NONE',  ( -4.000000000000000000, 0.000000000000000000, 155.0000000000000000 ) ) ;
#247 = EDGE_LOOP ( 'NONE', ( #59, #107, #46, #234 ) ) ;
#248 = PERSON_AND_ORGANIZATION_ROLE ( 'design_supplier' ) ;
#249 = EDGE_CURVE ( 'NONE', #72, #97, #257, .T. ) ;
#250 = ORGANIZATION ( 'NEURÈENÝ', 'NEURÈENÝ', '' ) ;
#251 = DATE_AND_TIME ( #186, #94 ) ;
#252 = EDGE_LOOP ( 'NONE', ( #169, #319, #115, #317 ) ) ;
#253 = DIRECTION ( 'NONE',  ( -1.000000000000000000, 0.000000000000000000, 0.000000000000000000 ) ) ;
#254 = DIRECTION ( 'NONE',  ( -0.000000000000000000, -0.000000000000000000, -1.000000000000000000 ) ) ;
#255 = VERTEX_POINT ( 'NONE', #272 ) ;
#256 = EDGE_CURVE ( 'NONE', #260, #255, #8, .T. ) ;
#257 = CIRCLE ( 'NONE', #308, 2.100000000000000089 ) ;
#258 = PLANE ( 'NONE',  #89 ) ;
#259 = CARTESIAN_POINT ( 'NONE',  ( 4.500000000000000888, 0.000000000000000000, 5.500000000000005329 ) ) ;
#260 = VERTEX_POINT ( 'NONE', #246 ) ;
#261 = EDGE_CURVE ( 'NONE', #235, #72, #71, .T. ) ;
#262 = UNCERTAINTY_MEASURE_WITH_UNIT (LENGTH_MEASURE( 1.000000000000000082E-05 ), #86, 'distance_accuracy_value', 'NONE');
#263 = DIRECTION ( 'NONE',  ( 1.000000000000000000, 0.000000000000000000, 0.000000000000000000 ) ) ;
#264 = CARTESIAN_POINT ( 'NONE',  ( -7.000000000000000000, 0.000000000000000000, 5.000000000000000000 ) ) ;
#265 = APPROVAL_PERSON_ORGANIZATION ( #221, #65, #273 ) ;
#266 = DIRECTION ( 'NONE',  ( 1.000000000000000000, 0.000000000000000000, 0.000000000000000000 ) ) ;
#267 = COORDINATED_UNIVERSAL_TIME_OFFSET ( 1, 0, .AHEAD. ) ;
#268 = AXIS2_PLACEMENT_3D ( 'NONE', #181, #269, #326 ) ;
#269 = DIRECTION ( 'NONE',  ( 0.000000000000000000, 0.000000000000000000, -1.000000000000000000 ) ) ;
#270 = VECTOR ( 'NONE', #329, 1000.000000000000000 ) ;
#271 = CALENDAR_DATE ( 2022, 10, 7 ) ;
#272 = CARTESIAN_POINT ( 'NONE',  ( -4.000000000000000000, 0.000000000000000000, 5.500000000000005329 ) ) ;
#273 = APPROVAL_ROLE ( '' ) ;
#274 = DIRECTION ( 'NONE',  ( 0.000000000000000000, 0.000000000000000000, 1.000000000000000000 ) ) ;
#275 = PERSON_AND_ORGANIZATION ( #38, #250 ) ;
#276 = DIRECTION ( 'NONE',  ( -0.000000000000000000, -0.000000000000000000, -1.000000000000000000 ) ) ;
#277 = ORIENTED_EDGE ( 'NONE', *, *, #210, .F. ) ;
#278 =( GEOMETRIC_REPRESENTATION_CONTEXT ( 3 ) GLOBAL_UNCERTAINTY_ASSIGNED_CONTEXT ( ( #262 ) ) GLOBAL_UNIT_ASSIGNED_CONTEXT ( ( #86, #148, #155 ) ) REPRESENTATION_CONTEXT ( 'NONE', 'WORKASPACE' ) );
#279 = CARTESIAN_POINT ( 'NONE',  ( -7.000000000000000000, 0.000000000000000000, 0.000000000000000000 ) ) ;
#280 = ORIENTED_EDGE ( 'NONE', *, *, #10, .T. ) ;
#281 = DATE_AND_TIME ( #7, #202 ) ;
#282 = LINE ( 'NONE', #368, #270 ) ;
#283 = AXIS2_PLACEMENT_3D ( 'NONE', #1, #239, #351 ) ;
#284 = DIRECTION ( 'NONE',  ( -0.000000000000000000, -0.000000000000000000, -1.000000000000000000 ) ) ;
#285 = ORIENTED_EDGE ( 'NONE', *, *, #249, .T. ) ;
#286 = EDGE_CURVE ( 'NONE', #233, #133, #350, .T. ) ;
#287 = FACE_OUTER_BOUND ( 'NONE', #80, .T. ) ;
#288 = CC_DESIGN_DATE_AND_TIME_ASSIGNMENT ( #251, #69, ( #193 ) ) ;
#289 = ORIENTED_EDGE ( 'NONE', *, *, #28, .T. ) ;
#290 = CARTESIAN_POINT ( 'NONE',  ( 0.000000000000000000, 0.000000000000000000, 0.000000000000000000 ) ) ;
#291 = EDGE_LOOP ( 'NONE', ( #334, #48, #190, #108 ) ) ;
#292 = AXIS2_PLACEMENT_3D ( 'NONE', #378, #114, #207 ) ;
#293 = CIRCLE ( 'NONE', #150, 2.100000000000000089 ) ;
#294 = FACE_BOUND ( 'NONE', #372, .T. ) ;
#295 = CARTESIAN_POINT ( 'NONE',  ( 0.000000000000000000, 0.000000000000000000, 155.0000000000000000 ) ) ;
#296 = ORIENTED_EDGE ( 'NONE', *, *, #371, .F. ) ;
#297 = FACE_OUTER_BOUND ( 'NONE', #192, .T. ) ;
#298 = AXIS2_PLACEMENT_3D ( 'NONE', #335, #274, #9 ) ;
#299 = DIRECTION ( 'NONE',  ( -0.000000000000000000, -0.000000000000000000, -1.000000000000000000 ) ) ;
#300 = CARTESIAN_POINT ( 'NONE',  ( 0.000000000000000000, 0.000000000000000000, 5.500000000000005329 ) ) ;
#301 = ADVANCED_FACE ( 'NONE', ( #163 ), #307, .T. ) ;
#302 = APPROVAL_DATE_TIME ( #305, #356 ) ;
#303 = ADVANCED_FACE ( 'NONE', ( #43 ), #166, .F. ) ;
#304 = DIRECTION ( 'NONE',  ( 1.000000000000000000, 0.000000000000000000, 0.000000000000000000 ) ) ;
#305 = DATE_AND_TIME ( #124, #13 ) ;
#306 = DIRECTION ( 'NONE',  ( -1.000000000000000000, 0.000000000000000000, 0.000000000000000000 ) ) ;
#307 = CYLINDRICAL_SURFACE ( 'NONE', #325, 7.000000000000000000 ) ;
#308 = AXIS2_PLACEMENT_3D ( 'NONE', #364, #36, #227 ) ;
#309 = DIRECTION ( 'NONE',  ( 1.000000000000000000, 0.000000000000000000, 0.000000000000000000 ) ) ;
#310 = DIRECTION ( 'NONE',  ( 1.000000000000000000, 0.000000000000000000, -0.000000000000000000 ) ) ;
#311 = ORIENTED_EDGE ( 'NONE', *, *, #286, .F. ) ;
#312 = CARTESIAN_POINT ( 'NONE',  ( 0.000000000000000000, 0.000000000000000000, 155.0000000000000000 ) ) ;
#313 = VERTEX_POINT ( 'NONE', #140 ) ;
#314 = DIRECTION ( 'NONE',  ( -1.000000000000000000, 0.000000000000000000, 0.000000000000000000 ) ) ;
#315 = DIRECTION ( 'NONE',  ( 1.000000000000000000, 0.000000000000000000, 0.000000000000000000 ) ) ;
#316 = APPLICATION_CONTEXT ( 'configuration controlled 3d designs of mechanical parts and assemblies' ) ;
#317 = ORIENTED_EDGE ( 'NONE', *, *, #286, .T. ) ;
#318 = CC_DESIGN_APPROVAL ( #356, ( #193 ) ) ;
#319 = ORIENTED_EDGE ( 'NONE', *, *, #28, .F. ) ;
#320 = CARTESIAN_POINT ( 'NONE',  ( 4.000000000000000000, 4.898587196589412829E-16, 155.0000000000000000 ) ) ;
#321 = AXIS2_PLACEMENT_3D ( 'NONE', #64, #125, #31 ) ;
#322 = PLANE ( 'NONE',  #171 ) ;
#323 = APPROVAL_STATUS ( 'not_yet_approved' ) ;
#324 = FACE_OUTER_BOUND ( 'NONE', #348, .T. ) ;
#325 = AXIS2_PLACEMENT_3D ( 'NONE', #130, #276, #306 ) ;
#326 = DIRECTION ( 'NONE',  ( -1.000000000000000000, 0.000000000000000000, 0.000000000000000000 ) ) ;
#327 = PERSON_AND_ORGANIZATION ( #38, #250 ) ;
#328 = FACE_BOUND ( 'NONE', #136, .T. ) ;
#329 = DIRECTION ( 'NONE',  ( 0.000000000000000000, 0.000000000000000000, -1.000000000000000000 ) ) ;
#330 = EDGE_LOOP ( 'NONE', ( #224, #343 ) ) ;
#331 = PRODUCT_DEFINITION_FORMATION_WITH_SPECIFIED_SOURCE ( 'LIBOVOLNÝ', '', #165, .NOT_KNOWN. ) ;
#332 = COORDINATED_UNIVERSAL_TIME_OFFSET ( 1, 0, .AHEAD. ) ;
#333 = CARTESIAN_POINT ( 'NONE',  ( 7.000000000000000000, 8.572527594031473190E-16, 5.000000000000000000 ) ) ;
#334 = ORIENTED_EDGE ( 'NONE', *, *, #218, .F. ) ;
#335 = CARTESIAN_POINT ( 'NONE',  ( 0.000000000000000000, 0.000000000000000000, 0.000000000000000000 ) ) ;
#336 = DIRECTION ( 'NONE',  ( -0.000000000000000000, -0.000000000000000000, -1.000000000000000000 ) ) ;
#337 = ORIENTED_EDGE ( 'NONE', *, *, #177, .T. ) ;
#338 = CIRCLE ( 'NONE', #283, 4.500000000000000888 ) ;
#339 = DIRECTION ( 'NONE',  ( 1.000000000000000000, 0.000000000000000000, 0.000000000000000000 ) ) ;
#340 = CARTESIAN_POINT ( 'NONE',  ( -4.500000000000000888, 5.510910596163088569E-16, 5.000000000000002665 ) ) ;
#341 = ORIENTED_EDGE ( 'NONE', *, *, #210, .T. ) ;
#342 = CARTESIAN_POINT ( 'NONE',  ( 0.000000000000000000, 0.000000000000000000, 155.0000000000000000 ) ) ;
#343 = ORIENTED_EDGE ( 'NONE', *, *, #204, .T. ) ;
#344 = MANIFOLD_SOLID_BREP ( 'Odebrat vysunutím3', #138 ) ;
#345 = FACE_OUTER_BOUND ( 'NONE', #247, .T. ) ;
#346 = ORIENTED_EDGE ( 'NONE', *, *, #249, .F. ) ;
#347 = CARTESIAN_POINT ( 'NONE',  ( 0.000000000000000000, 0.000000000000000000, 155.0000000000000000 ) ) ;
#348 = EDGE_LOOP ( 'NONE', ( #197, #180, #147, #110 ) ) ;
#349 = ORIENTED_EDGE ( 'NONE', *, *, #256, .F. ) ;
#350 = CIRCLE ( 'NONE', #298, 7.000000000000000000 ) ;
#351 = DIRECTION ( 'NONE',  ( 1.000000000000000000, 0.000000000000000000, 0.000000000000000000 ) ) ;
#352 = ADVANCED_FACE ( 'NONE', ( #345 ), #201, .T. ) ;
#353 = CIRCLE ( 'NONE', #164, 2.100000000000000089 ) ;
#354 = FACE_OUTER_BOUND ( 'NONE', #358, .T. ) ;
#355 = CARTESIAN_POINT ( 'NONE',  ( -7.000000000000000000, 0.000000000000000000, 5.000000000000000000 ) ) ;
#356 = APPROVAL ( #323, 'NEURÈENÝ' ) ;
#357 = DIRECTION ( 'NONE',  ( -1.000000000000000000, 1.224646799147351482E-16, 0.000000000000000000 ) ) ;
#358 = EDGE_LOOP ( 'NONE', ( #53, #139, #176, #341 ) ) ;
#359 = APPROVAL_DATE_TIME ( #245, #65 ) ;
#360 = CC_DESIGN_PERSON_AND_ORGANIZATION_ASSIGNMENT ( #45, #362, ( #331 ) ) ;
#361 = PRODUCT_DEFINITION_SHAPE ( 'NONE', 'NONE',  #193 ) ;
#362 = PERSON_AND_ORGANIZATION_ROLE ( 'creator' ) ;
#363 = ADVANCED_FACE ( 'NONE', ( #294, #287 ), #199, .F. ) ;
#364 = CARTESIAN_POINT ( 'NONE',  ( 0.000000000000000000, 0.000000000000000000, 0.000000000000000000 ) ) ;
#365 = ORIENTED_EDGE ( 'NONE', *, *, #377, .T. ) ;
#366 = CARTESIAN_POINT ( 'NONE',  ( 2.100000000000000089, 2.571758278209441957E-16, 155.0000000000000000 ) ) ;
#367 = AXIS2_PLACEMENT_3D ( 'NONE', #376, #84, #315 ) ;
#368 = CARTESIAN_POINT ( 'NONE',  ( -2.100000000000000089, 0.000000000000000000, 155.0000000000000000 ) ) ;
#369 = ADVANCED_FACE ( 'NONE', ( #236, #83 ), #258, .T. ) ;
#370 = AXIS2_PLACEMENT_3D ( 'NONE', #312, #106, #142 ) ;
#371 = EDGE_CURVE ( 'NONE', #235, #16, #118, .T. ) ;
#372 = EDGE_LOOP ( 'NONE', ( #277, #346 ) ) ;
#373 = VERTEX_POINT ( 'NONE', #340 ) ;
#374 = AXIS2_PLACEMENT_3D ( 'NONE', #90, #32, #185 ) ;
#375 = ADVANCED_FACE ( 'NONE', ( #81 ), #49, .T. ) ;
#376 = CARTESIAN_POINT ( 'NONE',  ( 0.000000000000000000, 0.000000000000000000, 5.000000000000000000 ) ) ;
#377 = EDGE_CURVE ( 'NONE', #16, #235, #293, .T. ) ;
#378 = CARTESIAN_POINT ( 'NONE',  ( 0.000000000000000000, 0.000000000000000000, 5.000000000000000000 ) ) ;
#379 = DIRECTION ( 'NONE',  ( 0.000000000000000000, 0.000000000000000000, -1.000000000000000000 ) ) ;
#380 = ORIENTED_EDGE ( 'NONE', *, *, #126, .T. ) ;
#381 = VECTOR ( 'NONE', #299, 1000.000000000000000 ) ;
ENDSEC;
END-ISO-10303-21;
