ISO-10303-21;
HEADER;
FILE_DESCRIPTION (( 'STEP AP203' ),
    '1' );
FILE_NAME ('5d0b.STEP',
    '2022-07-10T09:04:20',
    ( '' ),
    ( '' ),
    'SwSTEP 2.0',
    'SolidWorks 2019',
    '' );
FILE_SCHEMA (( 'CONFIG_CONTROL_DESIGN' ));
ENDSEC;

DATA;
#1 = CARTESIAN_POINT ( 'NONE',  ( 0.000000000000000000, 0.000000000000000000, 132.0000000000000000 ) ) ;
#2 = CARTESIAN_POINT ( 'NONE',  ( 0.000000000000000000, 0.000000000000000000, 7.699999999999998401 ) ) ;
#3 = ORIENTED_EDGE ( 'NONE', *, *, #306, .T. ) ;
#4 = CIRCLE ( 'NONE', #216, 10.00000000000000000 ) ;
#5 = CC_DESIGN_APPROVAL ( #347, ( #18 ) ) ;
#6 = DIRECTION ( 'NONE',  ( 0.000000000000000000, 0.000000000000000000, -1.000000000000000000 ) ) ;
#7 = ORIENTED_EDGE ( 'NONE', *, *, #378, .F. ) ;
#8 = CARTESIAN_POINT ( 'NONE',  ( 0.000000000000000000, 0.000000000000000000, 0.000000000000000000 ) ) ;
#9 = ORIENTED_EDGE ( 'NONE', *, *, #312, .T. ) ;
#10 = EDGE_CURVE ( 'NONE', #327, #32, #265, .T. ) ;
#11 = DIRECTION ( 'NONE',  ( 0.000000000000000000, 0.000000000000000000, -1.000000000000000000 ) ) ;
#12 = DESIGN_CONTEXT ( 'detailed design', #209, 'design' ) ;
#13 = DIRECTION ( 'NONE',  ( 1.000000000000000000, 0.000000000000000000, 0.000000000000000000 ) ) ;
#14 = EDGE_CURVE ( 'NONE', #352, #149, #205, .T. ) ;
#15 = SECURITY_CLASSIFICATION ( '', '', #63 ) ;
#16 = DIRECTION ( 'NONE',  ( 0.000000000000000000, 0.000000000000000000, 1.000000000000000000 ) ) ;
#17 = TOROIDAL_SURFACE ( 'NONE', #230, 6.700000000000001066, 0.6999999999999999556 ) ;
#18 = PRODUCT_DEFINITION ( 'NEZNÁMÝ', '', #140, #12 ) ;
#19 = VERTEX_POINT ( 'NONE', #311 ) ;
#20 = EDGE_LOOP ( 'NONE', ( #362, #202, #176, #3 ) ) ;
#21 = CARTESIAN_POINT ( 'NONE',  ( 0.000000000000000000, 0.000000000000000000, 0.000000000000000000 ) ) ;
#22 = AXIS2_PLACEMENT_3D ( 'NONE', #339, #279, #121 ) ;
#23 = LINE ( 'NONE', #139, #96 ) ;
#24 = EDGE_LOOP ( 'NONE', ( #373, #82, #138, #350 ) ) ;
#25 = DIRECTION ( 'NONE',  ( -1.000000000000000000, 0.000000000000000000, 0.000000000000000000 ) ) ;
#26 = CARTESIAN_POINT ( 'NONE',  ( 0.000000000000000000, 0.000000000000000000, 7.000000000000000000 ) ) ;
#27 = ORIENTED_EDGE ( 'NONE', *, *, #126, .F. ) ;
#28 = EDGE_CURVE ( 'NONE', #356, #62, #186, .T. ) ;
#29 = FACE_OUTER_BOUND ( 'NONE', #20, .T. ) ;
#30 = CIRCLE ( 'NONE', #345, 6.000000000000000888 ) ;
#31 = AXIS2_PLACEMENT_3D ( 'NONE', #372, #284, #163 ) ;
#32 = VERTEX_POINT ( 'NONE', #281 ) ;
#33 = EDGE_CURVE ( 'NONE', #32, #327, #144, .T. ) ;
#34 = CARTESIAN_POINT ( 'NONE',  ( 0.000000000000000000, 0.000000000000000000, 0.000000000000000000 ) ) ;
#35 = VERTEX_POINT ( 'NONE', #219 ) ;
#36 = PERSON_AND_ORGANIZATION_ROLE ( 'creator' ) ;
#37 = CIRCLE ( 'NONE', #147, 6.700000000000001066 ) ;
#38 = CARTESIAN_POINT ( 'NONE',  ( 4.000000000000000000, 4.898587196589412829E-16, 0.000000000000000000 ) ) ;
#39 = PRODUCT_RELATED_PRODUCT_CATEGORY ( 'detail', '', ( #48 ) ) ;
#40 = PERSON_AND_ORGANIZATION_ROLE ( 'design_owner' ) ;
#41 = CARTESIAN_POINT ( 'NONE',  ( 0.000000000000000000, 0.000000000000000000, 7.000000000000000000 ) ) ;
#42 = PERSON_AND_ORGANIZATION ( #268, #131 ) ;
#43 = DIRECTION ( 'NONE',  ( 1.000000000000000000, 0.000000000000000000, -0.000000000000000000 ) ) ;
#44 = ORIENTED_EDGE ( 'NONE', *, *, #375, .T. ) ;
#45 = DIRECTION ( 'NONE',  ( -0.000000000000000000, -0.000000000000000000, -1.000000000000000000 ) ) ;
#46 = AXIS2_PLACEMENT_3D ( 'NONE', #143, #294, #57 ) ;
#47 = CC_DESIGN_DATE_AND_TIME_ASSIGNMENT ( #304, #240, ( #15 ) ) ;
#48 = PRODUCT ( '5d0b', '5d0b', '', ( #151 ) ) ;
#49 = FACE_OUTER_BOUND ( 'NONE', #207, .T. ) ;
#50 = AXIS2_PLACEMENT_3D ( 'NONE', #185, #69, #368 ) ;
#51 = DIRECTION ( 'NONE',  ( 1.000000000000000000, 0.000000000000000000, -0.000000000000000000 ) ) ;
#52 = VERTEX_POINT ( 'NONE', #38 ) ;
#53 = VECTOR ( 'NONE', #120, 1000.000000000000000 ) ;
#54 = DIRECTION ( 'NONE',  ( -0.000000000000000000, -0.000000000000000000, -1.000000000000000000 ) ) ;
#55 = ORIENTED_EDGE ( 'NONE', *, *, #324, .T. ) ;
#56 = CARTESIAN_POINT ( 'NONE',  ( 0.000000000000000000, 0.000000000000000000, 7.000000000000000000 ) ) ;
#57 = DIRECTION ( 'NONE',  ( -1.000000000000000000, 0.000000000000000000, 0.000000000000000000 ) ) ;
#58 = VERTEX_POINT ( 'NONE', #334 ) ;
#59 = CC_DESIGN_DATE_AND_TIME_ASSIGNMENT ( #217, #98, ( #18 ) ) ;
#60 = APPROVAL_PERSON_ORGANIZATION ( #331, #68, #180 ) ;
#61 =( NAMED_UNIT ( * ) SI_UNIT ( $, .STERADIAN. ) SOLID_ANGLE_UNIT ( ) );
#62 = VERTEX_POINT ( 'NONE', #127 ) ;
#63 = SECURITY_CLASSIFICATION_LEVEL ( 'unclassified' ) ;
#64 = DIRECTION ( 'NONE',  ( 0.000000000000000000, 0.000000000000000000, 1.000000000000000000 ) ) ;
#65 = APPROVAL_STATUS ( 'not_yet_approved' ) ;
#66 = DIRECTION ( 'NONE',  ( 1.000000000000000000, 0.000000000000000000, 0.000000000000000000 ) ) ;
#67 = COORDINATED_UNIVERSAL_TIME_OFFSET ( 1, 0, .AHEAD. ) ;
#68 = APPROVAL ( #65, 'NEURÈENÝ' ) ;
#69 = DIRECTION ( 'NONE',  ( 0.000000000000000000, 0.000000000000000000, 1.000000000000000000 ) ) ;
#70 = APPROVAL_ROLE ( '' ) ;
#71 = CARTESIAN_POINT ( 'NONE',  ( 0.000000000000000000, 0.000000000000000000, 132.0000000000000000 ) ) ;
#72 = CC_DESIGN_APPROVAL ( #108, ( #140 ) ) ;
#73 = EDGE_LOOP ( 'NONE', ( #87, #359, #173, #218 ) ) ;
#74 = CARTESIAN_POINT ( 'NONE',  ( 0.000000000000000000, 0.000000000000000000, 0.000000000000000000 ) ) ;
#75 = FACE_OUTER_BOUND ( 'NONE', #110, .T. ) ;
#76 = EDGE_CURVE ( 'NONE', #213, #58, #273, .T. ) ;
#77 = DIRECTION ( 'NONE',  ( 1.000000000000000000, 0.000000000000000000, 0.000000000000000000 ) ) ;
#78 = AXIS2_PLACEMENT_3D ( 'NONE', #257, #141, #266 ) ;
#79 = FACE_OUTER_BOUND ( 'NONE', #328, .T. ) ;
#80 = CC_DESIGN_PERSON_AND_ORGANIZATION_ASSIGNMENT ( #42, #157, ( #140 ) ) ;
#81 = CARTESIAN_POINT ( 'NONE',  ( 4.000000000000000000, 4.898587196589412829E-16, 132.0000000000000000 ) ) ;
#82 = ORIENTED_EDGE ( 'NONE', *, *, #231, .T. ) ;
#83 = FACE_OUTER_BOUND ( 'NONE', #299, .T. ) ;
#84 = VERTEX_POINT ( 'NONE', #330 ) ;
#85 = DIRECTION ( 'NONE',  ( -0.000000000000000000, -0.000000000000000000, -1.000000000000000000 ) ) ;
#86 = ADVANCED_FACE ( 'NONE', ( #243, #365 ), #156, .T. ) ;
#87 = ORIENTED_EDGE ( 'NONE', *, *, #99, .F. ) ;
#88 = DIRECTION ( 'NONE',  ( 1.000000000000000000, 0.000000000000000000, 0.000000000000000000 ) ) ;
#89 = ORIENTED_EDGE ( 'NONE', *, *, #33, .T. ) ;
#90 = AXIS2_PLACEMENT_3D ( 'NONE', #26, #148, #25 ) ;
#91 = CARTESIAN_POINT ( 'NONE',  ( 0.000000000000000000, 0.000000000000000000, 132.0000000000000000 ) ) ;
#92 = CALENDAR_DATE ( 2022, 10, 7 ) ;
#93 = EDGE_CURVE ( 'NONE', #58, #290, #320, .T. ) ;
#94 = APPROVAL_ROLE ( '' ) ;
#95 = DIRECTION ( 'NONE',  ( 1.000000000000000000, 0.000000000000000000, 0.000000000000000000 ) ) ;
#96 = VECTOR ( 'NONE', #322, 1000.000000000000000 ) ;
#97 = CALENDAR_DATE ( 2022, 10, 7 ) ;
#98 = DATE_TIME_ROLE ( 'creation_date' ) ;
#99 = EDGE_CURVE ( 'NONE', #35, #84, #30, .T. ) ;
#100 = LINE ( 'NONE', #103, #341 ) ;
#101 = DIRECTION ( 'NONE',  ( 1.000000000000000000, 0.000000000000000000, 0.000000000000000000 ) ) ;
#102 = CC_DESIGN_PERSON_AND_ORGANIZATION_ASSIGNMENT ( #179, #248, ( #15 ) ) ;
#103 = CARTESIAN_POINT ( 'NONE',  ( 4.000000000000000000, 4.898587196589412829E-16, 132.0000000000000000 ) ) ;
#104 = ORIENTED_EDGE ( 'NONE', *, *, #184, .T. ) ;
#105 = FACE_OUTER_BOUND ( 'NONE', #24, .T. ) ;
#106 = AXIS2_PLACEMENT_3D ( 'NONE', #370, #252, #340 ) ;
#107 = DIRECTION ( 'NONE',  ( 0.000000000000000000, 0.000000000000000000, 1.000000000000000000 ) ) ;
#108 = APPROVAL ( #363, 'NEURÈENÝ' ) ;
#109 = DIRECTION ( 'NONE',  ( 0.000000000000000000, 0.000000000000000000, 1.000000000000000000 ) ) ;
#110 = EDGE_LOOP ( 'NONE', ( #381, #189, #295, #116 ) ) ;
#111 = LINE ( 'NONE', #355, #53 ) ;
#112 = ORIENTED_EDGE ( 'NONE', *, *, #28, .F. ) ;
#113 = CC_DESIGN_PERSON_AND_ORGANIZATION_ASSIGNMENT ( #364, #40, ( #48 ) ) ;
#114 = DIRECTION ( 'NONE',  ( 0.000000000000000000, 0.000000000000000000, 1.000000000000000000 ) ) ;
#115 = ORIENTED_EDGE ( 'NONE', *, *, #165, .T. ) ;
#116 = ORIENTED_EDGE ( 'NONE', *, *, #342, .F. ) ;
#117 = PERSON_AND_ORGANIZATION ( #268, #131 ) ;
#118 = CC_DESIGN_SECURITY_CLASSIFICATION ( #15, ( #140 ) ) ;
#119 = COORDINATED_UNIVERSAL_TIME_OFFSET ( 1, 0, .AHEAD. ) ;
#120 = DIRECTION ( 'NONE',  ( 0.000000000000000000, 0.000000000000000000, -1.000000000000000000 ) ) ;
#121 = DIRECTION ( 'NONE',  ( 1.000000000000000000, 0.000000000000000000, 0.000000000000000000 ) ) ;
#122 = VECTOR ( 'NONE', #128, 1000.000000000000000 ) ;
#123 = ORIENTED_EDGE ( 'NONE', *, *, #194, .T. ) ;
#124 = APPROVAL_PERSON_ORGANIZATION ( #117, #347, #94 ) ;
#125 = APPROVAL_STATUS ( 'not_yet_approved' ) ;
#126 = EDGE_CURVE ( 'NONE', #35, #58, #195, .T. ) ;
#127 = CARTESIAN_POINT ( 'NONE',  ( -4.000000000000000000, 0.000000000000000000, 132.0000000000000000 ) ) ;
#128 = DIRECTION ( 'NONE',  ( -0.000000000000000000, -0.000000000000000000, -1.000000000000000000 ) ) ;
#129 = ORIENTED_EDGE ( 'NONE', *, *, #165, .F. ) ;
#130 = AXIS2_PLACEMENT_3D ( 'NONE', #74, #220, #159 ) ;
#131 = ORGANIZATION ( 'NEURÈENÝ', 'NEURÈENÝ', '' ) ;
#132 = LINE ( 'NONE', #164, #122 ) ;
#133 = ORIENTED_EDGE ( 'NONE', *, *, #378, .T. ) ;
#134 = ADVANCED_FACE ( 'NONE', ( #105 ), #17, .F. ) ;
#135 = FACE_OUTER_BOUND ( 'NONE', #325, .T. ) ;
#136 = EDGE_LOOP ( 'NONE', ( #123, #267 ) ) ;
#137 = AXIS2_PLACEMENT_3D ( 'NONE', #211, #336, #95 ) ;
#138 = ORIENTED_EDGE ( 'NONE', *, *, #324, .F. ) ;
#139 = CARTESIAN_POINT ( 'NONE',  ( -10.00000000000000000, 0.000000000000000000, 7.000000000000000000 ) ) ;
#140 = PRODUCT_DEFINITION_FORMATION_WITH_SPECIFIED_SOURCE ( 'LIBOVOLNÝ', '', #48, .NOT_KNOWN. ) ;
#141 = DIRECTION ( 'NONE',  ( 0.000000000000000000, 0.000000000000000000, 1.000000000000000000 ) ) ;
#142 = ORIENTED_EDGE ( 'NONE', *, *, #306, .F. ) ;
#143 = CARTESIAN_POINT ( 'NONE',  ( 0.000000000000000000, 0.000000000000000000, 132.0000000000000000 ) ) ;
#144 = CIRCLE ( 'NONE', #258, 10.00000000000000000 ) ;
#145 = EDGE_CURVE ( 'NONE', #32, #352, #132, .T. ) ;
#146 = DIRECTION ( 'NONE',  ( 0.000000000000000000, 0.000000000000000000, 1.000000000000000000 ) ) ;
#147 = AXIS2_PLACEMENT_3D ( 'NONE', #326, #261, #200 ) ;
#148 = DIRECTION ( 'NONE',  ( -0.000000000000000000, -0.000000000000000000, -1.000000000000000000 ) ) ;
#149 = VERTEX_POINT ( 'NONE', #377 ) ;
#150 = DIRECTION ( 'NONE',  ( 0.000000000000000000, 0.000000000000000000, 1.000000000000000000 ) ) ;
#151 = MECHANICAL_CONTEXT ( 'NONE', #222, 'mechanical' ) ;
#152 = EDGE_LOOP ( 'NONE', ( #168, #112 ) ) ;
#153 = CIRCLE ( 'NONE', #181, 4.000000000000000000 ) ;
#154 = CIRCLE ( 'NONE', #167, 0.7000000000000000666 ) ;
#155 = COORDINATED_UNIVERSAL_TIME_OFFSET ( 1, 0, .AHEAD. ) ;
#156 = PLANE ( 'NONE',  #298 ) ;
#157 = PERSON_AND_ORGANIZATION_ROLE ( 'design_supplier' ) ;
#158 = CARTESIAN_POINT ( 'NONE',  ( 0.000000000000000000, 0.000000000000000000, 132.0000000000000000 ) ) ;
#159 = DIRECTION ( 'NONE',  ( 1.000000000000000000, 0.000000000000000000, 0.000000000000000000 ) ) ;
#160 = EDGE_CURVE ( 'NONE', #52, #379, #153, .T. ) ;
#161 = ORIENTED_EDGE ( 'NONE', *, *, #76, .T. ) ;
#162 = AXIS2_PLACEMENT_3D ( 'NONE', #227, #6, #297 ) ;
#163 = DIRECTION ( 'NONE',  ( -1.000000000000000000, 0.000000000000000000, 0.000000000000000000 ) ) ;
#164 = CARTESIAN_POINT ( 'NONE',  ( 10.00000000000000000, 1.224646799147353256E-15, 7.000000000000000000 ) ) ;
#165 = EDGE_CURVE ( 'NONE', #379, #52, #305, .T. ) ;
#166 = FACE_OUTER_BOUND ( 'NONE', #241, .T. ) ;
#167 = AXIS2_PLACEMENT_3D ( 'NONE', #316, #223, #343 ) ;
#168 = ORIENTED_EDGE ( 'NONE', *, *, #312, .F. ) ;
#169 = FACE_BOUND ( 'NONE', #253, .T. ) ;
#170 = ADVANCED_FACE ( 'NONE', ( #255 ), #193, .T. ) ;
#171 = EDGE_LOOP ( 'NONE', ( #55, #249 ) ) ;
#172 = DIRECTION ( 'NONE',  ( -1.000000000000000000, 0.000000000000000000, 0.000000000000000000 ) ) ;
#173 = ORIENTED_EDGE ( 'NONE', *, *, #354, .T. ) ;
#174 = VECTOR ( 'NONE', #45, 1000.000000000000000 ) ;
#175 = PLANE ( 'NONE',  #353 ) ;
#176 = ORIENTED_EDGE ( 'NONE', *, *, #337, .T. ) ;
#177 = AXIS2_PLACEMENT_3D ( 'NONE', #158, #285, #101 ) ;
#178 = ADVANCED_FACE ( 'NONE', ( #287 ), #250, .T. ) ;
#179 = PERSON_AND_ORGANIZATION ( #268, #131 ) ;
#180 = APPROVAL_ROLE ( '' ) ;
#181 = AXIS2_PLACEMENT_3D ( 'NONE', #21, #317, #77 ) ;
#182 = AXIS2_PLACEMENT_3D ( 'NONE', #56, #114, #292 ) ;
#183 = COORDINATED_UNIVERSAL_TIME_OFFSET ( 1, 0, .AHEAD. ) ;
#184 = EDGE_CURVE ( 'NONE', #356, #52, #100, .T. ) ;
#185 = CARTESIAN_POINT ( 'NONE',  ( 0.000000000000000000, 0.000000000000000000, 7.000000000000000000 ) ) ;
#186 = CIRCLE ( 'NONE', #244, 4.000000000000000000 ) ;
#187 = AXIS2_PLACEMENT_3D ( 'NONE', #34, #150, #210 ) ;
#188 = DIRECTION ( 'NONE',  ( 0.000000000000000000, 0.000000000000000000, -1.000000000000000000 ) ) ;
#189 = ORIENTED_EDGE ( 'NONE', *, *, #354, .F. ) ;
#190 = CARTESIAN_POINT ( 'NONE',  ( -6.000000000000000888, 0.000000000000000000, 7.699999999999998401 ) ) ;
#191 = AXIS2_PLACEMENT_3D ( 'NONE', #272, #238, #11 ) ;
#192 = CIRCLE ( 'NONE', #314, 6.000000000000000888 ) ;
#193 = CYLINDRICAL_SURFACE ( 'NONE', #31, 6.000000000000000888 ) ;
#194 = EDGE_CURVE ( 'NONE', #84, #35, #221, .T. ) ;
#195 = LINE ( 'NONE', #288, #174 ) ;
#196 = CYLINDRICAL_SURFACE ( 'NONE', #46, 4.000000000000000000 ) ;
#197 = ORIENTED_EDGE ( 'NONE', *, *, #33, .F. ) ;
#198 = LINE ( 'NONE', #232, #254 ) ;
#199 = ORIENTED_EDGE ( 'NONE', *, *, #160, .F. ) ;
#200 = DIRECTION ( 'NONE',  ( 1.000000000000000000, 0.000000000000000000, 0.000000000000000000 ) ) ;
#201 = CC_DESIGN_PERSON_AND_ORGANIZATION_ASSIGNMENT ( #335, #329, ( #140 ) ) ;
#202 = ORIENTED_EDGE ( 'NONE', *, *, #10, .F. ) ;
#203 = DIRECTION ( 'NONE',  ( 1.000000000000000000, 0.000000000000000000, 0.000000000000000000 ) ) ;
#204 = ORIENTED_EDGE ( 'NONE', *, *, #14, .T. ) ;
#205 = CIRCLE ( 'NONE', #137, 10.00000000000000000 ) ;
#206 = DIRECTION ( 'NONE',  ( 1.000000000000000000, 0.000000000000000000, 0.000000000000000000 ) ) ;
#207 = EDGE_LOOP ( 'NONE', ( #142, #246 ) ) ;
#208 = CIRCLE ( 'NONE', #374, 4.000000000000000000 ) ;
#209 = APPLICATION_CONTEXT ( 'configuration controlled 3d designs of mechanical parts and assemblies' ) ;
#210 = DIRECTION ( 'NONE',  ( 1.000000000000000000, 0.000000000000000000, 0.000000000000000000 ) ) ;
#211 = CARTESIAN_POINT ( 'NONE',  ( 0.000000000000000000, 0.000000000000000000, 0.000000000000000000 ) ) ;
#212 = CALENDAR_DATE ( 2022, 10, 7 ) ;
#213 = VERTEX_POINT ( 'NONE', #190 ) ;
#214 = DATE_AND_TIME ( #92, #274 ) ;
#215 = DIRECTION ( 'NONE',  ( 0.000000000000000000, 0.000000000000000000, 1.000000000000000000 ) ) ;
#216 = AXIS2_PLACEMENT_3D ( 'NONE', #8, #358, #88 ) ;
#217 = DATE_AND_TIME ( #97, #318 ) ;
#218 = ORIENTED_EDGE ( 'NONE', *, *, #375, .F. ) ;
#219 = CARTESIAN_POINT ( 'NONE',  ( 6.000000000000000888, 7.347880794884120722E-16, 132.0000000000000000 ) ) ;
#220 = DIRECTION ( 'NONE',  ( -0.000000000000000000, -0.000000000000000000, -1.000000000000000000 ) ) ;
#221 = CIRCLE ( 'NONE', #177, 6.000000000000000888 ) ;
#222 = APPLICATION_CONTEXT ( 'configuration controlled 3d designs of mechanical parts and assemblies' ) ;
#223 = DIRECTION ( 'NONE',  ( 1.224646799147353207E-16, 1.000000000000000000, -0.000000000000000000 ) ) ;
#224 = COORDINATED_UNIVERSAL_TIME_OFFSET ( 1, 0, .AHEAD. ) ;
#225 = LOCAL_TIME ( 11, 4, 20.00000000000000000, #155 ) ;
#226 = DIRECTION ( 'NONE',  ( 1.000000000000000000, 0.000000000000000000, 0.000000000000000000 ) ) ;
#227 = CARTESIAN_POINT ( 'NONE',  ( 0.000000000000000000, 0.000000000000000000, 132.0000000000000000 ) ) ;
#228 = ORIENTED_EDGE ( 'NONE', *, *, #160, .T. ) ;
#229 = CARTESIAN_POINT ( 'NONE',  ( -10.00000000000000000, 0.000000000000000000, 7.000000000000000000 ) ) ;
#230 = AXIS2_PLACEMENT_3D ( 'NONE', #259, #16, #226 ) ;
#231 = EDGE_CURVE ( 'NONE', #213, #19, #154, .T. ) ;
#232 = CARTESIAN_POINT ( 'NONE',  ( -6.000000000000000888, 0.000000000000000000, 132.0000000000000000 ) ) ;
#233 = ORIENTED_EDGE ( 'NONE', *, *, #184, .F. ) ;
#234 = CYLINDRICAL_SURFACE ( 'NONE', #361, 10.00000000000000000 ) ;
#235 = ADVANCED_FACE ( 'NONE', ( #75 ), #247, .F. ) ;
#236 = UNCERTAINTY_MEASURE_WITH_UNIT (LENGTH_MEASURE( 1.000000000000000082E-05 ), #237, 'distance_accuracy_value', 'NONE');
#237 =( LENGTH_UNIT ( ) NAMED_UNIT ( * ) SI_UNIT ( .MILLI., .METRE. ) );
#238 = DIRECTION ( 'NONE',  ( 0.000000000000000000, -1.000000000000000000, 0.000000000000000000 ) ) ;
#239 = LOCAL_TIME ( 11, 4, 20.00000000000000000, #183 ) ;
#240 = DATE_TIME_ROLE ( 'classification_date' ) ;
#241 = EDGE_LOOP ( 'NONE', ( #276, #89 ) ) ;
#242 = PERSON_AND_ORGANIZATION ( #268, #131 ) ;
#243 = FACE_BOUND ( 'NONE', #152, .T. ) ;
#244 = AXIS2_PLACEMENT_3D ( 'NONE', #308, #215, #13 ) ;
#245 =( NAMED_UNIT ( * ) PLANE_ANGLE_UNIT ( ) SI_UNIT ( $, .RADIAN. ) );
#246 = ORIENTED_EDGE ( 'NONE', *, *, #14, .F. ) ;
#247 = TOROIDAL_SURFACE ( 'NONE', #78, 6.700000000000001066, 0.6999999999999999556 ) ;
#248 = PERSON_AND_ORGANIZATION_ROLE ( 'classification_officer' ) ;
#249 = ORIENTED_EDGE ( 'NONE', *, *, #342, .T. ) ;
#250 = CYLINDRICAL_SURFACE ( 'NONE', #106, 6.000000000000000888 ) ;
#251 = ADVANCED_FACE ( 'NONE', ( #135 ), #321, .F. ) ;
#252 = DIRECTION ( 'NONE',  ( -0.000000000000000000, -0.000000000000000000, -1.000000000000000000 ) ) ;
#253 = EDGE_LOOP ( 'NONE', ( #129, #199 ) ) ;
#254 = VECTOR ( 'NONE', #54, 1000.000000000000000 ) ;
#255 = FACE_OUTER_BOUND ( 'NONE', #303, .T. ) ;
#256 = ADVANCED_FACE ( 'NONE', ( #79 ), #196, .F. ) ;
#257 = CARTESIAN_POINT ( 'NONE',  ( 0.000000000000000000, 0.000000000000000000, 7.699999999999998401 ) ) ;
#258 = AXIS2_PLACEMENT_3D ( 'NONE', #41, #332, #66 ) ;
#259 = CARTESIAN_POINT ( 'NONE',  ( 0.000000000000000000, 0.000000000000000000, 7.699999999999998401 ) ) ;
#260 = AXIS2_PLACEMENT_3D ( 'NONE', #357, #85, #203 ) ;
#261 = DIRECTION ( 'NONE',  ( -0.000000000000000000, -0.000000000000000000, -1.000000000000000000 ) ) ;
#262 = CARTESIAN_POINT ( 'NONE',  ( 0.000000000000000000, 0.000000000000000000, 7.000000000000000000 ) ) ;
#263 = ORIENTED_EDGE ( 'NONE', *, *, #28, .T. ) ;
#264 = FACE_BOUND ( 'NONE', #171, .T. ) ;
#265 = CIRCLE ( 'NONE', #50, 10.00000000000000000 ) ;
#266 = DIRECTION ( 'NONE',  ( 1.000000000000000000, 0.000000000000000000, 0.000000000000000000 ) ) ;
#267 = ORIENTED_EDGE ( 'NONE', *, *, #99, .T. ) ;
#268 = PERSON ( 'NEURÈENÝ', 'NEURÈENÝ', 'NEURÈENÝ', ('NEURÈENÝ'), ('NEURÈENÝ'), ('NEURÈENÝ') ) ;
#269 = PLANE ( 'NONE',  #182 ) ;
#270 = ORIENTED_EDGE ( 'NONE', *, *, #337, .F. ) ;
#271 = APPLICATION_PROTOCOL_DEFINITION ( 'international standard', 'config_control_design', 1994, #222 ) ;
#272 = CARTESIAN_POINT ( 'NONE',  ( 6.700000000000001066, 0.000000000000000000, 7.699999999999998401 ) ) ;
#273 = CIRCLE ( 'NONE', #22, 6.000000000000000888 ) ;
#274 = LOCAL_TIME ( 11, 4, 20.00000000000000000, #119 ) ;
#275 = CALENDAR_DATE ( 2022, 10, 7 ) ;
#276 = ORIENTED_EDGE ( 'NONE', *, *, #10, .T. ) ;
#277 = ADVANCED_FACE ( 'NONE', ( #169, #49 ), #175, .F. ) ;
#278 = DATE_AND_TIME ( #275, #239 ) ;
#279 = DIRECTION ( 'NONE',  ( 0.000000000000000000, 0.000000000000000000, 1.000000000000000000 ) ) ;
#280 = CLOSED_SHELL ( 'NONE', ( #256, #134, #178, #286, #300, #293, #277, #170, #86, #235, #251 ) ) ;
#281 = CARTESIAN_POINT ( 'NONE',  ( 10.00000000000000000, 1.224646799147353256E-15, 7.000000000000000000 ) ) ;
#282 = LOCAL_TIME ( 11, 4, 20.00000000000000000, #224 ) ;
#283 = CC_DESIGN_PERSON_AND_ORGANIZATION_ASSIGNMENT ( #242, #36, ( #18 ) ) ;
#284 = DIRECTION ( 'NONE',  ( -0.000000000000000000, -0.000000000000000000, -1.000000000000000000 ) ) ;
#285 = DIRECTION ( 'NONE',  ( 0.000000000000000000, 0.000000000000000000, 1.000000000000000000 ) ) ;
#286 = ADVANCED_FACE ( 'NONE', ( #83 ), #301, .T. ) ;
#287 = FACE_OUTER_BOUND ( 'NONE', #73, .T. ) ;
#288 = CARTESIAN_POINT ( 'NONE',  ( 6.000000000000000888, 7.347880794884120722E-16, 132.0000000000000000 ) ) ;
#289 = CARTESIAN_POINT ( 'NONE',  ( 6.700000000000001066, 0.000000000000000000, 6.999999999999999112 ) ) ;
#290 = VERTEX_POINT ( 'NONE', #289 ) ;
#291 = CC_DESIGN_APPROVAL ( #68, ( #15 ) ) ;
#292 = DIRECTION ( 'NONE',  ( 1.000000000000000000, 0.000000000000000000, -0.000000000000000000 ) ) ;
#293 = ADVANCED_FACE ( 'NONE', ( #264, #166 ), #269, .T. ) ;
#294 = DIRECTION ( 'NONE',  ( 0.000000000000000000, 0.000000000000000000, -1.000000000000000000 ) ) ;
#295 = ORIENTED_EDGE ( 'NONE', *, *, #93, .T. ) ;
#296 = ADVANCED_BREP_SHAPE_REPRESENTATION ( '5d0b', ( #309, #187 ), #367 ) ;
#297 = DIRECTION ( 'NONE',  ( -1.000000000000000000, 0.000000000000000000, 0.000000000000000000 ) ) ;
#298 = AXIS2_PLACEMENT_3D ( 'NONE', #71, #313, #43 ) ;
#299 = EDGE_LOOP ( 'NONE', ( #197, #376, #204, #270 ) ) ;
#300 = ADVANCED_FACE ( 'NONE', ( #29 ), #234, .T. ) ;
#301 = CYLINDRICAL_SURFACE ( 'NONE', #90, 10.00000000000000000 ) ;
#302 = CIRCLE ( 'NONE', #260, 6.700000000000001066 ) ;
#303 = EDGE_LOOP ( 'NONE', ( #27, #369, #44, #161 ) ) ;
#304 = DATE_AND_TIME ( #212, #225 ) ;
#305 = CIRCLE ( 'NONE', #130, 4.000000000000000000 ) ;
#306 = EDGE_CURVE ( 'NONE', #149, #352, #4, .T. ) ;
#307 = APPROVAL_DATE_TIME ( #278, #347 ) ;
#308 = CARTESIAN_POINT ( 'NONE',  ( 0.000000000000000000, 0.000000000000000000, 132.0000000000000000 ) ) ;
#309 = MANIFOLD_SOLID_BREP ( 'Odebrat vysunutím3', #280 ) ;
#310 = APPROVAL_DATE_TIME ( #214, #108 ) ;
#311 = CARTESIAN_POINT ( 'NONE',  ( -6.700000000000001066, 8.205133554287267548E-16, 6.999999999999999112 ) ) ;
#312 = EDGE_CURVE ( 'NONE', #62, #356, #208, .T. ) ;
#313 = DIRECTION ( 'NONE',  ( 0.000000000000000000, 0.000000000000000000, 1.000000000000000000 ) ) ;
#314 = AXIS2_PLACEMENT_3D ( 'NONE', #2, #107, #351 ) ;
#315 = CALENDAR_DATE ( 2022, 10, 7 ) ;
#316 = CARTESIAN_POINT ( 'NONE',  ( -6.700000000000001066, 8.205133554287267548E-16, 7.699999999999998401 ) ) ;
#317 = DIRECTION ( 'NONE',  ( -0.000000000000000000, -0.000000000000000000, -1.000000000000000000 ) ) ;
#318 = LOCAL_TIME ( 11, 4, 20.00000000000000000, #67 ) ;
#319 = DIRECTION ( 'NONE',  ( 1.000000000000000000, 0.000000000000000000, 0.000000000000000000 ) ) ;
#320 = CIRCLE ( 'NONE', #191, 0.7000000000000000666 ) ;
#321 = CYLINDRICAL_SURFACE ( 'NONE', #162, 4.000000000000000000 ) ;
#322 = DIRECTION ( 'NONE',  ( -0.000000000000000000, -0.000000000000000000, -1.000000000000000000 ) ) ;
#323 = CARTESIAN_POINT ( 'NONE',  ( 0.000000000000000000, 0.000000000000000000, 0.000000000000000000 ) ) ;
#324 = EDGE_CURVE ( 'NONE', #290, #19, #302, .T. ) ;
#325 = EDGE_LOOP ( 'NONE', ( #233, #263, #133, #115 ) ) ;
#326 = CARTESIAN_POINT ( 'NONE',  ( 0.000000000000000000, 0.000000000000000000, 7.000000000000000000 ) ) ;
#327 = VERTEX_POINT ( 'NONE', #229 ) ;
#328 = EDGE_LOOP ( 'NONE', ( #9, #104, #228, #7 ) ) ;
#329 = PERSON_AND_ORGANIZATION_ROLE ( 'creator' ) ;
#330 = CARTESIAN_POINT ( 'NONE',  ( -6.000000000000000888, 0.000000000000000000, 132.0000000000000000 ) ) ;
#331 = PERSON_AND_ORGANIZATION ( #268, #131 ) ;
#332 = DIRECTION ( 'NONE',  ( 0.000000000000000000, 0.000000000000000000, 1.000000000000000000 ) ) ;
#333 = CARTESIAN_POINT ( 'NONE',  ( -4.000000000000000000, 0.000000000000000000, 0.000000000000000000 ) ) ;
#334 = CARTESIAN_POINT ( 'NONE',  ( 6.000000000000000888, 7.347880794884120722E-16, 7.699999999999998401 ) ) ;
#335 = PERSON_AND_ORGANIZATION ( #268, #131 ) ;
#336 = DIRECTION ( 'NONE',  ( 0.000000000000000000, 0.000000000000000000, 1.000000000000000000 ) ) ;
#337 = EDGE_CURVE ( 'NONE', #327, #149, #23, .T. ) ;
#338 = APPROVAL_DATE_TIME ( #344, #68 ) ;
#339 = CARTESIAN_POINT ( 'NONE',  ( 0.000000000000000000, 0.000000000000000000, 7.699999999999998401 ) ) ;
#340 = DIRECTION ( 'NONE',  ( -1.000000000000000000, 0.000000000000000000, 0.000000000000000000 ) ) ;
#341 = VECTOR ( 'NONE', #188, 1000.000000000000000 ) ;
#342 = EDGE_CURVE ( 'NONE', #19, #290, #37, .T. ) ;
#343 = DIRECTION ( 'NONE',  ( -1.000000000000000000, 1.224646799147353454E-16, 0.000000000000000000 ) ) ;
#344 = DATE_AND_TIME ( #315, #282 ) ;
#345 = AXIS2_PLACEMENT_3D ( 'NONE', #91, #64, #319 ) ;
#346 = APPROVAL_PERSON_ORGANIZATION ( #360, #108, #70 ) ;
#347 = APPROVAL ( #125, 'NEURÈENÝ' ) ;
#348 = PRODUCT_DEFINITION_SHAPE ( 'NONE', 'NONE',  #18 ) ;
#349 = DIRECTION ( 'NONE',  ( -0.000000000000000000, -0.000000000000000000, -1.000000000000000000 ) ) ;
#350 = ORIENTED_EDGE ( 'NONE', *, *, #93, .F. ) ;
#351 = DIRECTION ( 'NONE',  ( 1.000000000000000000, 0.000000000000000000, 0.000000000000000000 ) ) ;
#352 = VERTEX_POINT ( 'NONE', #380 ) ;
#353 = AXIS2_PLACEMENT_3D ( 'NONE', #323, #146, #51 ) ;
#354 = EDGE_CURVE ( 'NONE', #58, #213, #192, .T. ) ;
#355 = CARTESIAN_POINT ( 'NONE',  ( -4.000000000000000000, 0.000000000000000000, 132.0000000000000000 ) ) ;
#356 = VERTEX_POINT ( 'NONE', #81 ) ;
#357 = CARTESIAN_POINT ( 'NONE',  ( 0.000000000000000000, 0.000000000000000000, 7.000000000000000000 ) ) ;
#358 = DIRECTION ( 'NONE',  ( 0.000000000000000000, 0.000000000000000000, 1.000000000000000000 ) ) ;
#359 = ORIENTED_EDGE ( 'NONE', *, *, #126, .T. ) ;
#360 = PERSON_AND_ORGANIZATION ( #268, #131 ) ;
#361 = AXIS2_PLACEMENT_3D ( 'NONE', #262, #349, #172 ) ;
#362 = ORIENTED_EDGE ( 'NONE', *, *, #145, .F. ) ;
#363 = APPROVAL_STATUS ( 'not_yet_approved' ) ;
#364 = PERSON_AND_ORGANIZATION ( #268, #131 ) ;
#365 = FACE_OUTER_BOUND ( 'NONE', #136, .T. ) ;
#366 = APPLICATION_PROTOCOL_DEFINITION ( 'international standard', 'config_control_design', 1994, #209 ) ;
#367 =( GEOMETRIC_REPRESENTATION_CONTEXT ( 3 ) GLOBAL_UNCERTAINTY_ASSIGNED_CONTEXT ( ( #236 ) ) GLOBAL_UNIT_ASSIGNED_CONTEXT ( ( #237, #245, #61 ) ) REPRESENTATION_CONTEXT ( 'NONE', 'WORKASPACE' ) );
#368 = DIRECTION ( 'NONE',  ( 1.000000000000000000, 0.000000000000000000, 0.000000000000000000 ) ) ;
#369 = ORIENTED_EDGE ( 'NONE', *, *, #194, .F. ) ;
#370 = CARTESIAN_POINT ( 'NONE',  ( 0.000000000000000000, 0.000000000000000000, 132.0000000000000000 ) ) ;
#371 = SHAPE_DEFINITION_REPRESENTATION ( #348, #296 ) ;
#372 = CARTESIAN_POINT ( 'NONE',  ( 0.000000000000000000, 0.000000000000000000, 132.0000000000000000 ) ) ;
#373 = ORIENTED_EDGE ( 'NONE', *, *, #76, .F. ) ;
#374 = AXIS2_PLACEMENT_3D ( 'NONE', #1, #109, #206 ) ;
#375 = EDGE_CURVE ( 'NONE', #84, #213, #198, .T. ) ;
#376 = ORIENTED_EDGE ( 'NONE', *, *, #145, .T. ) ;
#377 = CARTESIAN_POINT ( 'NONE',  ( -10.00000000000000000, 0.000000000000000000, 0.000000000000000000 ) ) ;
#378 = EDGE_CURVE ( 'NONE', #62, #379, #111, .T. ) ;
#379 = VERTEX_POINT ( 'NONE', #333 ) ;
#380 = CARTESIAN_POINT ( 'NONE',  ( 10.00000000000000000, 1.224646799147353256E-15, 0.000000000000000000 ) ) ;
#381 = ORIENTED_EDGE ( 'NONE', *, *, #231, .F. ) ;
ENDSEC;
END-ISO-10303-21;
