ISO-10303-21;
HEADER;
FILE_DESCRIPTION (( 'STEP AP203' ),
    '1' );
FILE_NAME ('00cf.STEP',
    '2022-07-10T09:04:47',
    ( '' ),
    ( '' ),
    'SwSTEP 2.0',
    'SolidWorks 2019',
    '' );
FILE_SCHEMA (( 'CONFIG_CONTROL_DESIGN' ));
ENDSEC;

DATA;
#1 = ORIENTED_EDGE ( 'NONE', *, *, #9, .T. ) ;
#2 = TOROIDAL_SURFACE ( 'NONE', #231, 5.500000000000000000, 0.5000000000000000000 ) ;
#3 = DATE_AND_TIME ( #263, #74 ) ;
#4 = PERSON_AND_ORGANIZATION_ROLE ( 'creator' ) ;
#5 = CC_DESIGN_PERSON_AND_ORGANIZATION_ASSIGNMENT ( #238, #4, ( #285 ) ) ;
#6 = AXIS2_PLACEMENT_3D ( 'NONE', #212, #266, #299 ) ;
#7 = PERSON_AND_ORGANIZATION ( #210, #195 ) ;
#8 = VERTEX_POINT ( 'NONE', #105 ) ;
#9 = EDGE_CURVE ( 'NONE', #325, #257, #151, .T. ) ;
#10 =( NAMED_UNIT ( * ) SI_UNIT ( $, .STERADIAN. ) SOLID_ANGLE_UNIT ( ) );
#11 = ORIENTED_EDGE ( 'NONE', *, *, #91, .F. ) ;
#12 = CARTESIAN_POINT ( 'NONE',  ( 0.000000000000000000, 0.000000000000000000, 5.500000000000005329 ) ) ;
#13 = COORDINATED_UNIVERSAL_TIME_OFFSET ( 1, 0, .AHEAD. ) ;
#14 = LOCAL_TIME ( 11, 4, 47.00000000000000000, #337 ) ;
#15 = CYLINDRICAL_SURFACE ( 'NONE', #67, 3.100000000000000089 ) ;
#16 = CIRCLE ( 'NONE', #183, 3.100000000000000089 ) ;
#17 = VECTOR ( 'NONE', #282, 1000.000000000000000 ) ;
#18 = DIRECTION ( 'NONE',  ( 1.000000000000000000, 0.000000000000000000, 0.000000000000000000 ) ) ;
#19 = CARTESIAN_POINT ( 'NONE',  ( 0.000000000000000000, 0.000000000000000000, 0.000000000000000000 ) ) ;
#20 = DIRECTION ( 'NONE',  ( 0.000000000000000000, 0.000000000000000000, 1.000000000000000000 ) ) ;
#21 = CIRCLE ( 'NONE', #136, 5.500000000000000000 ) ;
#22 = PRODUCT_RELATED_PRODUCT_CATEGORY ( 'detail', '', ( #138 ) ) ;
#23 = CARTESIAN_POINT ( 'NONE',  ( -5.000000000000000000, 0.000000000000000000, 255.0000000000000000 ) ) ;
#24 = ADVANCED_BREP_SHAPE_REPRESENTATION ( '00cf', ( #182, #6 ), #29 ) ;
#25 = VERTEX_POINT ( 'NONE', #130 ) ;
#26 = CARTESIAN_POINT ( 'NONE',  ( 0.000000000000000000, 0.000000000000000000, 255.0000000000000000 ) ) ;
#27 = CARTESIAN_POINT ( 'NONE',  ( 0.000000000000000000, 0.000000000000000000, 5.000000000000000000 ) ) ;
#28 = ORIENTED_EDGE ( 'NONE', *, *, #128, .T. ) ;
#29 =( GEOMETRIC_REPRESENTATION_CONTEXT ( 3 ) GLOBAL_UNCERTAINTY_ASSIGNED_CONTEXT ( ( #124 ) ) GLOBAL_UNIT_ASSIGNED_CONTEXT ( ( #150, #185, #10 ) ) REPRESENTATION_CONTEXT ( 'NONE', 'WORKASPACE' ) );
#30 = CARTESIAN_POINT ( 'NONE',  ( 3.100000000000000089, 3.796405077356794918E-16, 255.0000000000000000 ) ) ;
#31 = ORIENTED_EDGE ( 'NONE', *, *, #224, .F. ) ;
#32 = FACE_OUTER_BOUND ( 'NONE', #362, .T. ) ;
#33 = VERTEX_POINT ( 'NONE', #228 ) ;
#34 = TOROIDAL_SURFACE ( 'NONE', #375, 5.500000000000000000, 0.5000000000000000000 ) ;
#35 = ADVANCED_FACE ( 'NONE', ( #72, #99 ), #69, .F. ) ;
#36 = MECHANICAL_CONTEXT ( 'NONE', #110, 'mechanical' ) ;
#37 = APPROVAL_STATUS ( 'not_yet_approved' ) ;
#38 = ORIENTED_EDGE ( 'NONE', *, *, #290, .T. ) ;
#39 = APPROVAL_ROLE ( '' ) ;
#40 = CYLINDRICAL_SURFACE ( 'NONE', #162, 5.000000000000000000 ) ;
#41 = DIRECTION ( 'NONE',  ( 0.000000000000000000, 0.000000000000000000, 1.000000000000000000 ) ) ;
#42 = DIRECTION ( 'NONE',  ( 0.000000000000000000, 0.000000000000000000, -1.000000000000000000 ) ) ;
#43 = CLOSED_SHELL ( 'NONE', ( #109, #252, #258, #373, #179, #248, #35, #121, #307, #197, #48 ) ) ;
#44 = LOCAL_TIME ( 11, 4, 47.00000000000000000, #216 ) ;
#45 = DIRECTION ( 'NONE',  ( -1.000000000000000000, 0.000000000000000000, 0.000000000000000000 ) ) ;
#46 = APPLICATION_CONTEXT ( 'configuration controlled 3d designs of mechanical parts and assemblies' ) ;
#47 = VERTEX_POINT ( 'NONE', #366 ) ;
#48 = ADVANCED_FACE ( 'NONE', ( #164 ), #131, .F. ) ;
#49 = DIRECTION ( 'NONE',  ( 1.000000000000000000, 0.000000000000000000, 0.000000000000000000 ) ) ;
#50 = VECTOR ( 'NONE', #253, 1000.000000000000000 ) ;
#51 = DIRECTION ( 'NONE',  ( -1.000000000000000000, 0.000000000000000000, 0.000000000000000000 ) ) ;
#52 = FACE_OUTER_BOUND ( 'NONE', #301, .T. ) ;
#53 = CARTESIAN_POINT ( 'NONE',  ( -3.100000000000000089, 0.000000000000000000, 255.0000000000000000 ) ) ;
#54 = EDGE_CURVE ( 'NONE', #47, #351, #129, .T. ) ;
#55 = LOCAL_TIME ( 11, 4, 47.00000000000000000, #118 ) ;
#56 = ORIENTED_EDGE ( 'NONE', *, *, #333, .T. ) ;
#57 = AXIS2_PLACEMENT_3D ( 'NONE', #247, #133, #342 ) ;
#58 = DIRECTION ( 'NONE',  ( 1.000000000000000000, 0.000000000000000000, -0.000000000000000000 ) ) ;
#59 = ORIENTED_EDGE ( 'NONE', *, *, #224, .T. ) ;
#60 = CARTESIAN_POINT ( 'NONE',  ( -8.000000000000000000, 0.000000000000000000, 5.000000000000000000 ) ) ;
#61 = APPROVAL_PERSON_ORGANIZATION ( #187, #116, #271 ) ;
#62 = AXIS2_PLACEMENT_3D ( 'NONE', #309, #41, #49 ) ;
#63 = DIRECTION ( 'NONE',  ( -0.000000000000000000, -0.000000000000000000, -1.000000000000000000 ) ) ;
#64 = EDGE_LOOP ( 'NONE', ( #38, #244 ) ) ;
#65 = DATE_TIME_ROLE ( 'creation_date' ) ;
#66 = ORIENTED_EDGE ( 'NONE', *, *, #321, .T. ) ;
#67 = AXIS2_PLACEMENT_3D ( 'NONE', #251, #42, #310 ) ;
#68 = DIRECTION ( 'NONE',  ( 0.000000000000000000, 0.000000000000000000, 1.000000000000000000 ) ) ;
#69 = PLANE ( 'NONE',  #305 ) ;
#70 = DIRECTION ( 'NONE',  ( 0.000000000000000000, 0.000000000000000000, 1.000000000000000000 ) ) ;
#71 = PERSON_AND_ORGANIZATION ( #210, #195 ) ;
#72 = FACE_BOUND ( 'NONE', #155, .T. ) ;
#73 = AXIS2_PLACEMENT_3D ( 'NONE', #148, #255, #106 ) ;
#74 = LOCAL_TIME ( 11, 4, 47.00000000000000000, #298 ) ;
#75 = FACE_OUTER_BOUND ( 'NONE', #83, .T. ) ;
#76 = CARTESIAN_POINT ( 'NONE',  ( 0.000000000000000000, 0.000000000000000000, 255.0000000000000000 ) ) ;
#77 = FACE_OUTER_BOUND ( 'NONE', #380, .T. ) ;
#78 = VECTOR ( 'NONE', #303, 1000.000000000000000 ) ;
#79 = CARTESIAN_POINT ( 'NONE',  ( -5.500000000000000000, 6.735557395310442023E-16, 5.500000000000005329 ) ) ;
#80 = EDGE_CURVE ( 'NONE', #304, #25, #16, .T. ) ;
#81 = LINE ( 'NONE', #53, #84 ) ;
#82 = ORIENTED_EDGE ( 'NONE', *, *, #348, .T. ) ;
#83 = EDGE_LOOP ( 'NONE', ( #120, #236, #126, #217 ) ) ;
#84 = VECTOR ( 'NONE', #174, 1000.000000000000000 ) ;
#85 = PERSON_AND_ORGANIZATION_ROLE ( 'design_owner' ) ;
#86 = APPROVAL ( #132, 'NEURÈENÝ' ) ;
#87 = FACE_OUTER_BOUND ( 'NONE', #149, .T. ) ;
#88 = CIRCLE ( 'NONE', #326, 0.5000000000000004441 ) ;
#89 = CALENDAR_DATE ( 2022, 10, 7 ) ;
#90 = ORIENTED_EDGE ( 'NONE', *, *, #165, .F. ) ;
#91 = EDGE_CURVE ( 'NONE', #329, #178, #349, .T. ) ;
#92 = ORIENTED_EDGE ( 'NONE', *, *, #264, .T. ) ;
#93 = ORIENTED_EDGE ( 'NONE', *, *, #234, .F. ) ;
#94 = SHAPE_DEFINITION_REPRESENTATION ( #320, #24 ) ;
#95 = CIRCLE ( 'NONE', #62, 8.000000000000000000 ) ;
#96 = CARTESIAN_POINT ( 'NONE',  ( 0.000000000000000000, 0.000000000000000000, 255.0000000000000000 ) ) ;
#97 = EDGE_CURVE ( 'NONE', #47, #8, #169, .T. ) ;
#98 = SECURITY_CLASSIFICATION_LEVEL ( 'unclassified' ) ;
#99 = FACE_OUTER_BOUND ( 'NONE', #240, .T. ) ;
#100 = DIRECTION ( 'NONE',  ( -0.000000000000000000, -0.000000000000000000, -1.000000000000000000 ) ) ;
#101 = VERTEX_POINT ( 'NONE', #221 ) ;
#102 = LOCAL_TIME ( 11, 4, 47.00000000000000000, #13 ) ;
#103 = CARTESIAN_POINT ( 'NONE',  ( 0.000000000000000000, 0.000000000000000000, 0.000000000000000000 ) ) ;
#104 = CIRCLE ( 'NONE', #246, 5.000000000000000000 ) ;
#105 = CARTESIAN_POINT ( 'NONE',  ( 5.500000000000000000, 0.000000000000000000, 5.000000000000002665 ) ) ;
#106 = DIRECTION ( 'NONE',  ( 1.000000000000000000, 0.000000000000000000, -0.000000000000000000 ) ) ;
#107 = FACE_BOUND ( 'NONE', #114, .T. ) ;
#108 = AXIS2_PLACEMENT_3D ( 'NONE', #235, #319, #207 ) ;
#109 = ADVANCED_FACE ( 'NONE', ( #306 ), #15, .F. ) ;
#110 = APPLICATION_CONTEXT ( 'configuration controlled 3d designs of mechanical parts and assemblies' ) ;
#111 = DIRECTION ( 'NONE',  ( 0.000000000000000000, 0.000000000000000000, 1.000000000000000000 ) ) ;
#112 = ORIENTED_EDGE ( 'NONE', *, *, #363, .T. ) ;
#113 = DIRECTION ( 'NONE',  ( -0.000000000000000000, -0.000000000000000000, -1.000000000000000000 ) ) ;
#114 = EDGE_LOOP ( 'NONE', ( #31, #11 ) ) ;
#115 = DIRECTION ( 'NONE',  ( 1.224646799147353207E-16, 1.000000000000000000, -0.000000000000000000 ) ) ;
#116 = APPROVAL ( #37, 'NEURÈENÝ' ) ;
#117 = APPROVAL_DATE_TIME ( #3, #116 ) ;
#118 = COORDINATED_UNIVERSAL_TIME_OFFSET ( 1, 0, .AHEAD. ) ;
#119 = CYLINDRICAL_SURFACE ( 'NONE', #189, 8.000000000000000000 ) ;
#120 = ORIENTED_EDGE ( 'NONE', *, *, #277, .F. ) ;
#121 = ADVANCED_FACE ( 'NONE', ( #193 ), #40, .T. ) ;
#122 = APPROVAL_DATE_TIME ( #237, #270 ) ;
#123 = ORIENTED_EDGE ( 'NONE', *, *, #80, .T. ) ;
#124 = UNCERTAINTY_MEASURE_WITH_UNIT (LENGTH_MEASURE( 1.000000000000000082E-05 ), #150, 'distance_accuracy_value', 'NONE');
#125 = PERSON_AND_ORGANIZATION ( #210, #195 ) ;
#126 = ORIENTED_EDGE ( 'NONE', *, *, #97, .T. ) ;
#127 = DIRECTION ( 'NONE',  ( 1.000000000000000000, 0.000000000000000000, 0.000000000000000000 ) ) ;
#128 = EDGE_CURVE ( 'NONE', #173, #47, #199, .T. ) ;
#129 = CIRCLE ( 'NONE', #57, 5.000000000000000000 ) ;
#130 = CARTESIAN_POINT ( 'NONE',  ( -3.100000000000000089, 0.000000000000000000, 0.000000000000000000 ) ) ;
#131 = CYLINDRICAL_SURFACE ( 'NONE', #279, 3.100000000000000089 ) ;
#132 = APPROVAL_STATUS ( 'not_yet_approved' ) ;
#133 = DIRECTION ( 'NONE',  ( 0.000000000000000000, 0.000000000000000000, 1.000000000000000000 ) ) ;
#134 = CC_DESIGN_PERSON_AND_ORGANIZATION_ASSIGNMENT ( #340, #250, ( #267 ) ) ;
#135 = DIRECTION ( 'NONE',  ( 1.000000000000000000, 0.000000000000000000, 0.000000000000000000 ) ) ;
#136 = AXIS2_PLACEMENT_3D ( 'NONE', #379, #347, #293 ) ;
#137 = CARTESIAN_POINT ( 'NONE',  ( 0.000000000000000000, 0.000000000000000000, 0.000000000000000000 ) ) ;
#138 = PRODUCT ( '00cf', '00cf', '', ( #36 ) ) ;
#139 = ORIENTED_EDGE ( 'NONE', *, *, #348, .F. ) ;
#140 = DIRECTION ( 'NONE',  ( 0.000000000000000000, 0.000000000000000000, 1.000000000000000000 ) ) ;
#141 = CC_DESIGN_PERSON_AND_ORGANIZATION_ASSIGNMENT ( #157, #242, ( #297 ) ) ;
#142 = FACE_BOUND ( 'NONE', #64, .T. ) ;
#143 = AXIS2_PLACEMENT_3D ( 'NONE', #259, #381, #172 ) ;
#144 = ORIENTED_EDGE ( 'NONE', *, *, #264, .F. ) ;
#145 = LINE ( 'NONE', #261, #359 ) ;
#146 = ORIENTED_EDGE ( 'NONE', *, *, #333, .F. ) ;
#147 = CC_DESIGN_DATE_AND_TIME_ASSIGNMENT ( #335, #65, ( #297 ) ) ;
#148 = CARTESIAN_POINT ( 'NONE',  ( 0.000000000000000000, 0.000000000000000000, 255.0000000000000000 ) ) ;
#149 = EDGE_LOOP ( 'NONE', ( #206, #336, #272, #323 ) ) ;
#150 =( LENGTH_UNIT ( ) NAMED_UNIT ( * ) SI_UNIT ( .MILLI., .METRE. ) );
#151 = CIRCLE ( 'NONE', #156, 8.000000000000000000 ) ;
#152 = DIRECTION ( 'NONE',  ( 1.000000000000000000, 0.000000000000000000, 0.000000000000000000 ) ) ;
#153 = APPLICATION_PROTOCOL_DEFINITION ( 'international standard', 'config_control_design', 1994, #110 ) ;
#154 = DIRECTION ( 'NONE',  ( -1.000000000000000000, 0.000000000000000000, 0.000000000000000000 ) ) ;
#155 = EDGE_LOOP ( 'NONE', ( #186, #188 ) ) ;
#156 = AXIS2_PLACEMENT_3D ( 'NONE', #103, #314, #18 ) ;
#157 = PERSON_AND_ORGANIZATION ( #210, #195 ) ;
#158 = ORIENTED_EDGE ( 'NONE', *, *, #239, .F. ) ;
#159 = DATE_TIME_ROLE ( 'classification_date' ) ;
#160 = DIRECTION ( 'NONE',  ( -0.000000000000000000, -0.000000000000000000, -1.000000000000000000 ) ) ;
#161 = CARTESIAN_POINT ( 'NONE',  ( 8.000000000000000000, 9.797174393178825657E-16, 5.000000000000000000 ) ) ;
#162 = AXIS2_PLACEMENT_3D ( 'NONE', #367, #100, #316 ) ;
#163 = CARTESIAN_POINT ( 'NONE',  ( 0.000000000000000000, 0.000000000000000000, 0.000000000000000000 ) ) ;
#164 = FACE_OUTER_BOUND ( 'NONE', #243, .T. ) ;
#165 = EDGE_CURVE ( 'NONE', #101, #257, #225, .T. ) ;
#166 = ORIENTED_EDGE ( 'NONE', *, *, #302, .T. ) ;
#167 = FACE_OUTER_BOUND ( 'NONE', #315, .T. ) ;
#168 = CARTESIAN_POINT ( 'NONE',  ( -5.500000000000000000, 6.735557395310442023E-16, 5.000000000000002665 ) ) ;
#169 = CIRCLE ( 'NONE', #233, 0.5000000000000004441 ) ;
#170 = CC_DESIGN_DATE_AND_TIME_ASSIGNMENT ( #280, #159, ( #267 ) ) ;
#171 = DIRECTION ( 'NONE',  ( 1.000000000000000000, 0.000000000000000000, 0.000000000000000000 ) ) ;
#172 = DIRECTION ( 'NONE',  ( 1.000000000000000000, 0.000000000000000000, 0.000000000000000000 ) ) ;
#173 = VERTEX_POINT ( 'NONE', #227 ) ;
#174 = DIRECTION ( 'NONE',  ( 0.000000000000000000, 0.000000000000000000, -1.000000000000000000 ) ) ;
#175 = CIRCLE ( 'NONE', #241, 5.000000000000000000 ) ;
#176 = ORIENTED_EDGE ( 'NONE', *, *, #290, .F. ) ;
#177 = CARTESIAN_POINT ( 'NONE',  ( 8.000000000000000000, 9.797174393178825657E-16, 0.000000000000000000 ) ) ;
#178 = VERTEX_POINT ( 'NONE', #343 ) ;
#179 = ADVANCED_FACE ( 'NONE', ( #167 ), #191, .T. ) ;
#180 = APPROVAL_ROLE ( '' ) ;
#181 = CARTESIAN_POINT ( 'NONE',  ( 0.000000000000000000, 0.000000000000000000, 5.000000000000000000 ) ) ;
#182 = MANIFOLD_SOLID_BREP ( 'Odebrat vysunutím3', #43 ) ;
#183 = AXIS2_PLACEMENT_3D ( 'NONE', #163, #160, #135 ) ;
#184 = CC_DESIGN_PERSON_AND_ORGANIZATION_ASSIGNMENT ( #71, #192, ( #285 ) ) ;
#185 =( NAMED_UNIT ( * ) PLANE_ANGLE_UNIT ( ) SI_UNIT ( $, .RADIAN. ) );
#186 = ORIENTED_EDGE ( 'NONE', *, *, #302, .F. ) ;
#187 = PERSON_AND_ORGANIZATION ( #210, #195 ) ;
#188 = ORIENTED_EDGE ( 'NONE', *, *, #80, .F. ) ;
#189 = AXIS2_PLACEMENT_3D ( 'NONE', #181, #63, #154 ) ;
#190 = DIRECTION ( 'NONE',  ( 0.000000000000000000, 0.000000000000000000, -1.000000000000000000 ) ) ;
#191 = CYLINDRICAL_SURFACE ( 'NONE', #286, 8.000000000000000000 ) ;
#192 = PERSON_AND_ORGANIZATION_ROLE ( 'design_supplier' ) ;
#193 = FACE_OUTER_BOUND ( 'NONE', #361, .T. ) ;
#194 = CIRCLE ( 'NONE', #143, 8.000000000000000000 ) ;
#195 = ORGANIZATION ( 'NEURÈENÝ', 'NEURÈENÝ', '' ) ;
#196 = DIRECTION ( 'NONE',  ( -0.000000000000000000, -0.000000000000000000, -1.000000000000000000 ) ) ;
#197 = ADVANCED_FACE ( 'NONE', ( #75 ), #2, .F. ) ;
#198 = EDGE_LOOP ( 'NONE', ( #59, #56, #123, #289 ) ) ;
#199 = LINE ( 'NONE', #274, #17 ) ;
#200 = DIRECTION ( 'NONE',  ( 0.000000000000000000, 0.000000000000000000, 1.000000000000000000 ) ) ;
#201 = EDGE_CURVE ( 'NONE', #294, #351, #284, .T. ) ;
#202 = CYLINDRICAL_SURFACE ( 'NONE', #312, 5.000000000000000000 ) ;
#203 = AXIS2_PLACEMENT_3D ( 'NONE', #27, #374, #171 ) ;
#204 = PLANE ( 'NONE',  #269 ) ;
#205 = PLANE ( 'NONE',  #73 ) ;
#206 = ORIENTED_EDGE ( 'NONE', *, *, #321, .F. ) ;
#207 = DIRECTION ( 'NONE',  ( 1.000000000000000000, 0.000000000000000000, 0.000000000000000000 ) ) ;
#208 = AXIS2_PLACEMENT_3D ( 'NONE', #300, #356, #355 ) ;
#209 = ORIENTED_EDGE ( 'NONE', *, *, #54, .T. ) ;
#210 = PERSON ( 'NEURÈENÝ', 'NEURÈENÝ', 'NEURÈENÝ', ('NEURÈENÝ'), ('NEURÈENÝ'), ('NEURÈENÝ') ) ;
#211 = EDGE_CURVE ( 'NONE', #257, #325, #95, .T. ) ;
#212 = CARTESIAN_POINT ( 'NONE',  ( 0.000000000000000000, 0.000000000000000000, 0.000000000000000000 ) ) ;
#213 = CC_DESIGN_SECURITY_CLASSIFICATION ( #267, ( #285 ) ) ;
#214 = CALENDAR_DATE ( 2022, 10, 7 ) ;
#215 = VERTEX_POINT ( 'NONE', #168 ) ;
#216 = COORDINATED_UNIVERSAL_TIME_OFFSET ( 1, 0, .AHEAD. ) ;
#217 = ORIENTED_EDGE ( 'NONE', *, *, #368, .F. ) ;
#218 = CC_DESIGN_PERSON_AND_ORGANIZATION_ASSIGNMENT ( #7, #85, ( #138 ) ) ;
#219 = ORIENTED_EDGE ( 'NONE', *, *, #128, .F. ) ;
#220 = VECTOR ( 'NONE', #341, 1000.000000000000000 ) ;
#221 = CARTESIAN_POINT ( 'NONE',  ( 8.000000000000000000, 9.797174393178825657E-16, 5.000000000000000000 ) ) ;
#222 = APPROVAL_DATE_TIME ( #308, #86 ) ;
#223 = DIRECTION ( 'NONE',  ( 1.000000000000000000, 0.000000000000000000, -0.000000000000000000 ) ) ;
#224 = EDGE_CURVE ( 'NONE', #178, #329, #365, .T. ) ;
#225 = LINE ( 'NONE', #161, #50 ) ;
#226 = APPROVAL_PERSON_ORGANIZATION ( #358, #270, #180 ) ;
#227 = CARTESIAN_POINT ( 'NONE',  ( 5.000000000000000000, 6.123233995736766282E-16, 255.0000000000000000 ) ) ;
#228 = CARTESIAN_POINT ( 'NONE',  ( -8.000000000000000000, 0.000000000000000000, 5.000000000000000000 ) ) ;
#229 = DIRECTION ( 'NONE',  ( -1.000000000000000000, 1.224646799147351482E-16, 0.000000000000000000 ) ) ;
#230 = CC_DESIGN_APPROVAL ( #270, ( #297 ) ) ;
#231 = AXIS2_PLACEMENT_3D ( 'NONE', #12, #20, #127 ) ;
#232 = DIRECTION ( 'NONE',  ( 0.000000000000000000, 0.000000000000000000, 1.000000000000000000 ) ) ;
#233 = AXIS2_PLACEMENT_3D ( 'NONE', #249, #276, #190 ) ;
#234 = EDGE_CURVE ( 'NONE', #33, #101, #331, .T. ) ;
#235 = CARTESIAN_POINT ( 'NONE',  ( 0.000000000000000000, 0.000000000000000000, 255.0000000000000000 ) ) ;
#236 = ORIENTED_EDGE ( 'NONE', *, *, #54, .F. ) ;
#237 = DATE_AND_TIME ( #89, #55 ) ;
#238 = PERSON_AND_ORGANIZATION ( #210, #195 ) ;
#239 = EDGE_CURVE ( 'NONE', #351, #47, #175, .T. ) ;
#240 = EDGE_LOOP ( 'NONE', ( #260, #334 ) ) ;
#241 = AXIS2_PLACEMENT_3D ( 'NONE', #352, #232, #288 ) ;
#242 = PERSON_AND_ORGANIZATION_ROLE ( 'creator' ) ;
#243 = EDGE_LOOP ( 'NONE', ( #146, #291, #262, #166 ) ) ;
#244 = ORIENTED_EDGE ( 'NONE', *, *, #368, .T. ) ;
#245 = DIRECTION ( 'NONE',  ( 0.000000000000000000, 0.000000000000000000, -1.000000000000000000 ) ) ;
#246 = AXIS2_PLACEMENT_3D ( 'NONE', #26, #140, #295 ) ;
#247 = CARTESIAN_POINT ( 'NONE',  ( 0.000000000000000000, 0.000000000000000000, 5.500000000000005329 ) ) ;
#248 = ADVANCED_FACE ( 'NONE', ( #142, #287 ), #204, .T. ) ;
#249 = CARTESIAN_POINT ( 'NONE',  ( 5.500000000000000000, 0.000000000000000000, 5.500000000000005329 ) ) ;
#250 = PERSON_AND_ORGANIZATION_ROLE ( 'classification_officer' ) ;
#251 = CARTESIAN_POINT ( 'NONE',  ( 0.000000000000000000, 0.000000000000000000, 255.0000000000000000 ) ) ;
#252 = ADVANCED_FACE ( 'NONE', ( #52 ), #34, .F. ) ;
#253 = DIRECTION ( 'NONE',  ( -0.000000000000000000, -0.000000000000000000, -1.000000000000000000 ) ) ;
#254 = DIRECTION ( 'NONE',  ( 0.000000000000000000, 0.000000000000000000, 1.000000000000000000 ) ) ;
#255 = DIRECTION ( 'NONE',  ( 0.000000000000000000, 0.000000000000000000, 1.000000000000000000 ) ) ;
#256 = DIRECTION ( 'NONE',  ( -0.000000000000000000, -0.000000000000000000, -1.000000000000000000 ) ) ;
#257 = VERTEX_POINT ( 'NONE', #177 ) ;
#258 = ADVANCED_FACE ( 'NONE', ( #77 ), #202, .T. ) ;
#259 = CARTESIAN_POINT ( 'NONE',  ( 0.000000000000000000, 0.000000000000000000, 5.000000000000000000 ) ) ;
#260 = ORIENTED_EDGE ( 'NONE', *, *, #9, .F. ) ;
#261 = CARTESIAN_POINT ( 'NONE',  ( 3.100000000000000089, 3.796405077356794918E-16, 255.0000000000000000 ) ) ;
#262 = ORIENTED_EDGE ( 'NONE', *, *, #328, .T. ) ;
#263 = CALENDAR_DATE ( 2022, 10, 7 ) ;
#264 = EDGE_CURVE ( 'NONE', #173, #294, #104, .T. ) ;
#265 = APPROVAL_STATUS ( 'not_yet_approved' ) ;
#266 = DIRECTION ( 'NONE',  ( 0.000000000000000000, 0.000000000000000000, 1.000000000000000000 ) ) ;
#267 = SECURITY_CLASSIFICATION ( '', '', #98 ) ;
#268 = ORIENTED_EDGE ( 'NONE', *, *, #239, .T. ) ;
#269 = AXIS2_PLACEMENT_3D ( 'NONE', #327, #254, #58 ) ;
#270 = APPROVAL ( #265, 'NEURÈENÝ' ) ;
#271 = APPROVAL_ROLE ( '' ) ;
#272 = ORIENTED_EDGE ( 'NONE', *, *, #211, .T. ) ;
#273 = CALENDAR_DATE ( 2022, 10, 7 ) ;
#274 = CARTESIAN_POINT ( 'NONE',  ( 5.000000000000000000, 6.123233995736766282E-16, 255.0000000000000000 ) ) ;
#275 = CALENDAR_DATE ( 2022, 10, 7 ) ;
#276 = DIRECTION ( 'NONE',  ( 0.000000000000000000, -1.000000000000000000, 0.000000000000000000 ) ) ;
#277 = EDGE_CURVE ( 'NONE', #351, #215, #88, .T. ) ;
#278 = CC_DESIGN_APPROVAL ( #116, ( #285 ) ) ;
#279 = AXIS2_PLACEMENT_3D ( 'NONE', #364, #245, #45 ) ;
#280 = DATE_AND_TIME ( #275, #102 ) ;
#281 = DIRECTION ( 'NONE',  ( 1.000000000000000000, 0.000000000000000000, 0.000000000000000000 ) ) ;
#282 = DIRECTION ( 'NONE',  ( -0.000000000000000000, -0.000000000000000000, -1.000000000000000000 ) ) ;
#283 = ORIENTED_EDGE ( 'NONE', *, *, #201, .F. ) ;
#284 = LINE ( 'NONE', #371, #220 ) ;
#285 = PRODUCT_DEFINITION_FORMATION_WITH_SPECIFIED_SOURCE ( 'LIBOVOLNÝ', '', #138, .NOT_KNOWN. ) ;
#286 = AXIS2_PLACEMENT_3D ( 'NONE', #369, #196, #345 ) ;
#287 = FACE_OUTER_BOUND ( 'NONE', #296, .T. ) ;
#288 = DIRECTION ( 'NONE',  ( 1.000000000000000000, 0.000000000000000000, 0.000000000000000000 ) ) ;
#289 = ORIENTED_EDGE ( 'NONE', *, *, #328, .F. ) ;
#290 = EDGE_CURVE ( 'NONE', #8, #215, #21, .T. ) ;
#291 = ORIENTED_EDGE ( 'NONE', *, *, #91, .T. ) ;
#292 = AXIS2_PLACEMENT_3D ( 'NONE', #137, #113, #322 ) ;
#293 = DIRECTION ( 'NONE',  ( 1.000000000000000000, 0.000000000000000000, 0.000000000000000000 ) ) ;
#294 = VERTEX_POINT ( 'NONE', #23 ) ;
#295 = DIRECTION ( 'NONE',  ( 1.000000000000000000, 0.000000000000000000, 0.000000000000000000 ) ) ;
#296 = EDGE_LOOP ( 'NONE', ( #338, #66 ) ) ;
#297 = PRODUCT_DEFINITION ( 'NEZNÁMÝ', '', #285, #311 ) ;
#298 = COORDINATED_UNIVERSAL_TIME_OFFSET ( 1, 0, .AHEAD. ) ;
#299 = DIRECTION ( 'NONE',  ( 1.000000000000000000, 0.000000000000000000, 0.000000000000000000 ) ) ;
#300 = CARTESIAN_POINT ( 'NONE',  ( 0.000000000000000000, 0.000000000000000000, 5.000000000000000000 ) ) ;
#301 = EDGE_LOOP ( 'NONE', ( #158, #353, #176, #378 ) ) ;
#302 = EDGE_CURVE ( 'NONE', #25, #304, #354, .T. ) ;
#303 = DIRECTION ( 'NONE',  ( -0.000000000000000000, -0.000000000000000000, -1.000000000000000000 ) ) ;
#304 = VERTEX_POINT ( 'NONE', #350 ) ;
#305 = AXIS2_PLACEMENT_3D ( 'NONE', #19, #68, #223 ) ;
#306 = FACE_OUTER_BOUND ( 'NONE', #198, .T. ) ;
#307 = ADVANCED_FACE ( 'NONE', ( #107, #32 ), #205, .T. ) ;
#308 = DATE_AND_TIME ( #273, #14 ) ;
#309 = CARTESIAN_POINT ( 'NONE',  ( 0.000000000000000000, 0.000000000000000000, 0.000000000000000000 ) ) ;
#310 = DIRECTION ( 'NONE',  ( -1.000000000000000000, 0.000000000000000000, 0.000000000000000000 ) ) ;
#311 = DESIGN_CONTEXT ( 'detailed design', #46, 'design' ) ;
#312 = AXIS2_PLACEMENT_3D ( 'NONE', #372, #256, #51 ) ;
#313 = CC_DESIGN_APPROVAL ( #86, ( #267 ) ) ;
#314 = DIRECTION ( 'NONE',  ( 0.000000000000000000, 0.000000000000000000, 1.000000000000000000 ) ) ;
#315 = EDGE_LOOP ( 'NONE', ( #90, #93, #112, #1 ) ) ;
#316 = DIRECTION ( 'NONE',  ( -1.000000000000000000, 0.000000000000000000, 0.000000000000000000 ) ) ;
#317 = DIRECTION ( 'NONE',  ( 1.000000000000000000, 0.000000000000000000, 0.000000000000000000 ) ) ;
#318 = AXIS2_PLACEMENT_3D ( 'NONE', #96, #70, #281 ) ;
#319 = DIRECTION ( 'NONE',  ( 0.000000000000000000, 0.000000000000000000, 1.000000000000000000 ) ) ;
#320 = PRODUCT_DEFINITION_SHAPE ( 'NONE', 'NONE',  #297 ) ;
#321 = EDGE_CURVE ( 'NONE', #101, #33, #194, .T. ) ;
#322 = DIRECTION ( 'NONE',  ( 1.000000000000000000, 0.000000000000000000, 0.000000000000000000 ) ) ;
#323 = ORIENTED_EDGE ( 'NONE', *, *, #363, .F. ) ;
#324 = CARTESIAN_POINT ( 'NONE',  ( -8.000000000000000000, 0.000000000000000000, 0.000000000000000000 ) ) ;
#325 = VERTEX_POINT ( 'NONE', #324 ) ;
#326 = AXIS2_PLACEMENT_3D ( 'NONE', #79, #115, #229 ) ;
#327 = CARTESIAN_POINT ( 'NONE',  ( 0.000000000000000000, 0.000000000000000000, 5.000000000000000000 ) ) ;
#328 = EDGE_CURVE ( 'NONE', #178, #25, #81, .T. ) ;
#329 = VERTEX_POINT ( 'NONE', #30 ) ;
#330 = CARTESIAN_POINT ( 'NONE',  ( -5.000000000000000000, 0.000000000000000000, 5.500000000000005329 ) ) ;
#331 = CIRCLE ( 'NONE', #203, 8.000000000000000000 ) ;
#332 = APPLICATION_PROTOCOL_DEFINITION ( 'international standard', 'config_control_design', 1994, #46 ) ;
#333 = EDGE_CURVE ( 'NONE', #329, #304, #145, .T. ) ;
#334 = ORIENTED_EDGE ( 'NONE', *, *, #211, .F. ) ;
#335 = DATE_AND_TIME ( #214, #44 ) ;
#336 = ORIENTED_EDGE ( 'NONE', *, *, #165, .T. ) ;
#337 = COORDINATED_UNIVERSAL_TIME_OFFSET ( 1, 0, .AHEAD. ) ;
#338 = ORIENTED_EDGE ( 'NONE', *, *, #234, .T. ) ;
#339 = CIRCLE ( 'NONE', #370, 5.000000000000000000 ) ;
#340 = PERSON_AND_ORGANIZATION ( #210, #195 ) ;
#341 = DIRECTION ( 'NONE',  ( -0.000000000000000000, -0.000000000000000000, -1.000000000000000000 ) ) ;
#342 = DIRECTION ( 'NONE',  ( 1.000000000000000000, 0.000000000000000000, 0.000000000000000000 ) ) ;
#343 = CARTESIAN_POINT ( 'NONE',  ( -3.100000000000000089, 0.000000000000000000, 255.0000000000000000 ) ) ;
#344 = CIRCLE ( 'NONE', #208, 5.500000000000000000 ) ;
#345 = DIRECTION ( 'NONE',  ( -1.000000000000000000, 0.000000000000000000, 0.000000000000000000 ) ) ;
#346 = DIRECTION ( 'NONE',  ( 0.000000000000000000, 0.000000000000000000, -1.000000000000000000 ) ) ;
#347 = DIRECTION ( 'NONE',  ( -0.000000000000000000, -0.000000000000000000, -1.000000000000000000 ) ) ;
#348 = EDGE_CURVE ( 'NONE', #294, #173, #339, .T. ) ;
#349 = CIRCLE ( 'NONE', #318, 3.100000000000000089 ) ;
#350 = CARTESIAN_POINT ( 'NONE',  ( 3.100000000000000089, 3.796405077356794918E-16, 0.000000000000000000 ) ) ;
#351 = VERTEX_POINT ( 'NONE', #330 ) ;
#352 = CARTESIAN_POINT ( 'NONE',  ( 0.000000000000000000, 0.000000000000000000, 5.500000000000005329 ) ) ;
#353 = ORIENTED_EDGE ( 'NONE', *, *, #277, .T. ) ;
#354 = CIRCLE ( 'NONE', #292, 3.100000000000000089 ) ;
#355 = DIRECTION ( 'NONE',  ( 1.000000000000000000, 0.000000000000000000, 0.000000000000000000 ) ) ;
#356 = DIRECTION ( 'NONE',  ( -0.000000000000000000, -0.000000000000000000, -1.000000000000000000 ) ) ;
#357 = LINE ( 'NONE', #60, #78 ) ;
#358 = PERSON_AND_ORGANIZATION ( #210, #195 ) ;
#359 = VECTOR ( 'NONE', #346, 1000.000000000000000 ) ;
#360 = ORIENTED_EDGE ( 'NONE', *, *, #201, .T. ) ;
#361 = EDGE_LOOP ( 'NONE', ( #219, #139, #360, #268 ) ) ;
#362 = EDGE_LOOP ( 'NONE', ( #82, #92 ) ) ;
#363 = EDGE_CURVE ( 'NONE', #33, #325, #357, .T. ) ;
#364 = CARTESIAN_POINT ( 'NONE',  ( 0.000000000000000000, 0.000000000000000000, 255.0000000000000000 ) ) ;
#365 = CIRCLE ( 'NONE', #108, 3.100000000000000089 ) ;
#366 = CARTESIAN_POINT ( 'NONE',  ( 5.000000000000000000, 6.123233995736766282E-16, 5.500000000000005329 ) ) ;
#367 = CARTESIAN_POINT ( 'NONE',  ( 0.000000000000000000, 0.000000000000000000, 255.0000000000000000 ) ) ;
#368 = EDGE_CURVE ( 'NONE', #215, #8, #344, .T. ) ;
#369 = CARTESIAN_POINT ( 'NONE',  ( 0.000000000000000000, 0.000000000000000000, 5.000000000000000000 ) ) ;
#370 = AXIS2_PLACEMENT_3D ( 'NONE', #76, #200, #152 ) ;
#371 = CARTESIAN_POINT ( 'NONE',  ( -5.000000000000000000, 0.000000000000000000, 255.0000000000000000 ) ) ;
#372 = CARTESIAN_POINT ( 'NONE',  ( 0.000000000000000000, 0.000000000000000000, 255.0000000000000000 ) ) ;
#373 = ADVANCED_FACE ( 'NONE', ( #87 ), #119, .T. ) ;
#374 = DIRECTION ( 'NONE',  ( 0.000000000000000000, 0.000000000000000000, 1.000000000000000000 ) ) ;
#375 = AXIS2_PLACEMENT_3D ( 'NONE', #377, #111, #317 ) ;
#376 = APPROVAL_PERSON_ORGANIZATION ( #125, #86, #39 ) ;
#377 = CARTESIAN_POINT ( 'NONE',  ( 0.000000000000000000, 0.000000000000000000, 5.500000000000005329 ) ) ;
#378 = ORIENTED_EDGE ( 'NONE', *, *, #97, .F. ) ;
#379 = CARTESIAN_POINT ( 'NONE',  ( 0.000000000000000000, 0.000000000000000000, 5.000000000000000000 ) ) ;
#380 = EDGE_LOOP ( 'NONE', ( #144, #28, #209, #283 ) ) ;
#381 = DIRECTION ( 'NONE',  ( 0.000000000000000000, 0.000000000000000000, 1.000000000000000000 ) ) ;
ENDSEC;
END-ISO-10303-21;
