ISO-10303-21;
HEADER;
FILE_DESCRIPTION (( 'STEP AP203' ),
    '1' );
FILE_NAME ('a847.STEP',
    '2022-07-10T09:03:03',
    ( '' ),
    ( '' ),
    'SwSTEP 2.0',
    'SolidWorks 2019',
    '' );
FILE_SCHEMA (( 'CONFIG_CONTROL_DESIGN' ));
ENDSEC;

DATA;
#1 = DATE_TIME_ROLE ( 'classification_date' ) ;
#2 = EDGE_LOOP ( 'NONE', ( #255, #341, #240, #89 ) ) ;
#3 = ORIENTED_EDGE ( 'NONE', *, *, #161, .F. ) ;
#4 = CARTESIAN_POINT ( 'NONE',  ( 0.000000000000000000, 0.000000000000000000, 7.000000000000000000 ) ) ;
#5 = EDGE_CURVE ( 'NONE', #375, #134, #115, .T. ) ;
#6 = CARTESIAN_POINT ( 'NONE',  ( 0.000000000000000000, 0.000000000000000000, 107.0000000000000142 ) ) ;
#7 = EDGE_CURVE ( 'NONE', #377, #230, #332, .T. ) ;
#8 = APPROVAL_STATUS ( 'not_yet_approved' ) ;
#9 = CARTESIAN_POINT ( 'NONE',  ( 0.000000000000000000, 0.000000000000000000, 0.000000000000000000 ) ) ;
#10 = APPROVAL_DATE_TIME ( #205, #301 ) ;
#11 = PRODUCT_DEFINITION_FORMATION_WITH_SPECIFIED_SOURCE ( 'LIBOVOLNÝ', '', #73, .NOT_KNOWN. ) ;
#12 = CARTESIAN_POINT ( 'NONE',  ( -4.099999999999999645, 0.000000000000000000, 107.0000000000000142 ) ) ;
#13 = FACE_BOUND ( 'NONE', #148, .T. ) ;
#14 = CARTESIAN_POINT ( 'NONE',  ( 0.000000000000000000, 0.000000000000000000, 107.0000000000000142 ) ) ;
#15 = VECTOR ( 'NONE', #103, 1000.000000000000000 ) ;
#16 = LINE ( 'NONE', #256, #287 ) ;
#17 = APPLICATION_CONTEXT ( 'configuration controlled 3d designs of mechanical parts and assemblies' ) ;
#18 = EDGE_LOOP ( 'NONE', ( #106, #317, #112, #201 ) ) ;
#19 = EDGE_CURVE ( 'NONE', #262, #34, #347, .T. ) ;
#20 = PERSON_AND_ORGANIZATION ( #75, #265 ) ;
#21 = VERTEX_POINT ( 'NONE', #26 ) ;
#22 = ORIENTED_EDGE ( 'NONE', *, *, #184, .F. ) ;
#23 = PERSON_AND_ORGANIZATION_ROLE ( 'creator' ) ;
#24 = EDGE_LOOP ( 'NONE', ( #22, #204, #351, #25 ) ) ;
#25 = ORIENTED_EDGE ( 'NONE', *, *, #340, .F. ) ;
#26 = CARTESIAN_POINT ( 'NONE',  ( -10.00000000000000000, 0.000000000000000000, 0.000000000000000000 ) ) ;
#27 = LOCAL_TIME ( 11, 3, 3.000000000000000000, #200 ) ;
#28 = APPROVAL_PERSON_ORGANIZATION ( #121, #293, #243 ) ;
#29 = CARTESIAN_POINT ( 'NONE',  ( 0.000000000000000000, 0.000000000000000000, 7.699999999999998401 ) ) ;
#30 = ADVANCED_FACE ( 'NONE', ( #298 ), #117, .T. ) ;
#31 = LINE ( 'NONE', #87, #63 ) ;
#32 = AXIS2_PLACEMENT_3D ( 'NONE', #358, #182, #326 ) ;
#33 = LOCAL_TIME ( 11, 3, 3.000000000000000000, #273 ) ;
#34 = VERTEX_POINT ( 'NONE', #211 ) ;
#35 = DIRECTION ( 'NONE',  ( 1.000000000000000000, 0.000000000000000000, 0.000000000000000000 ) ) ;
#36 = DIRECTION ( 'NONE',  ( 0.000000000000000000, 0.000000000000000000, 1.000000000000000000 ) ) ;
#37 = AXIS2_PLACEMENT_3D ( 'NONE', #9, #278, #190 ) ;
#38 = DIRECTION ( 'NONE',  ( 1.000000000000000000, 0.000000000000000000, 0.000000000000000000 ) ) ;
#39 = EDGE_CURVE ( 'NONE', #34, #134, #295, .T. ) ;
#40 = DIRECTION ( 'NONE',  ( -1.000000000000000000, 1.224646799147353454E-16, 0.000000000000000000 ) ) ;
#41 = FACE_OUTER_BOUND ( 'NONE', #85, .T. ) ;
#42 = DIRECTION ( 'NONE',  ( 0.000000000000000000, 0.000000000000000000, 1.000000000000000000 ) ) ;
#43 = ORIENTED_EDGE ( 'NONE', *, *, #288, .F. ) ;
#44 = AXIS2_PLACEMENT_3D ( 'NONE', #354, #56, #268 ) ;
#45 = ADVANCED_FACE ( 'NONE', ( #94 ), #241, .F. ) ;
#46 = ORIENTED_EDGE ( 'NONE', *, *, #126, .F. ) ;
#47 = EDGE_LOOP ( 'NONE', ( #114, #80, #78, #50 ) ) ;
#48 = EDGE_CURVE ( 'NONE', #294, #168, #72, .T. ) ;
#49 = CARTESIAN_POINT ( 'NONE',  ( 0.000000000000000000, 0.000000000000000000, 107.0000000000000142 ) ) ;
#50 = ORIENTED_EDGE ( 'NONE', *, *, #110, .F. ) ;
#51 = AXIS2_PLACEMENT_3D ( 'NONE', #269, #210, #353 ) ;
#52 = DIRECTION ( 'NONE',  ( 0.000000000000000000, 0.000000000000000000, -1.000000000000000000 ) ) ;
#53 = UNCERTAINTY_MEASURE_WITH_UNIT (LENGTH_MEASURE( 1.000000000000000082E-05 ), #170, 'distance_accuracy_value', 'NONE');
#54 = VERTEX_POINT ( 'NONE', #152 ) ;
#55 = PERSON_AND_ORGANIZATION_ROLE ( 'creator' ) ;
#56 = DIRECTION ( 'NONE',  ( 0.000000000000000000, 0.000000000000000000, 1.000000000000000000 ) ) ;
#57 = FACE_OUTER_BOUND ( 'NONE', #2, .T. ) ;
#58 =( GEOMETRIC_REPRESENTATION_CONTEXT ( 3 ) GLOBAL_UNCERTAINTY_ASSIGNED_CONTEXT ( ( #53 ) ) GLOBAL_UNIT_ASSIGNED_CONTEXT ( ( #170, #261, #283 ) ) REPRESENTATION_CONTEXT ( 'NONE', 'WORKASPACE' ) );
#59 = DIRECTION ( 'NONE',  ( -0.000000000000000000, -0.000000000000000000, -1.000000000000000000 ) ) ;
#60 = APPLICATION_CONTEXT ( 'configuration controlled 3d designs of mechanical parts and assemblies' ) ;
#61 = DIRECTION ( 'NONE',  ( 0.000000000000000000, 0.000000000000000000, 1.000000000000000000 ) ) ;
#62 = DIRECTION ( 'NONE',  ( 1.000000000000000000, 0.000000000000000000, 0.000000000000000000 ) ) ;
#63 = VECTOR ( 'NONE', #324, 1000.000000000000000 ) ;
#64 = CARTESIAN_POINT ( 'NONE',  ( 0.000000000000000000, 0.000000000000000000, 0.000000000000000000 ) ) ;
#65 = DIRECTION ( 'NONE',  ( 1.224646799147353207E-16, 1.000000000000000000, -0.000000000000000000 ) ) ;
#66 = CARTESIAN_POINT ( 'NONE',  ( -6.700000000000001066, 8.205133554287267548E-16, 7.699999999999998401 ) ) ;
#67 = AXIS2_PLACEMENT_3D ( 'NONE', #49, #81, #164 ) ;
#68 = ADVANCED_FACE ( 'NONE', ( #212 ), #91, .T. ) ;
#69 = DIRECTION ( 'NONE',  ( 0.000000000000000000, 0.000000000000000000, 1.000000000000000000 ) ) ;
#70 = EDGE_CURVE ( 'NONE', #165, #237, #247, .T. ) ;
#71 = EDGE_CURVE ( 'NONE', #230, #377, #236, .T. ) ;
#72 = CIRCLE ( 'NONE', #338, 4.099999999999999645 ) ;
#73 = PRODUCT ( 'a847', 'a847', '', ( #109 ) ) ;
#74 = DIRECTION ( 'NONE',  ( 0.000000000000000000, 0.000000000000000000, 1.000000000000000000 ) ) ;
#75 = PERSON ( 'NEURÈENÝ', 'NEURÈENÝ', 'NEURÈENÝ', ('NEURÈENÝ'), ('NEURÈENÝ'), ('NEURÈENÝ') ) ;
#76 = ORIENTED_EDGE ( 'NONE', *, *, #161, .T. ) ;
#77 = PERSON_AND_ORGANIZATION ( #75, #265 ) ;
#78 = ORIENTED_EDGE ( 'NONE', *, *, #126, .T. ) ;
#79 = CARTESIAN_POINT ( 'NONE',  ( 6.700000000000001066, 0.000000000000000000, 7.699999999999998401 ) ) ;
#80 = ORIENTED_EDGE ( 'NONE', *, *, #288, .T. ) ;
#81 = DIRECTION ( 'NONE',  ( 0.000000000000000000, 0.000000000000000000, 1.000000000000000000 ) ) ;
#82 = ORIENTED_EDGE ( 'NONE', *, *, #48, .F. ) ;
#83 = AXIS2_PLACEMENT_3D ( 'NONE', #127, #333, #367 ) ;
#84 = APPROVAL_STATUS ( 'not_yet_approved' ) ;
#85 = EDGE_LOOP ( 'NONE', ( #171, #233 ) ) ;
#86 = DESIGN_CONTEXT ( 'detailed design', #60, 'design' ) ;
#87 = CARTESIAN_POINT ( 'NONE',  ( 10.00000000000000000, 1.224646799147353256E-15, 7.000000000000000000 ) ) ;
#88 = PERSON_AND_ORGANIZATION ( #75, #265 ) ;
#89 = ORIENTED_EDGE ( 'NONE', *, *, #271, .T. ) ;
#90 = CIRCLE ( 'NONE', #136, 10.00000000000000000 ) ;
#91 = CYLINDRICAL_SURFACE ( 'NONE', #51, 6.000000000000000888 ) ;
#92 = DIRECTION ( 'NONE',  ( 1.000000000000000000, 0.000000000000000000, 0.000000000000000000 ) ) ;
#93 = AXIS2_PLACEMENT_3D ( 'NONE', #29, #238, #300 ) ;
#94 = FACE_OUTER_BOUND ( 'NONE', #194, .T. ) ;
#95 = CARTESIAN_POINT ( 'NONE',  ( 0.000000000000000000, 0.000000000000000000, 7.000000000000000000 ) ) ;
#96 = PERSON_AND_ORGANIZATION_ROLE ( 'classification_officer' ) ;
#97 = DIRECTION ( 'NONE',  ( -0.000000000000000000, -0.000000000000000000, -1.000000000000000000 ) ) ;
#98 = DIRECTION ( 'NONE',  ( 0.000000000000000000, 0.000000000000000000, 1.000000000000000000 ) ) ;
#99 = LINE ( 'NONE', #250, #15 ) ;
#100 = EDGE_CURVE ( 'NONE', #54, #199, #31, .T. ) ;
#101 = AXIS2_PLACEMENT_3D ( 'NONE', #120, #147, #267 ) ;
#102 = ADVANCED_FACE ( 'NONE', ( #116 ), #327, .F. ) ;
#103 = DIRECTION ( 'NONE',  ( 0.000000000000000000, 0.000000000000000000, -1.000000000000000000 ) ) ;
#104 = ADVANCED_FACE ( 'NONE', ( #57 ), #178, .T. ) ;
#105 = DIRECTION ( 'NONE',  ( 1.000000000000000000, 0.000000000000000000, -0.000000000000000000 ) ) ;
#106 = ORIENTED_EDGE ( 'NONE', *, *, #5, .F. ) ;
#107 = CIRCLE ( 'NONE', #352, 10.00000000000000000 ) ;
#108 = ORIENTED_EDGE ( 'NONE', *, *, #19, .F. ) ;
#109 = MECHANICAL_CONTEXT ( 'NONE', #17, 'mechanical' ) ;
#110 = EDGE_CURVE ( 'NONE', #237, #294, #335, .T. ) ;
#111 = EDGE_LOOP ( 'NONE', ( #264, #225 ) ) ;
#112 = ORIENTED_EDGE ( 'NONE', *, *, #7, .F. ) ;
#113 = AXIS2_PLACEMENT_3D ( 'NONE', #339, #74, #191 ) ;
#114 = ORIENTED_EDGE ( 'NONE', *, *, #296, .T. ) ;
#115 = CIRCLE ( 'NONE', #93, 6.000000000000000888 ) ;
#116 = FACE_OUTER_BOUND ( 'NONE', #18, .T. ) ;
#117 = CYLINDRICAL_SURFACE ( 'NONE', #166, 10.00000000000000000 ) ;
#118 = CIRCLE ( 'NONE', #37, 4.099999999999999645 ) ;
#119 = VERTEX_POINT ( 'NONE', #187 ) ;
#120 = CARTESIAN_POINT ( 'NONE',  ( 0.000000000000000000, 0.000000000000000000, 7.000000000000000000 ) ) ;
#121 = PERSON_AND_ORGANIZATION ( #75, #265 ) ;
#122 = DIRECTION ( 'NONE',  ( -1.000000000000000000, 0.000000000000000000, 0.000000000000000000 ) ) ;
#123 = CARTESIAN_POINT ( 'NONE',  ( -4.099999999999999645, 0.000000000000000000, 107.0000000000000142 ) ) ;
#124 = AXIS2_PLACEMENT_3D ( 'NONE', #245, #69, #307 ) ;
#125 = CC_DESIGN_APPROVAL ( #293, ( #189 ) ) ;
#126 = EDGE_CURVE ( 'NONE', #168, #294, #118, .T. ) ;
#127 = CARTESIAN_POINT ( 'NONE',  ( 0.000000000000000000, 0.000000000000000000, 7.000000000000000000 ) ) ;
#128 = DIRECTION ( 'NONE',  ( 0.000000000000000000, 0.000000000000000000, 1.000000000000000000 ) ) ;
#129 = FACE_OUTER_BOUND ( 'NONE', #312, .T. ) ;
#130 = CC_DESIGN_PERSON_AND_ORGANIZATION_ASSIGNMENT ( #259, #316, ( #73 ) ) ;
#131 = AXIS2_PLACEMENT_3D ( 'NONE', #14, #305, #183 ) ;
#132 = CALENDAR_DATE ( 2022, 10, 7 ) ;
#133 = CARTESIAN_POINT ( 'NONE',  ( 0.000000000000000000, 0.000000000000000000, 0.000000000000000000 ) ) ;
#134 = VERTEX_POINT ( 'NONE', #337 ) ;
#135 = DIRECTION ( 'NONE',  ( 0.000000000000000000, 0.000000000000000000, 1.000000000000000000 ) ) ;
#136 = AXIS2_PLACEMENT_3D ( 'NONE', #276, #217, #38 ) ;
#137 = DIRECTION ( 'NONE',  ( -0.000000000000000000, -0.000000000000000000, -1.000000000000000000 ) ) ;
#138 = ORIENTED_EDGE ( 'NONE', *, *, #5, .T. ) ;
#139 = CARTESIAN_POINT ( 'NONE',  ( 0.000000000000000000, 0.000000000000000000, 107.0000000000000142 ) ) ;
#140 = ORIENTED_EDGE ( 'NONE', *, *, #71, .T. ) ;
#141 = ORIENTED_EDGE ( 'NONE', *, *, #184, .T. ) ;
#142 = APPROVAL ( #84, 'NEURÈENÝ' ) ;
#143 = AXIS2_PLACEMENT_3D ( 'NONE', #155, #97, #122 ) ;
#144 = LOCAL_TIME ( 11, 3, 3.000000000000000000, #325 ) ;
#145 = DIRECTION ( 'NONE',  ( -0.000000000000000000, -0.000000000000000000, -1.000000000000000000 ) ) ;
#146 = DATE_AND_TIME ( #291, #144 ) ;
#147 = DIRECTION ( 'NONE',  ( -0.000000000000000000, -0.000000000000000000, -1.000000000000000000 ) ) ;
#148 = EDGE_LOOP ( 'NONE', ( #82, #46 ) ) ;
#149 = CC_DESIGN_PERSON_AND_ORGANIZATION_ASSIGNMENT ( #322, #96, ( #189 ) ) ;
#150 = EDGE_CURVE ( 'NONE', #375, #230, #258, .T. ) ;
#151 = CIRCLE ( 'NONE', #113, 4.099999999999999645 ) ;
#152 = CARTESIAN_POINT ( 'NONE',  ( 10.00000000000000000, 1.224646799147353256E-15, 7.000000000000000000 ) ) ;
#153 = CLOSED_SHELL ( 'NONE', ( #323, #102, #162, #30, #104, #330, #215, #68, #299, #45, #222 ) ) ;
#154 = CARTESIAN_POINT ( 'NONE',  ( 0.000000000000000000, 0.000000000000000000, 7.000000000000000000 ) ) ;
#155 = CARTESIAN_POINT ( 'NONE',  ( 0.000000000000000000, 0.000000000000000000, 107.0000000000000142 ) ) ;
#156 = CYLINDRICAL_SURFACE ( 'NONE', #131, 4.099999999999999645 ) ;
#157 = AXIS2_PLACEMENT_3D ( 'NONE', #360, #36, #219 ) ;
#158 = CC_DESIGN_DATE_AND_TIME_ASSIGNMENT ( #146, #1, ( #189 ) ) ;
#159 = CARTESIAN_POINT ( 'NONE',  ( -6.700000000000001066, 8.205133554287267548E-16, 6.999999999999999112 ) ) ;
#160 = DIRECTION ( 'NONE',  ( 0.000000000000000000, 0.000000000000000000, -1.000000000000000000 ) ) ;
#161 = EDGE_CURVE ( 'NONE', #134, #375, #355, .T. ) ;
#162 = ADVANCED_FACE ( 'NONE', ( #363 ), #302, .T. ) ;
#163 = PLANE ( 'NONE',  #228 ) ;
#164 = DIRECTION ( 'NONE',  ( 1.000000000000000000, 0.000000000000000000, 0.000000000000000000 ) ) ;
#165 = VERTEX_POINT ( 'NONE', #274 ) ;
#166 = AXIS2_PLACEMENT_3D ( 'NONE', #272, #208, #235 ) ;
#167 = FACE_OUTER_BOUND ( 'NONE', #315, .T. ) ;
#168 = VERTEX_POINT ( 'NONE', #244 ) ;
#169 = EDGE_CURVE ( 'NONE', #199, #21, #90, .T. ) ;
#170 =( LENGTH_UNIT ( ) NAMED_UNIT ( * ) SI_UNIT ( .MILLI., .METRE. ) );
#171 = ORIENTED_EDGE ( 'NONE', *, *, #19, .T. ) ;
#172 = DATE_AND_TIME ( #203, #27 ) ;
#173 = ORIENTED_EDGE ( 'NONE', *, *, #70, .T. ) ;
#174 = ORIENTED_EDGE ( 'NONE', *, *, #296, .F. ) ;
#175 = PERSON_AND_ORGANIZATION ( #75, #265 ) ;
#176 = DIRECTION ( 'NONE',  ( -0.000000000000000000, -0.000000000000000000, -1.000000000000000000 ) ) ;
#177 = CC_DESIGN_APPROVAL ( #142, ( #308 ) ) ;
#178 = CYLINDRICAL_SURFACE ( 'NONE', #101, 10.00000000000000000 ) ;
#179 = CARTESIAN_POINT ( 'NONE',  ( 6.000000000000000888, 7.347880794884120722E-16, 107.0000000000000142 ) ) ;
#180 = DIRECTION ( 'NONE',  ( 1.000000000000000000, 0.000000000000000000, 0.000000000000000000 ) ) ;
#181 = AXIS2_PLACEMENT_3D ( 'NONE', #95, #128, #35 ) ;
#182 = DIRECTION ( 'NONE',  ( 0.000000000000000000, 0.000000000000000000, 1.000000000000000000 ) ) ;
#183 = DIRECTION ( 'NONE',  ( -1.000000000000000000, 0.000000000000000000, 0.000000000000000000 ) ) ;
#184 = EDGE_CURVE ( 'NONE', #54, #119, #318, .T. ) ;
#185 = PRODUCT_RELATED_PRODUCT_CATEGORY ( 'detail', '', ( #73 ) ) ;
#186 = CARTESIAN_POINT ( 'NONE',  ( 10.00000000000000000, 1.224646799147353256E-15, 0.000000000000000000 ) ) ;
#187 = CARTESIAN_POINT ( 'NONE',  ( -10.00000000000000000, 0.000000000000000000, 7.000000000000000000 ) ) ;
#188 = AXIS2_PLACEMENT_3D ( 'NONE', #79, #373, #52 ) ;
#189 = SECURITY_CLASSIFICATION ( '', '', #334 ) ;
#190 = DIRECTION ( 'NONE',  ( 1.000000000000000000, 0.000000000000000000, 0.000000000000000000 ) ) ;
#191 = DIRECTION ( 'NONE',  ( 1.000000000000000000, 0.000000000000000000, 0.000000000000000000 ) ) ;
#192 = AXIS2_PLACEMENT_3D ( 'NONE', #4, #176, #297 ) ;
#193 = CARTESIAN_POINT ( 'NONE',  ( 0.000000000000000000, 0.000000000000000000, 7.000000000000000000 ) ) ;
#194 = EDGE_LOOP ( 'NONE', ( #314, #3, #290, #260 ) ) ;
#195 = AXIS2_PLACEMENT_3D ( 'NONE', #133, #135, #254 ) ;
#196 = DIRECTION ( 'NONE',  ( -1.000000000000000000, 0.000000000000000000, 0.000000000000000000 ) ) ;
#197 = ORIENTED_EDGE ( 'NONE', *, *, #48, .T. ) ;
#198 = AXIS2_PLACEMENT_3D ( 'NONE', #154, #357, #180 ) ;
#199 = VERTEX_POINT ( 'NONE', #186 ) ;
#200 = COORDINATED_UNIVERSAL_TIME_OFFSET ( 1, 0, .AHEAD. ) ;
#201 = ORIENTED_EDGE ( 'NONE', *, *, #368, .F. ) ;
#202 = PRODUCT_DEFINITION_SHAPE ( 'NONE', 'NONE',  #308 ) ;
#203 = CALENDAR_DATE ( 2022, 10, 7 ) ;
#204 = ORIENTED_EDGE ( 'NONE', *, *, #100, .T. ) ;
#205 = DATE_AND_TIME ( #246, #209 ) ;
#206 = APPROVAL_STATUS ( 'not_yet_approved' ) ;
#207 = CC_DESIGN_PERSON_AND_ORGANIZATION_ASSIGNMENT ( #88, #361, ( #11 ) ) ;
#208 = DIRECTION ( 'NONE',  ( -0.000000000000000000, -0.000000000000000000, -1.000000000000000000 ) ) ;
#209 = LOCAL_TIME ( 11, 3, 3.000000000000000000, #376 ) ;
#210 = DIRECTION ( 'NONE',  ( -0.000000000000000000, -0.000000000000000000, -1.000000000000000000 ) ) ;
#211 = CARTESIAN_POINT ( 'NONE',  ( 6.000000000000000888, 7.347880794884120722E-16, 107.0000000000000142 ) ) ;
#212 = FACE_OUTER_BOUND ( 'NONE', #348, .T. ) ;
#213 = CIRCLE ( 'NONE', #188, 0.7000000000000000666 ) ;
#214 = DIRECTION ( 'NONE',  ( 0.000000000000000000, 0.000000000000000000, 1.000000000000000000 ) ) ;
#215 = ADVANCED_FACE ( 'NONE', ( #13, #304 ), #248, .F. ) ;
#216 = VECTOR ( 'NONE', #59, 1000.000000000000000 ) ;
#217 = DIRECTION ( 'NONE',  ( 0.000000000000000000, 0.000000000000000000, 1.000000000000000000 ) ) ;
#218 = CALENDAR_DATE ( 2022, 10, 7 ) ;
#219 = DIRECTION ( 'NONE',  ( 1.000000000000000000, 0.000000000000000000, -0.000000000000000000 ) ) ;
#220 = CARTESIAN_POINT ( 'NONE',  ( -6.000000000000000888, 0.000000000000000000, 107.0000000000000142 ) ) ;
#221 = AXIS2_PLACEMENT_3D ( 'NONE', #66, #65, #40 ) ;
#222 = ADVANCED_FACE ( 'NONE', ( #129 ), #156, .F. ) ;
#223 = CARTESIAN_POINT ( 'NONE',  ( -4.099999999999999645, 0.000000000000000000, 0.000000000000000000 ) ) ;
#224 = PERSON_AND_ORGANIZATION ( #75, #265 ) ;
#225 = ORIENTED_EDGE ( 'NONE', *, *, #169, .F. ) ;
#226 = CC_DESIGN_PERSON_AND_ORGANIZATION_ASSIGNMENT ( #77, #23, ( #308 ) ) ;
#227 = CARTESIAN_POINT ( 'NONE',  ( 6.700000000000001066, 0.000000000000000000, 6.999999999999999112 ) ) ;
#228 = AXIS2_PLACEMENT_3D ( 'NONE', #6, #214, #105 ) ;
#229 = CYLINDRICAL_SURFACE ( 'NONE', #366, 4.099999999999999645 ) ;
#230 = VERTEX_POINT ( 'NONE', #159 ) ;
#231 = APPROVAL_ROLE ( '' ) ;
#232 = ORIENTED_EDGE ( 'NONE', *, *, #39, .F. ) ;
#233 = ORIENTED_EDGE ( 'NONE', *, *, #379, .T. ) ;
#234 = CC_DESIGN_SECURITY_CLASSIFICATION ( #189, ( #11 ) ) ;
#235 = DIRECTION ( 'NONE',  ( -1.000000000000000000, 0.000000000000000000, 0.000000000000000000 ) ) ;
#236 = CIRCLE ( 'NONE', #192, 6.700000000000001066 ) ;
#237 = VERTEX_POINT ( 'NONE', #12 ) ;
#238 = DIRECTION ( 'NONE',  ( 0.000000000000000000, 0.000000000000000000, 1.000000000000000000 ) ) ;
#239 = CIRCLE ( 'NONE', #67, 6.000000000000000888 ) ;
#240 = ORIENTED_EDGE ( 'NONE', *, *, #340, .T. ) ;
#241 = TOROIDAL_SURFACE ( 'NONE', #44, 6.700000000000001066, 0.6999999999999999556 ) ;
#242 = CARTESIAN_POINT ( 'NONE',  ( 0.000000000000000000, 0.000000000000000000, 107.0000000000000142 ) ) ;
#243 = APPROVAL_ROLE ( '' ) ;
#244 = CARTESIAN_POINT ( 'NONE',  ( 4.099999999999999645, 5.021051876504146399E-16, 0.000000000000000000 ) ) ;
#245 = CARTESIAN_POINT ( 'NONE',  ( 0.000000000000000000, 0.000000000000000000, 7.699999999999998401 ) ) ;
#246 = CALENDAR_DATE ( 2022, 10, 7 ) ;
#247 = CIRCLE ( 'NONE', #270, 4.099999999999999645 ) ;
#248 = PLANE ( 'NONE',  #157 ) ;
#249 = EDGE_CURVE ( 'NONE', #262, #375, #331, .T. ) ;
#250 = CARTESIAN_POINT ( 'NONE',  ( 4.099999999999999645, 5.021051876504146399E-16, 107.0000000000000142 ) ) ;
#251 = VECTOR ( 'NONE', #160, 1000.000000000000000 ) ;
#252 = ADVANCED_BREP_SHAPE_REPRESENTATION ( 'a847', ( #319, #195 ), #58 ) ;
#253 = DATE_AND_TIME ( #132, #275 ) ;
#254 = DIRECTION ( 'NONE',  ( 1.000000000000000000, 0.000000000000000000, 0.000000000000000000 ) ) ;
#255 = ORIENTED_EDGE ( 'NONE', *, *, #100, .F. ) ;
#256 = CARTESIAN_POINT ( 'NONE',  ( -10.00000000000000000, 0.000000000000000000, 7.000000000000000000 ) ) ;
#257 = EDGE_LOOP ( 'NONE', ( #174, #286 ) ) ;
#258 = CIRCLE ( 'NONE', #221, 0.7000000000000000666 ) ;
#259 = PERSON_AND_ORGANIZATION ( #75, #265 ) ;
#260 = ORIENTED_EDGE ( 'NONE', *, *, #71, .F. ) ;
#261 =( NAMED_UNIT ( * ) PLANE_ANGLE_UNIT ( ) SI_UNIT ( $, .RADIAN. ) );
#262 = VERTEX_POINT ( 'NONE', #220 ) ;
#263 = SHAPE_DEFINITION_REPRESENTATION ( #202, #252 ) ;
#264 = ORIENTED_EDGE ( 'NONE', *, *, #271, .F. ) ;
#265 = ORGANIZATION ( 'NEURÈENÝ', 'NEURÈENÝ', '' ) ;
#266 = DIRECTION ( 'NONE',  ( 1.000000000000000000, 0.000000000000000000, 0.000000000000000000 ) ) ;
#267 = DIRECTION ( 'NONE',  ( -1.000000000000000000, 0.000000000000000000, 0.000000000000000000 ) ) ;
#268 = DIRECTION ( 'NONE',  ( 1.000000000000000000, 0.000000000000000000, 0.000000000000000000 ) ) ;
#269 = CARTESIAN_POINT ( 'NONE',  ( 0.000000000000000000, 0.000000000000000000, 107.0000000000000142 ) ) ;
#270 = AXIS2_PLACEMENT_3D ( 'NONE', #328, #381, #62 ) ;
#271 = EDGE_CURVE ( 'NONE', #21, #199, #107, .T. ) ;
#272 = CARTESIAN_POINT ( 'NONE',  ( 0.000000000000000000, 0.000000000000000000, 7.000000000000000000 ) ) ;
#273 = COORDINATED_UNIVERSAL_TIME_OFFSET ( 1, 0, .AHEAD. ) ;
#274 = CARTESIAN_POINT ( 'NONE',  ( 4.099999999999999645, 5.021051876504146399E-16, 107.0000000000000142 ) ) ;
#275 = LOCAL_TIME ( 11, 3, 3.000000000000000000, #289 ) ;
#276 = CARTESIAN_POINT ( 'NONE',  ( 0.000000000000000000, 0.000000000000000000, 0.000000000000000000 ) ) ;
#277 = DIRECTION ( 'NONE',  ( 1.000000000000000000, 0.000000000000000000, 0.000000000000000000 ) ) ;
#278 = DIRECTION ( 'NONE',  ( -0.000000000000000000, -0.000000000000000000, -1.000000000000000000 ) ) ;
#279 = APPROVAL_DATE_TIME ( #172, #142 ) ;
#280 = DIRECTION ( 'NONE',  ( 1.000000000000000000, 0.000000000000000000, -0.000000000000000000 ) ) ;
#281 = EDGE_CURVE ( 'NONE', #119, #54, #336, .T. ) ;
#282 = ORIENTED_EDGE ( 'NONE', *, *, #379, .F. ) ;
#283 =( NAMED_UNIT ( * ) SI_UNIT ( $, .STERADIAN. ) SOLID_ANGLE_UNIT ( ) );
#284 = EDGE_LOOP ( 'NONE', ( #321, #140 ) ) ;
#285 = CARTESIAN_POINT ( 'NONE',  ( -6.000000000000000888, 0.000000000000000000, 7.699999999999998401 ) ) ;
#286 = ORIENTED_EDGE ( 'NONE', *, *, #70, .F. ) ;
#287 = VECTOR ( 'NONE', #137, 1000.000000000000000 ) ;
#288 = EDGE_CURVE ( 'NONE', #165, #168, #99, .T. ) ;
#289 = COORDINATED_UNIVERSAL_TIME_OFFSET ( 1, 0, .AHEAD. ) ;
#290 = ORIENTED_EDGE ( 'NONE', *, *, #368, .T. ) ;
#291 = CALENDAR_DATE ( 2022, 10, 7 ) ;
#292 = EDGE_LOOP ( 'NONE', ( #282, #345, #76, #372 ) ) ;
#293 = APPROVAL ( #8, 'NEURÈENÝ' ) ;
#294 = VERTEX_POINT ( 'NONE', #223 ) ;
#295 = LINE ( 'NONE', #179, #216 ) ;
#296 = EDGE_CURVE ( 'NONE', #237, #165, #151, .T. ) ;
#297 = DIRECTION ( 'NONE',  ( 1.000000000000000000, 0.000000000000000000, 0.000000000000000000 ) ) ;
#298 = FACE_OUTER_BOUND ( 'NONE', #24, .T. ) ;
#299 = ADVANCED_FACE ( 'NONE', ( #309, #41 ), #163, .T. ) ;
#300 = DIRECTION ( 'NONE',  ( 1.000000000000000000, 0.000000000000000000, 0.000000000000000000 ) ) ;
#301 = APPROVAL ( #206, 'NEURÈENÝ' ) ;
#302 = CYLINDRICAL_SURFACE ( 'NONE', #143, 6.000000000000000888 ) ;
#303 = DATE_AND_TIME ( #218, #33 ) ;
#304 = FACE_OUTER_BOUND ( 'NONE', #111, .T. ) ;
#305 = DIRECTION ( 'NONE',  ( 0.000000000000000000, 0.000000000000000000, -1.000000000000000000 ) ) ;
#306 = AXIS2_PLACEMENT_3D ( 'NONE', #242, #61, #92 ) ;
#307 = DIRECTION ( 'NONE',  ( 1.000000000000000000, 0.000000000000000000, 0.000000000000000000 ) ) ;
#308 = PRODUCT_DEFINITION ( 'NEZNÁMÝ', '', #11, #86 ) ;
#309 = FACE_BOUND ( 'NONE', #257, .T. ) ;
#310 = PLANE ( 'NONE',  #344 ) ;
#311 = APPROVAL_PERSON_ORGANIZATION ( #20, #142, #231 ) ;
#312 = EDGE_LOOP ( 'NONE', ( #43, #173, #374, #197 ) ) ;
#313 = FACE_OUTER_BOUND ( 'NONE', #47, .T. ) ;
#314 = ORIENTED_EDGE ( 'NONE', *, *, #150, .F. ) ;
#315 = EDGE_LOOP ( 'NONE', ( #370, #141 ) ) ;
#316 = PERSON_AND_ORGANIZATION_ROLE ( 'design_owner' ) ;
#317 = ORIENTED_EDGE ( 'NONE', *, *, #150, .T. ) ;
#318 = CIRCLE ( 'NONE', #83, 10.00000000000000000 ) ;
#319 = MANIFOLD_SOLID_BREP ( 'Odebrat vysunutím3', #153 ) ;
#320 = FACE_BOUND ( 'NONE', #284, .T. ) ;
#321 = ORIENTED_EDGE ( 'NONE', *, *, #7, .T. ) ;
#322 = PERSON_AND_ORGANIZATION ( #75, #265 ) ;
#323 = ADVANCED_FACE ( 'NONE', ( #313 ), #229, .F. ) ;
#324 = DIRECTION ( 'NONE',  ( -0.000000000000000000, -0.000000000000000000, -1.000000000000000000 ) ) ;
#325 = COORDINATED_UNIVERSAL_TIME_OFFSET ( 1, 0, .AHEAD. ) ;
#326 = DIRECTION ( 'NONE',  ( 1.000000000000000000, 0.000000000000000000, 0.000000000000000000 ) ) ;
#327 = TOROIDAL_SURFACE ( 'NONE', #32, 6.700000000000001066, 0.6999999999999999556 ) ;
#328 = CARTESIAN_POINT ( 'NONE',  ( 0.000000000000000000, 0.000000000000000000, 107.0000000000000142 ) ) ;
#329 = CARTESIAN_POINT ( 'NONE',  ( 0.000000000000000000, 0.000000000000000000, 0.000000000000000000 ) ) ;
#330 = ADVANCED_FACE ( 'NONE', ( #320, #167 ), #310, .T. ) ;
#331 = LINE ( 'NONE', #364, #362 ) ;
#332 = CIRCLE ( 'NONE', #198, 6.700000000000001066 ) ;
#333 = DIRECTION ( 'NONE',  ( 0.000000000000000000, 0.000000000000000000, 1.000000000000000000 ) ) ;
#334 = SECURITY_CLASSIFICATION_LEVEL ( 'unclassified' ) ;
#335 = LINE ( 'NONE', #123, #251 ) ;
#336 = CIRCLE ( 'NONE', #181, 10.00000000000000000 ) ;
#337 = CARTESIAN_POINT ( 'NONE',  ( 6.000000000000000888, 7.347880794884120722E-16, 7.699999999999998401 ) ) ;
#338 = AXIS2_PLACEMENT_3D ( 'NONE', #329, #145, #266 ) ;
#339 = CARTESIAN_POINT ( 'NONE',  ( 0.000000000000000000, 0.000000000000000000, 107.0000000000000142 ) ) ;
#340 = EDGE_CURVE ( 'NONE', #119, #21, #16, .T. ) ;
#341 = ORIENTED_EDGE ( 'NONE', *, *, #281, .F. ) ;
#342 = CC_DESIGN_PERSON_AND_ORGANIZATION_ASSIGNMENT ( #175, #55, ( #11 ) ) ;
#343 = APPLICATION_PROTOCOL_DEFINITION ( 'international standard', 'config_control_design', 1994, #60 ) ;
#344 = AXIS2_PLACEMENT_3D ( 'NONE', #193, #42, #280 ) ;
#345 = ORIENTED_EDGE ( 'NONE', *, *, #39, .T. ) ;
#346 = DIRECTION ( 'NONE',  ( 0.000000000000000000, 0.000000000000000000, -1.000000000000000000 ) ) ;
#347 = CIRCLE ( 'NONE', #306, 6.000000000000000888 ) ;
#348 = EDGE_LOOP ( 'NONE', ( #232, #108, #349, #138 ) ) ;
#349 = ORIENTED_EDGE ( 'NONE', *, *, #249, .T. ) ;
#350 = APPLICATION_PROTOCOL_DEFINITION ( 'international standard', 'config_control_design', 1994, #17 ) ;
#351 = ORIENTED_EDGE ( 'NONE', *, *, #169, .T. ) ;
#352 = AXIS2_PLACEMENT_3D ( 'NONE', #64, #98, #277 ) ;
#353 = DIRECTION ( 'NONE',  ( -1.000000000000000000, 0.000000000000000000, 0.000000000000000000 ) ) ;
#354 = CARTESIAN_POINT ( 'NONE',  ( 0.000000000000000000, 0.000000000000000000, 7.699999999999998401 ) ) ;
#355 = CIRCLE ( 'NONE', #124, 6.000000000000000888 ) ;
#356 = CC_DESIGN_APPROVAL ( #301, ( #11 ) ) ;
#357 = DIRECTION ( 'NONE',  ( -0.000000000000000000, -0.000000000000000000, -1.000000000000000000 ) ) ;
#358 = CARTESIAN_POINT ( 'NONE',  ( 0.000000000000000000, 0.000000000000000000, 7.699999999999998401 ) ) ;
#359 = APPROVAL_DATE_TIME ( #303, #293 ) ;
#360 = CARTESIAN_POINT ( 'NONE',  ( 0.000000000000000000, 0.000000000000000000, 0.000000000000000000 ) ) ;
#361 = PERSON_AND_ORGANIZATION_ROLE ( 'design_supplier' ) ;
#362 = VECTOR ( 'NONE', #365, 1000.000000000000000 ) ;
#363 = FACE_OUTER_BOUND ( 'NONE', #292, .T. ) ;
#364 = CARTESIAN_POINT ( 'NONE',  ( -6.000000000000000888, 0.000000000000000000, 107.0000000000000142 ) ) ;
#365 = DIRECTION ( 'NONE',  ( -0.000000000000000000, -0.000000000000000000, -1.000000000000000000 ) ) ;
#366 = AXIS2_PLACEMENT_3D ( 'NONE', #139, #346, #196 ) ;
#367 = DIRECTION ( 'NONE',  ( 1.000000000000000000, 0.000000000000000000, 0.000000000000000000 ) ) ;
#368 = EDGE_CURVE ( 'NONE', #134, #377, #213, .T. ) ;
#369 = DATE_TIME_ROLE ( 'creation_date' ) ;
#370 = ORIENTED_EDGE ( 'NONE', *, *, #281, .T. ) ;
#371 = APPROVAL_PERSON_ORGANIZATION ( #224, #301, #380 ) ;
#372 = ORIENTED_EDGE ( 'NONE', *, *, #249, .F. ) ;
#373 = DIRECTION ( 'NONE',  ( 0.000000000000000000, -1.000000000000000000, 0.000000000000000000 ) ) ;
#374 = ORIENTED_EDGE ( 'NONE', *, *, #110, .T. ) ;
#375 = VERTEX_POINT ( 'NONE', #285 ) ;
#376 = COORDINATED_UNIVERSAL_TIME_OFFSET ( 1, 0, .AHEAD. ) ;
#377 = VERTEX_POINT ( 'NONE', #227 ) ;
#378 = CC_DESIGN_DATE_AND_TIME_ASSIGNMENT ( #253, #369, ( #308 ) ) ;
#379 = EDGE_CURVE ( 'NONE', #34, #262, #239, .T. ) ;
#380 = APPROVAL_ROLE ( '' ) ;
#381 = DIRECTION ( 'NONE',  ( 0.000000000000000000, 0.000000000000000000, 1.000000000000000000 ) ) ;
ENDSEC;
END-ISO-10303-21;
