ISO-10303-21;
HEADER;
FILE_DESCRIPTION (( 'STEP AP203' ),
    '1' );
FILE_NAME ('04f7.STEP',
    '2022-07-10T09:18:38',
    ( '' ),
    ( '' ),
    'SwSTEP 2.0',
    'SolidWorks 2019',
    '' );
FILE_SCHEMA (( 'CONFIG_CONTROL_DESIGN' ));
ENDSEC;

DATA;
#1 = DATE_TIME_ROLE ( 'classification_date' ) ;
#2 = CARTESIAN_POINT ( 'NONE',  ( 0.000000000000000000, 0.000000000000000000, 128.0000000000000000 ) ) ;
#3 = CC_DESIGN_DATE_AND_TIME_ASSIGNMENT ( #332, #29, ( #335 ) ) ;
#4 = MECHANICAL_CONTEXT ( 'NONE', #69, 'mechanical' ) ;
#5 = AXIS2_PLACEMENT_3D ( 'NONE', #54, #325, #288 ) ;
#6 = CARTESIAN_POINT ( 'NONE',  ( 0.000000000000000000, 0.000000000000000000, 3.299999999999997158 ) ) ;
#7 = ADVANCED_FACE ( 'NONE', ( #202 ), #321, .T. ) ;
#8 = CARTESIAN_POINT ( 'NONE',  ( 5.000000000000000000, 6.123233995736766282E-16, 3.000000000000000000 ) ) ;
#9 = VECTOR ( 'NONE', #94, 1000.000000000000000 ) ;
#10 = EDGE_LOOP ( 'NONE', ( #367, #373 ) ) ;
#11 = AXIS2_PLACEMENT_3D ( 'NONE', #203, #262, #353 ) ;
#12 = CARTESIAN_POINT ( 'NONE',  ( -2.500000000000000000, 0.000000000000000000, 128.0000000000000000 ) ) ;
#13 = EDGE_LOOP ( 'NONE', ( #234, #134 ) ) ;
#14 = CARTESIAN_POINT ( 'NONE',  ( -2.799999999999999822, 3.429011037612589276E-16, 2.999999999999998668 ) ) ;
#15 = ADVANCED_FACE ( 'NONE', ( #318 ), #141, .T. ) ;
#16 = DIRECTION ( 'NONE',  ( 0.000000000000000000, 0.000000000000000000, 1.000000000000000000 ) ) ;
#17 = VERTEX_POINT ( 'NONE', #239 ) ;
#18 = SECURITY_CLASSIFICATION ( '', '', #270 ) ;
#19 = CARTESIAN_POINT ( 'NONE',  ( -2.500000000000000000, 0.000000000000000000, 3.299999999999997158 ) ) ;
#20 = EDGE_CURVE ( 'NONE', #173, #252, #274, .T. ) ;
#21 = DIRECTION ( 'NONE',  ( 0.000000000000000000, 0.000000000000000000, 1.000000000000000000 ) ) ;
#22 = DIRECTION ( 'NONE',  ( -1.000000000000000000, 1.224646799147353207E-16, 0.000000000000000000 ) ) ;
#23 = VERTEX_POINT ( 'NONE', #19 ) ;
#24 = AXIS2_PLACEMENT_3D ( 'NONE', #244, #359, #153 ) ;
#25 =( NAMED_UNIT ( * ) SI_UNIT ( $, .STERADIAN. ) SOLID_ANGLE_UNIT ( ) );
#26 = EDGE_LOOP ( 'NONE', ( #77, #142 ) ) ;
#27 = AXIS2_PLACEMENT_3D ( 'NONE', #122, #150, #178 ) ;
#28 = AXIS2_PLACEMENT_3D ( 'NONE', #309, #313, #256 ) ;
#29 = DATE_TIME_ROLE ( 'creation_date' ) ;
#30 = ADVANCED_FACE ( 'NONE', ( #139, #265 ), #147, .T. ) ;
#31 = DIRECTION ( 'NONE',  ( -1.000000000000000000, 0.000000000000000000, 0.000000000000000000 ) ) ;
#32 = CALENDAR_DATE ( 2022, 10, 7 ) ;
#33 = DIRECTION ( 'NONE',  ( 0.000000000000000000, 0.000000000000000000, 1.000000000000000000 ) ) ;
#34 = CALENDAR_DATE ( 2022, 10, 7 ) ;
#35 = CIRCLE ( 'NONE', #27, 2.799999999999999822 ) ;
#36 = CARTESIAN_POINT ( 'NONE',  ( 0.000000000000000000, 0.000000000000000000, 3.000000000000000000 ) ) ;
#37 = AXIS2_PLACEMENT_3D ( 'NONE', #311, #168, #186 ) ;
#38 = ORIENTED_EDGE ( 'NONE', *, *, #20, .T. ) ;
#39 = CARTESIAN_POINT ( 'NONE',  ( 0.000000000000000000, 0.000000000000000000, 0.000000000000000000 ) ) ;
#40 = APPROVAL_PERSON_ORGANIZATION ( #117, #137, #149 ) ;
#41 = EDGE_CURVE ( 'NONE', #70, #192, #151, .T. ) ;
#42 = EDGE_LOOP ( 'NONE', ( #372, #286, #238, #131 ) ) ;
#43 = PRODUCT_DEFINITION_SHAPE ( 'NONE', 'NONE',  #335 ) ;
#44 = ORIENTED_EDGE ( 'NONE', *, *, #375, .T. ) ;
#45 = CARTESIAN_POINT ( 'NONE',  ( 0.000000000000000000, 0.000000000000000000, 0.000000000000000000 ) ) ;
#46 = AXIS2_PLACEMENT_3D ( 'NONE', #273, #59, #31 ) ;
#47 = CC_DESIGN_PERSON_AND_ORGANIZATION_ASSIGNMENT ( #300, #266, ( #335 ) ) ;
#48 = AXIS2_PLACEMENT_3D ( 'NONE', #362, #95, #152 ) ;
#49 = CARTESIAN_POINT ( 'NONE',  ( 2.500000000000000000, 3.061616997868383141E-16, 128.0000000000000000 ) ) ;
#50 = CARTESIAN_POINT ( 'NONE',  ( 0.000000000000000000, 0.000000000000000000, 3.000000000000000000 ) ) ;
#51 = LINE ( 'NONE', #49, #269 ) ;
#52 = DIRECTION ( 'NONE',  ( 1.000000000000000000, 0.000000000000000000, 0.000000000000000000 ) ) ;
#53 = AXIS2_PLACEMENT_3D ( 'NONE', #258, #261, #323 ) ;
#54 = CARTESIAN_POINT ( 'NONE',  ( 0.000000000000000000, 0.000000000000000000, 128.0000000000000000 ) ) ;
#55 = ADVANCED_FACE ( 'NONE', ( #293 ), #223, .F. ) ;
#56 = APPROVAL_STATUS ( 'not_yet_approved' ) ;
#57 = DIRECTION ( 'NONE',  ( 0.000000000000000000, 0.000000000000000000, -1.000000000000000000 ) ) ;
#58 = PERSON_AND_ORGANIZATION_ROLE ( 'creator' ) ;
#59 = DIRECTION ( 'NONE',  ( -0.000000000000000000, -0.000000000000000000, -1.000000000000000000 ) ) ;
#60 = EDGE_CURVE ( 'NONE', #135, #23, #66, .T. ) ;
#61 = ORGANIZATION ( 'NEURÈENÝ', 'NEURÈENÝ', '' ) ;
#62 = CARTESIAN_POINT ( 'NONE',  ( -1.250000000000000000, 0.000000000000000000, 0.000000000000000000 ) ) ;
#63 = APPLICATION_PROTOCOL_DEFINITION ( 'international standard', 'config_control_design', 1994, #312 ) ;
#64 = CARTESIAN_POINT ( 'NONE',  ( 1.250000000000000000, 1.530808498934191571E-16, 128.0000000000000000 ) ) ;
#65 = DIRECTION ( 'NONE',  ( 1.000000000000000000, 0.000000000000000000, -0.000000000000000000 ) ) ;
#66 = CIRCLE ( 'NONE', #380, 2.500000000000000000 ) ;
#67 = APPROVAL_PERSON_ORGANIZATION ( #123, #241, #201 ) ;
#68 = LINE ( 'NONE', #8, #350 ) ;
#69 = APPLICATION_CONTEXT ( 'configuration controlled 3d designs of mechanical parts and assemblies' ) ;
#70 = VERTEX_POINT ( 'NONE', #62 ) ;
#71 = EDGE_CURVE ( 'NONE', #108, #17, #144, .T. ) ;
#72 = CARTESIAN_POINT ( 'NONE',  ( 0.000000000000000000, 0.000000000000000000, 128.0000000000000000 ) ) ;
#73 = ORIENTED_EDGE ( 'NONE', *, *, #364, .T. ) ;
#74 = CIRCLE ( 'NONE', #285, 2.500000000000000000 ) ;
#75 = EDGE_LOOP ( 'NONE', ( #255, #369, #278, #103 ) ) ;
#76 = CARTESIAN_POINT ( 'NONE',  ( -2.799999999999999822, 3.429011037612588783E-16, 3.299999999999997158 ) ) ;
#77 = ORIENTED_EDGE ( 'NONE', *, *, #71, .T. ) ;
#78 = CARTESIAN_POINT ( 'NONE',  ( 0.000000000000000000, 0.000000000000000000, 128.0000000000000000 ) ) ;
#79 = ORIENTED_EDGE ( 'NONE', *, *, #115, .T. ) ;
#80 = LOCAL_TIME ( 11, 18, 38.00000000000000000, #182 ) ;
#81 = ORIENTED_EDGE ( 'NONE', *, *, #41, .T. ) ;
#82 = ADVANCED_FACE ( 'NONE', ( #336 ), #272, .T. ) ;
#83 = ORIENTED_EDGE ( 'NONE', *, *, #158, .T. ) ;
#84 = AXIS2_PLACEMENT_3D ( 'NONE', #344, #248, #220 ) ;
#85 = VERTEX_POINT ( 'NONE', #64 ) ;
#86 = DATE_AND_TIME ( #295, #113 ) ;
#87 = DIRECTION ( 'NONE',  ( 0.000000000000000000, 0.000000000000000000, 1.000000000000000000 ) ) ;
#88 = CC_DESIGN_PERSON_AND_ORGANIZATION_ASSIGNMENT ( #92, #302, ( #105 ) ) ;
#89 = PERSON_AND_ORGANIZATION_ROLE ( 'classification_officer' ) ;
#90 = DIRECTION ( 'NONE',  ( 0.000000000000000000, 0.000000000000000000, 1.000000000000000000 ) ) ;
#91 = AXIS2_PLACEMENT_3D ( 'NONE', #45, #177, #172 ) ;
#92 = PERSON_AND_ORGANIZATION ( #289, #61 ) ;
#93 = CIRCLE ( 'NONE', #250, 2.799999999999999822 ) ;
#94 = DIRECTION ( 'NONE',  ( 0.000000000000000000, 0.000000000000000000, -1.000000000000000000 ) ) ;
#95 = DIRECTION ( 'NONE',  ( 0.000000000000000000, 0.000000000000000000, 1.000000000000000000 ) ) ;
#96 = CYLINDRICAL_SURFACE ( 'NONE', #112, 5.000000000000000000 ) ;
#97 = CYLINDRICAL_SURFACE ( 'NONE', #84, 1.250000000000000000 ) ;
#98 = LOCAL_TIME ( 11, 18, 38.00000000000000000, #381 ) ;
#99 = ORIENTED_EDGE ( 'NONE', *, *, #329, .F. ) ;
#100 = FACE_OUTER_BOUND ( 'NONE', #42, .T. ) ;
#101 = CC_DESIGN_PERSON_AND_ORGANIZATION_ASSIGNMENT ( #334, #89, ( #18 ) ) ;
#102 = LINE ( 'NONE', #12, #129 ) ;
#103 = ORIENTED_EDGE ( 'NONE', *, *, #364, .F. ) ;
#104 = DESIGN_CONTEXT ( 'detailed design', #312, 'design' ) ;
#105 = PRODUCT ( '04f7', '04f7', '', ( #4 ) ) ;
#106 = DIRECTION ( 'NONE',  ( -0.000000000000000000, -0.000000000000000000, -1.000000000000000000 ) ) ;
#107 = AXIS2_PLACEMENT_3D ( 'NONE', #76, #170, #22 ) ;
#108 = VERTEX_POINT ( 'NONE', #357 ) ;
#109 = CARTESIAN_POINT ( 'NONE',  ( 0.000000000000000000, 0.000000000000000000, 0.000000000000000000 ) ) ;
#110 = DIRECTION ( 'NONE',  ( 1.000000000000000000, 0.000000000000000000, 0.000000000000000000 ) ) ;
#111 = DIRECTION ( 'NONE',  ( -0.000000000000000000, -0.000000000000000000, -1.000000000000000000 ) ) ;
#112 = AXIS2_PLACEMENT_3D ( 'NONE', #36, #106, #185 ) ;
#113 = LOCAL_TIME ( 11, 18, 38.00000000000000000, #208 ) ;
#114 = CARTESIAN_POINT ( 'NONE',  ( -2.500000000000000000, 0.000000000000000000, 128.0000000000000000 ) ) ;
#115 = EDGE_CURVE ( 'NONE', #23, #135, #267, .T. ) ;
#116 = EDGE_LOOP ( 'NONE', ( #251, #233, #340, #79 ) ) ;
#117 = PERSON_AND_ORGANIZATION ( #289, #61 ) ;
#118 = ORIENTED_EDGE ( 'NONE', *, *, #20, .F. ) ;
#119 = AXIS2_PLACEMENT_3D ( 'NONE', #50, #146, #263 ) ;
#120 = LOCAL_TIME ( 11, 18, 38.00000000000000000, #219 ) ;
#121 = DIRECTION ( 'NONE',  ( 1.000000000000000000, 0.000000000000000000, 0.000000000000000000 ) ) ;
#122 = CARTESIAN_POINT ( 'NONE',  ( 0.000000000000000000, 0.000000000000000000, 3.000000000000000000 ) ) ;
#123 = PERSON_AND_ORGANIZATION ( #289, #61 ) ;
#124 = CALENDAR_DATE ( 2022, 10, 7 ) ;
#125 = DIRECTION ( 'NONE',  ( 1.000000000000000000, 0.000000000000000000, 0.000000000000000000 ) ) ;
#126 = EDGE_CURVE ( 'NONE', #85, #192, #296, .T. ) ;
#127 = CARTESIAN_POINT ( 'NONE',  ( 0.000000000000000000, 0.000000000000000000, 128.0000000000000000 ) ) ;
#128 = ORIENTED_EDGE ( 'NONE', *, *, #60, .T. ) ;
#129 = VECTOR ( 'NONE', #339, 1000.000000000000000 ) ;
#130 = CARTESIAN_POINT ( 'NONE',  ( -1.250000000000000000, 0.000000000000000000, 128.0000000000000000 ) ) ;
#131 = ORIENTED_EDGE ( 'NONE', *, *, #162, .F. ) ;
#132 = CARTESIAN_POINT ( 'NONE',  ( 0.000000000000000000, 0.000000000000000000, 0.000000000000000000 ) ) ;
#133 = ORIENTED_EDGE ( 'NONE', *, *, #148, .F. ) ;
#134 = ORIENTED_EDGE ( 'NONE', *, *, #361, .F. ) ;
#135 = VERTEX_POINT ( 'NONE', #212 ) ;
#136 = CC_DESIGN_SECURITY_CLASSIFICATION ( #18, ( #319 ) ) ;
#137 = APPROVAL ( #181, 'NEURÈENÝ' ) ;
#138 = LINE ( 'NONE', #236, #160 ) ;
#139 = FACE_BOUND ( 'NONE', #316, .T. ) ;
#140 = DIRECTION ( 'NONE',  ( 0.000000000000000000, 0.000000000000000000, 1.000000000000000000 ) ) ;
#141 = CYLINDRICAL_SURFACE ( 'NONE', #53, 2.500000000000000000 ) ;
#142 = ORIENTED_EDGE ( 'NONE', *, *, #230, .T. ) ;
#143 = ADVANCED_FACE ( 'NONE', ( #331, #184 ), #155, .T. ) ;
#144 = CIRCLE ( 'NONE', #222, 5.000000000000000000 ) ;
#145 = APPROVAL_PERSON_ORGANIZATION ( #242, #264, #298 ) ;
#146 = DIRECTION ( 'NONE',  ( 0.000000000000000000, 0.000000000000000000, 1.000000000000000000 ) ) ;
#147 = PLANE ( 'NONE',  #119 ) ;
#148 = EDGE_CURVE ( 'NONE', #135, #347, #189, .T. ) ;
#149 = APPROVAL_ROLE ( '' ) ;
#150 = DIRECTION ( 'NONE',  ( -0.000000000000000000, -0.000000000000000000, -1.000000000000000000 ) ) ;
#151 = CIRCLE ( 'NONE', #159, 1.250000000000000000 ) ;
#152 = DIRECTION ( 'NONE',  ( 1.000000000000000000, 0.000000000000000000, 0.000000000000000000 ) ) ;
#153 = DIRECTION ( 'NONE',  ( 0.000000000000000000, 0.000000000000000000, -1.000000000000000000 ) ) ;
#154 = DATE_AND_TIME ( #124, #360 ) ;
#155 = PLANE ( 'NONE',  #198 ) ;
#156 = PERSON_AND_ORGANIZATION ( #289, #61 ) ;
#157 = DIRECTION ( 'NONE',  ( 0.000000000000000000, 0.000000000000000000, 1.000000000000000000 ) ) ;
#158 = EDGE_CURVE ( 'NONE', #347, #200, #35, .T. ) ;
#159 = AXIS2_PLACEMENT_3D ( 'NONE', #109, #111, #52 ) ;
#160 = VECTOR ( 'NONE', #176, 1000.000000000000000 ) ;
#161 = CARTESIAN_POINT ( 'NONE',  ( 0.000000000000000000, 0.000000000000000000, 3.299999999999997158 ) ) ;
#162 = EDGE_CURVE ( 'NONE', #197, #70, #303, .T. ) ;
#163 = DIRECTION ( 'NONE',  ( 1.000000000000000000, 0.000000000000000000, 0.000000000000000000 ) ) ;
#164 = EDGE_LOOP ( 'NONE', ( #232, #310 ) ) ;
#165 = AXIS2_PLACEMENT_3D ( 'NONE', #127, #228, #306 ) ;
#166 = DIRECTION ( 'NONE',  ( 1.000000000000000000, 0.000000000000000000, 0.000000000000000000 ) ) ;
#167 = ORIENTED_EDGE ( 'NONE', *, *, #324, .F. ) ;
#168 = DIRECTION ( 'NONE',  ( 0.000000000000000000, 0.000000000000000000, 1.000000000000000000 ) ) ;
#169 = ORIENTED_EDGE ( 'NONE', *, *, #361, .T. ) ;
#170 = DIRECTION ( 'NONE',  ( 1.224646799147353207E-16, 1.000000000000000000, -0.000000000000000000 ) ) ;
#171 = CLOSED_SHELL ( 'NONE', ( #221, #55, #15, #183, #82, #30, #304, #7, #143, #253, #280 ) ) ;
#172 = DIRECTION ( 'NONE',  ( 1.000000000000000000, 0.000000000000000000, 0.000000000000000000 ) ) ;
#173 = VERTEX_POINT ( 'NONE', #247 ) ;
#174 =( NAMED_UNIT ( * ) PLANE_ANGLE_UNIT ( ) SI_UNIT ( $, .RADIAN. ) );
#175 =( LENGTH_UNIT ( ) NAMED_UNIT ( * ) SI_UNIT ( .MILLI., .METRE. ) );
#176 = DIRECTION ( 'NONE',  ( -0.000000000000000000, -0.000000000000000000, -1.000000000000000000 ) ) ;
#177 = DIRECTION ( 'NONE',  ( 0.000000000000000000, 0.000000000000000000, 1.000000000000000000 ) ) ;
#178 = DIRECTION ( 'NONE',  ( 1.000000000000000000, 0.000000000000000000, 0.000000000000000000 ) ) ;
#179 = PERSON_AND_ORGANIZATION_ROLE ( 'design_supplier' ) ;
#180 = AXIS2_PLACEMENT_3D ( 'NONE', #374, #21, #377 ) ;
#181 = APPROVAL_STATUS ( 'not_yet_approved' ) ;
#182 = COORDINATED_UNIVERSAL_TIME_OFFSET ( 1, 0, .AHEAD. ) ;
#183 = ADVANCED_FACE ( 'NONE', ( #363 ), #96, .T. ) ;
#184 = FACE_OUTER_BOUND ( 'NONE', #10, .T. ) ;
#185 = DIRECTION ( 'NONE',  ( -1.000000000000000000, 0.000000000000000000, 0.000000000000000000 ) ) ;
#186 = DIRECTION ( 'NONE',  ( 1.000000000000000000, 0.000000000000000000, 0.000000000000000000 ) ) ;
#187 = ORIENTED_EDGE ( 'NONE', *, *, #291, .F. ) ;
#188 = DIRECTION ( 'NONE',  ( -0.000000000000000000, -0.000000000000000000, -1.000000000000000000 ) ) ;
#189 = CIRCLE ( 'NONE', #24, 0.2999999999999999334 ) ;
#190 = CC_DESIGN_APPROVAL ( #241, ( #18 ) ) ;
#191 = DIRECTION ( 'NONE',  ( 0.000000000000000000, 0.000000000000000000, 1.000000000000000000 ) ) ;
#192 = VERTEX_POINT ( 'NONE', #224 ) ;
#193 = DIRECTION ( 'NONE',  ( 1.000000000000000000, 0.000000000000000000, 0.000000000000000000 ) ) ;
#194 = CC_DESIGN_PERSON_AND_ORGANIZATION_ASSIGNMENT ( #156, #179, ( #319 ) ) ;
#195 = ORIENTED_EDGE ( 'NONE', *, *, #291, .T. ) ;
#196 = APPLICATION_PROTOCOL_DEFINITION ( 'international standard', 'config_control_design', 1994, #69 ) ;
#197 = VERTEX_POINT ( 'NONE', #130 ) ;
#198 = AXIS2_PLACEMENT_3D ( 'NONE', #2, #328, #65 ) ;
#199 = AXIS2_PLACEMENT_3D ( 'NONE', #132, #188, #193 ) ;
#200 = VERTEX_POINT ( 'NONE', #14 ) ;
#201 = APPROVAL_ROLE ( '' ) ;
#202 = FACE_OUTER_BOUND ( 'NONE', #116, .T. ) ;
#203 = CARTESIAN_POINT ( 'NONE',  ( 0.000000000000000000, 0.000000000000000000, 128.0000000000000000 ) ) ;
#204 = DIRECTION ( 'NONE',  ( -0.000000000000000000, -0.000000000000000000, -1.000000000000000000 ) ) ;
#205 = EDGE_LOOP ( 'NONE', ( #366, #368, #38, #99 ) ) ;
#206 = AXIS2_PLACEMENT_3D ( 'NONE', #6, #33, #121 ) ;
#207 = AXIS2_PLACEMENT_3D ( 'NONE', #39, #337, #163 ) ;
#208 = COORDINATED_UNIVERSAL_TIME_OFFSET ( 1, 0, .AHEAD. ) ;
#209 = CARTESIAN_POINT ( 'NONE',  ( 0.000000000000000000, 0.000000000000000000, 3.000000000000000000 ) ) ;
#210 = EDGE_CURVE ( 'NONE', #192, #70, #245, .T. ) ;
#211 = APPROVAL_DATE_TIME ( #86, #264 ) ;
#212 = CARTESIAN_POINT ( 'NONE',  ( 2.500000000000000000, 3.061616997868383141E-16, 3.299999999999997158 ) ) ;
#213 = COORDINATED_UNIVERSAL_TIME_OFFSET ( 1, 0, .AHEAD. ) ;
#214 = CIRCLE ( 'NONE', #207, 5.000000000000000000 ) ;
#215 = EDGE_CURVE ( 'NONE', #354, #23, #102, .T. ) ;
#216 = DATE_AND_TIME ( #34, #80 ) ;
#217 = DIRECTION ( 'NONE',  ( 1.000000000000000000, 0.000000000000000000, 0.000000000000000000 ) ) ;
#218 = APPROVAL_STATUS ( 'not_yet_approved' ) ;
#219 = COORDINATED_UNIVERSAL_TIME_OFFSET ( 1, 0, .AHEAD. ) ;
#220 = DIRECTION ( 'NONE',  ( -1.000000000000000000, 0.000000000000000000, 0.000000000000000000 ) ) ;
#221 = ADVANCED_FACE ( 'NONE', ( #100 ), #279, .F. ) ;
#222 = AXIS2_PLACEMENT_3D ( 'NONE', #209, #90, #301 ) ;
#223 = TOROIDAL_SURFACE ( 'NONE', #206, 2.799999999999999822, 0.2999999999999999889 ) ;
#224 = CARTESIAN_POINT ( 'NONE',  ( 1.250000000000000000, 1.530808498934191571E-16, 0.000000000000000000 ) ) ;
#225 = ORIENTED_EDGE ( 'NONE', *, *, #352, .T. ) ;
#226 = FACE_OUTER_BOUND ( 'NONE', #75, .T. ) ;
#227 = ORIENTED_EDGE ( 'NONE', *, *, #235, .F. ) ;
#228 = DIRECTION ( 'NONE',  ( 0.000000000000000000, 0.000000000000000000, -1.000000000000000000 ) ) ;
#229 = ORIENTED_EDGE ( 'NONE', *, *, #162, .T. ) ;
#230 = EDGE_CURVE ( 'NONE', #17, #108, #297, .T. ) ;
#231 = DIRECTION ( 'NONE',  ( -0.000000000000000000, -0.000000000000000000, -1.000000000000000000 ) ) ;
#232 = ORIENTED_EDGE ( 'NONE', *, *, #41, .F. ) ;
#233 = ORIENTED_EDGE ( 'NONE', *, *, #294, .F. ) ;
#234 = ORIENTED_EDGE ( 'NONE', *, *, #243, .F. ) ;
#235 = EDGE_CURVE ( 'NONE', #17, #173, #68, .T. ) ;
#236 = CARTESIAN_POINT ( 'NONE',  ( -5.000000000000000000, 0.000000000000000000, 3.000000000000000000 ) ) ;
#237 =( GEOMETRIC_REPRESENTATION_CONTEXT ( 3 ) GLOBAL_UNCERTAINTY_ASSIGNED_CONTEXT ( ( #346 ) ) GLOBAL_UNIT_ASSIGNED_CONTEXT ( ( #175, #174, #25 ) ) REPRESENTATION_CONTEXT ( 'NONE', 'WORKASPACE' ) );
#238 = ORIENTED_EDGE ( 'NONE', *, *, #210, .T. ) ;
#239 = CARTESIAN_POINT ( 'NONE',  ( 5.000000000000000000, 6.123233995736766282E-16, 3.000000000000000000 ) ) ;
#240 = EDGE_LOOP ( 'NONE', ( #187, #118 ) ) ;
#241 = APPROVAL ( #218, 'NEURÈENÝ' ) ;
#242 = PERSON_AND_ORGANIZATION ( #289, #61 ) ;
#243 = EDGE_CURVE ( 'NONE', #197, #85, #326, .T. ) ;
#244 = CARTESIAN_POINT ( 'NONE',  ( 2.799999999999999822, 0.000000000000000000, 3.299999999999997158 ) ) ;
#245 = CIRCLE ( 'NONE', #199, 1.250000000000000000 ) ;
#246 = AXIS2_PLACEMENT_3D ( 'NONE', #72, #191, #166 ) ;
#247 = CARTESIAN_POINT ( 'NONE',  ( 5.000000000000000000, 6.123233995736766282E-16, 0.000000000000000000 ) ) ;
#248 = DIRECTION ( 'NONE',  ( 0.000000000000000000, 0.000000000000000000, -1.000000000000000000 ) ) ;
#249 = ORIENTED_EDGE ( 'NONE', *, *, #158, .F. ) ;
#250 = AXIS2_PLACEMENT_3D ( 'NONE', #257, #204, #110 ) ;
#251 = ORIENTED_EDGE ( 'NONE', *, *, #375, .F. ) ;
#252 = VERTEX_POINT ( 'NONE', #315 ) ;
#253 = ADVANCED_FACE ( 'NONE', ( #226 ), #275, .F. ) ;
#254 = CARTESIAN_POINT ( 'NONE',  ( 0.000000000000000000, 0.000000000000000000, 3.000000000000000000 ) ) ;
#255 = ORIENTED_EDGE ( 'NONE', *, *, #352, .F. ) ;
#256 = DIRECTION ( 'NONE',  ( 1.000000000000000000, 0.000000000000000000, 0.000000000000000000 ) ) ;
#257 = CARTESIAN_POINT ( 'NONE',  ( 0.000000000000000000, 0.000000000000000000, 3.000000000000000000 ) ) ;
#258 = CARTESIAN_POINT ( 'NONE',  ( 0.000000000000000000, 0.000000000000000000, 128.0000000000000000 ) ) ;
#259 = CARTESIAN_POINT ( 'NONE',  ( 2.500000000000000000, 3.061616997868383141E-16, 128.0000000000000000 ) ) ;
#260 = CC_DESIGN_APPROVAL ( #137, ( #335 ) ) ;
#261 = DIRECTION ( 'NONE',  ( -0.000000000000000000, -0.000000000000000000, -1.000000000000000000 ) ) ;
#262 = DIRECTION ( 'NONE',  ( 0.000000000000000000, 0.000000000000000000, 1.000000000000000000 ) ) ;
#263 = DIRECTION ( 'NONE',  ( 1.000000000000000000, 0.000000000000000000, -0.000000000000000000 ) ) ;
#264 = APPROVAL ( #56, 'NEURÈENÝ' ) ;
#265 = FACE_OUTER_BOUND ( 'NONE', #26, .T. ) ;
#266 = PERSON_AND_ORGANIZATION_ROLE ( 'creator' ) ;
#267 = CIRCLE ( 'NONE', #365, 2.500000000000000000 ) ;
#268 = CARTESIAN_POINT ( 'NONE',  ( -1.250000000000000000, 0.000000000000000000, 128.0000000000000000 ) ) ;
#269 = VECTOR ( 'NONE', #290, 1000.000000000000000 ) ;
#270 = SECURITY_CLASSIFICATION_LEVEL ( 'unclassified' ) ;
#271 = CC_DESIGN_PERSON_AND_ORGANIZATION_ASSIGNMENT ( #330, #58, ( #319 ) ) ;
#272 = CYLINDRICAL_SURFACE ( 'NONE', #46, 5.000000000000000000 ) ;
#273 = CARTESIAN_POINT ( 'NONE',  ( 0.000000000000000000, 0.000000000000000000, 3.000000000000000000 ) ) ;
#274 = CIRCLE ( 'NONE', #91, 5.000000000000000000 ) ;
#275 = TOROIDAL_SURFACE ( 'NONE', #37, 2.799999999999999822, 0.2999999999999999889 ) ;
#276 = DIRECTION ( 'NONE',  ( 1.000000000000000000, 0.000000000000000000, 0.000000000000000000 ) ) ;
#277 = SHAPE_DEFINITION_REPRESENTATION ( #43, #348 ) ;
#278 = ORIENTED_EDGE ( 'NONE', *, *, #148, .T. ) ;
#279 = CYLINDRICAL_SURFACE ( 'NONE', #165, 1.250000000000000000 ) ;
#280 = ADVANCED_FACE ( 'NONE', ( #283 ), #97, .F. ) ;
#281 = ORIENTED_EDGE ( 'NONE', *, *, #215, .F. ) ;
#282 = EDGE_LOOP ( 'NONE', ( #355, #225, #249, #133 ) ) ;
#283 = FACE_OUTER_BOUND ( 'NONE', #351, .T. ) ;
#284 = ORIENTED_EDGE ( 'NONE', *, *, #329, .T. ) ;
#285 = AXIS2_PLACEMENT_3D ( 'NONE', #78, #140, #317 ) ;
#286 = ORIENTED_EDGE ( 'NONE', *, *, #126, .T. ) ;
#287 = APPROVAL_DATE_TIME ( #307, #241 ) ;
#288 = DIRECTION ( 'NONE',  ( -1.000000000000000000, 0.000000000000000000, 0.000000000000000000 ) ) ;
#289 = PERSON ( 'NEURÈENÝ', 'NEURÈENÝ', 'NEURÈENÝ', ('NEURÈENÝ'), ('NEURÈENÝ'), ('NEURÈENÝ') ) ;
#290 = DIRECTION ( 'NONE',  ( -0.000000000000000000, -0.000000000000000000, -1.000000000000000000 ) ) ;
#291 = EDGE_CURVE ( 'NONE', #252, #173, #214, .T. ) ;
#292 = FACE_OUTER_BOUND ( 'NONE', #240, .T. ) ;
#293 = FACE_OUTER_BOUND ( 'NONE', #282, .T. ) ;
#294 = EDGE_CURVE ( 'NONE', #354, #327, #338, .T. ) ;
#295 = CALENDAR_DATE ( 2022, 10, 7 ) ;
#296 = LINE ( 'NONE', #299, #358 ) ;
#297 = CIRCLE ( 'NONE', #333, 5.000000000000000000 ) ;
#298 = APPROVAL_ROLE ( '' ) ;
#299 = CARTESIAN_POINT ( 'NONE',  ( 1.250000000000000000, 1.530808498934191571E-16, 128.0000000000000000 ) ) ;
#300 = PERSON_AND_ORGANIZATION ( #289, #61 ) ;
#301 = DIRECTION ( 'NONE',  ( 1.000000000000000000, 0.000000000000000000, 0.000000000000000000 ) ) ;
#302 = PERSON_AND_ORGANIZATION_ROLE ( 'design_owner' ) ;
#303 = LINE ( 'NONE', #268, #9 ) ;
#304 = ADVANCED_FACE ( 'NONE', ( #349, #292 ), #322, .F. ) ;
#305 = CIRCLE ( 'NONE', #11, 1.250000000000000000 ) ;
#306 = DIRECTION ( 'NONE',  ( -1.000000000000000000, 0.000000000000000000, 0.000000000000000000 ) ) ;
#307 = DATE_AND_TIME ( #342, #120 ) ;
#308 = MANIFOLD_SOLID_BREP ( 'Odebrat vysunutím3', #171 ) ;
#309 = CARTESIAN_POINT ( 'NONE',  ( 0.000000000000000000, 0.000000000000000000, 128.0000000000000000 ) ) ;
#310 = ORIENTED_EDGE ( 'NONE', *, *, #210, .F. ) ;
#311 = CARTESIAN_POINT ( 'NONE',  ( 0.000000000000000000, 0.000000000000000000, 3.299999999999997158 ) ) ;
#312 = APPLICATION_CONTEXT ( 'configuration controlled 3d designs of mechanical parts and assemblies' ) ;
#313 = DIRECTION ( 'NONE',  ( 0.000000000000000000, 0.000000000000000000, 1.000000000000000000 ) ) ;
#314 = EDGE_LOOP ( 'NONE', ( #167, #44, #128, #281 ) ) ;
#315 = CARTESIAN_POINT ( 'NONE',  ( -5.000000000000000000, 0.000000000000000000, 0.000000000000000000 ) ) ;
#316 = EDGE_LOOP ( 'NONE', ( #83, #73 ) ) ;
#317 = DIRECTION ( 'NONE',  ( 1.000000000000000000, 0.000000000000000000, 0.000000000000000000 ) ) ;
#318 = FACE_OUTER_BOUND ( 'NONE', #314, .T. ) ;
#319 = PRODUCT_DEFINITION_FORMATION_WITH_SPECIFIED_SOURCE ( 'LIBOVOLNÝ', '', #105, .NOT_KNOWN. ) ;
#320 = CARTESIAN_POINT ( 'NONE',  ( 2.799999999999999822, 0.000000000000000000, 2.999999999999998668 ) ) ;
#321 = CYLINDRICAL_SURFACE ( 'NONE', #5, 2.500000000000000000 ) ;
#322 = PLANE ( 'NONE',  #180 ) ;
#323 = DIRECTION ( 'NONE',  ( -1.000000000000000000, 0.000000000000000000, 0.000000000000000000 ) ) ;
#324 = EDGE_CURVE ( 'NONE', #327, #354, #74, .T. ) ;
#325 = DIRECTION ( 'NONE',  ( -0.000000000000000000, -0.000000000000000000, -1.000000000000000000 ) ) ;
#326 = CIRCLE ( 'NONE', #28, 1.250000000000000000 ) ;
#327 = VERTEX_POINT ( 'NONE', #259 ) ;
#328 = DIRECTION ( 'NONE',  ( 0.000000000000000000, 0.000000000000000000, 1.000000000000000000 ) ) ;
#329 = EDGE_CURVE ( 'NONE', #108, #252, #138, .T. ) ;
#330 = PERSON_AND_ORGANIZATION ( #289, #61 ) ;
#331 = FACE_BOUND ( 'NONE', #13, .T. ) ;
#332 = DATE_AND_TIME ( #32, #98 ) ;
#333 = AXIS2_PLACEMENT_3D ( 'NONE', #254, #16, #276 ) ;
#334 = PERSON_AND_ORGANIZATION ( #289, #61 ) ;
#335 = PRODUCT_DEFINITION ( 'NEZNÁMÝ', '', #319, #104 ) ;
#336 = FACE_OUTER_BOUND ( 'NONE', #343, .T. ) ;
#337 = DIRECTION ( 'NONE',  ( 0.000000000000000000, 0.000000000000000000, 1.000000000000000000 ) ) ;
#338 = CIRCLE ( 'NONE', #246, 2.500000000000000000 ) ;
#339 = DIRECTION ( 'NONE',  ( -0.000000000000000000, -0.000000000000000000, -1.000000000000000000 ) ) ;
#340 = ORIENTED_EDGE ( 'NONE', *, *, #215, .T. ) ;
#341 = PRODUCT_RELATED_PRODUCT_CATEGORY ( 'detail', '', ( #105 ) ) ;
#342 = CALENDAR_DATE ( 2022, 10, 7 ) ;
#343 = EDGE_LOOP ( 'NONE', ( #227, #378, #284, #195 ) ) ;
#344 = CARTESIAN_POINT ( 'NONE',  ( 0.000000000000000000, 0.000000000000000000, 128.0000000000000000 ) ) ;
#345 = ORIENTED_EDGE ( 'NONE', *, *, #126, .F. ) ;
#346 = UNCERTAINTY_MEASURE_WITH_UNIT (LENGTH_MEASURE( 1.000000000000000082E-05 ), #175, 'distance_accuracy_value', 'NONE');
#347 = VERTEX_POINT ( 'NONE', #320 ) ;
#348 = ADVANCED_BREP_SHAPE_REPRESENTATION ( '04f7', ( #308, #48 ), #237 ) ;
#349 = FACE_BOUND ( 'NONE', #164, .T. ) ;
#350 = VECTOR ( 'NONE', #231, 1000.000000000000000 ) ;
#351 = EDGE_LOOP ( 'NONE', ( #345, #169, #229, #81 ) ) ;
#352 = EDGE_CURVE ( 'NONE', #23, #200, #376, .T. ) ;
#353 = DIRECTION ( 'NONE',  ( 1.000000000000000000, 0.000000000000000000, 0.000000000000000000 ) ) ;
#354 = VERTEX_POINT ( 'NONE', #114 ) ;
#355 = ORIENTED_EDGE ( 'NONE', *, *, #115, .F. ) ;
#356 = APPROVAL_DATE_TIME ( #216, #137 ) ;
#357 = CARTESIAN_POINT ( 'NONE',  ( -5.000000000000000000, 0.000000000000000000, 3.000000000000000000 ) ) ;
#358 = VECTOR ( 'NONE', #57, 1000.000000000000000 ) ;
#359 = DIRECTION ( 'NONE',  ( 0.000000000000000000, -1.000000000000000000, 0.000000000000000000 ) ) ;
#360 = LOCAL_TIME ( 11, 18, 38.00000000000000000, #213 ) ;
#361 = EDGE_CURVE ( 'NONE', #85, #197, #305, .T. ) ;
#362 = CARTESIAN_POINT ( 'NONE',  ( 0.000000000000000000, 0.000000000000000000, 0.000000000000000000 ) ) ;
#363 = FACE_OUTER_BOUND ( 'NONE', #205, .T. ) ;
#364 = EDGE_CURVE ( 'NONE', #200, #347, #93, .T. ) ;
#365 = AXIS2_PLACEMENT_3D ( 'NONE', #161, #87, #217 ) ;
#366 = ORIENTED_EDGE ( 'NONE', *, *, #230, .F. ) ;
#367 = ORIENTED_EDGE ( 'NONE', *, *, #294, .T. ) ;
#368 = ORIENTED_EDGE ( 'NONE', *, *, #235, .T. ) ;
#369 = ORIENTED_EDGE ( 'NONE', *, *, #60, .F. ) ;
#370 = CC_DESIGN_APPROVAL ( #264, ( #319 ) ) ;
#371 = CC_DESIGN_DATE_AND_TIME_ASSIGNMENT ( #154, #1, ( #18 ) ) ;
#372 = ORIENTED_EDGE ( 'NONE', *, *, #243, .T. ) ;
#373 = ORIENTED_EDGE ( 'NONE', *, *, #324, .T. ) ;
#374 = CARTESIAN_POINT ( 'NONE',  ( 0.000000000000000000, 0.000000000000000000, 0.000000000000000000 ) ) ;
#375 = EDGE_CURVE ( 'NONE', #327, #135, #51, .T. ) ;
#376 = CIRCLE ( 'NONE', #107, 0.2999999999999999334 ) ;
#377 = DIRECTION ( 'NONE',  ( 1.000000000000000000, 0.000000000000000000, -0.000000000000000000 ) ) ;
#378 = ORIENTED_EDGE ( 'NONE', *, *, #71, .F. ) ;
#379 = CARTESIAN_POINT ( 'NONE',  ( 0.000000000000000000, 0.000000000000000000, 3.299999999999997158 ) ) ;
#380 = AXIS2_PLACEMENT_3D ( 'NONE', #379, #157, #125 ) ;
#381 = COORDINATED_UNIVERSAL_TIME_OFFSET ( 1, 0, .AHEAD. ) ;
ENDSEC;
END-ISO-10303-21;
