ISO-10303-21;
HEADER;
FILE_DESCRIPTION (( 'STEP AP203' ),
    '1' );
FILE_NAME ('6d30.STEP',
    '2022-07-10T09:08:11',
    ( '' ),
    ( '' ),
    'SwSTEP 2.0',
    'SolidWorks 2019',
    '' );
FILE_SCHEMA (( 'CONFIG_CONTROL_DESIGN' ));
ENDSEC;

DATA;
#1 = UNCERTAINTY_MEASURE_WITH_UNIT (LENGTH_MEASURE( 1.000000000000000082E-05 ), #329, 'distance_accuracy_value', 'NONE');
#2 = DIRECTION ( 'NONE',  ( 1.000000000000000000, 0.000000000000000000, 0.000000000000000000 ) ) ;
#3 = DIRECTION ( 'NONE',  ( 1.000000000000000000, 0.000000000000000000, 0.000000000000000000 ) ) ;
#4 = AXIS2_PLACEMENT_3D ( 'NONE', #284, #255, #205 ) ;
#5 = CC_DESIGN_APPROVAL ( #40, ( #114 ) ) ;
#6 = CARTESIAN_POINT ( 'NONE',  ( 4.000000000000000000, 4.898587196589412829E-16, 165.0000000000000000 ) ) ;
#7 = DIRECTION ( 'NONE',  ( 0.000000000000000000, 0.000000000000000000, -1.000000000000000000 ) ) ;
#8 = CIRCLE ( 'NONE', #295, 2.600000000000000089 ) ;
#9 = DIRECTION ( 'NONE',  ( 1.000000000000000000, 0.000000000000000000, 0.000000000000000000 ) ) ;
#10 = CC_DESIGN_SECURITY_CLASSIFICATION ( #231, ( #114 ) ) ;
#11 = VERTEX_POINT ( 'NONE', #21 ) ;
#12 = ORIENTED_EDGE ( 'NONE', *, *, #155, .T. ) ;
#13 = AXIS2_PLACEMENT_3D ( 'NONE', #150, #145, #269 ) ;
#14 = CARTESIAN_POINT ( 'NONE',  ( -4.000000000000000000, 0.000000000000000000, 165.0000000000000000 ) ) ;
#15 = CIRCLE ( 'NONE', #61, 4.500000000000000888 ) ;
#16 = VERTEX_POINT ( 'NONE', #167 ) ;
#17 = AXIS2_PLACEMENT_3D ( 'NONE', #210, #34, #81 ) ;
#18 = PERSON_AND_ORGANIZATION ( #356, #28 ) ;
#19 = ORIENTED_EDGE ( 'NONE', *, *, #69, .F. ) ;
#20 = EDGE_CURVE ( 'NONE', #37, #16, #316, .T. ) ;
#21 = CARTESIAN_POINT ( 'NONE',  ( 2.600000000000000089, 3.184081677783118191E-16, 0.000000000000000000 ) ) ;
#22 = ORIENTED_EDGE ( 'NONE', *, *, #268, .F. ) ;
#23 = PERSON_AND_ORGANIZATION_ROLE ( 'classification_officer' ) ;
#24 = FACE_OUTER_BOUND ( 'NONE', #50, .T. ) ;
#25 = CARTESIAN_POINT ( 'NONE',  ( 0.000000000000000000, 0.000000000000000000, 165.0000000000000000 ) ) ;
#26 = AXIS2_PLACEMENT_3D ( 'NONE', #212, #176, #7 ) ;
#27 = ORIENTED_EDGE ( 'NONE', *, *, #286, .F. ) ;
#28 = ORGANIZATION ( 'NEURÈENÝ', 'NEURÈENÝ', '' ) ;
#29 = EDGE_CURVE ( 'NONE', #336, #372, #338, .T. ) ;
#30 = CARTESIAN_POINT ( 'NONE',  ( 0.000000000000000000, 0.000000000000000000, 165.0000000000000000 ) ) ;
#31 = CARTESIAN_POINT ( 'NONE',  ( 0.000000000000000000, 0.000000000000000000, 165.0000000000000000 ) ) ;
#32 = CARTESIAN_POINT ( 'NONE',  ( 7.000000000000000000, 8.572527594031473190E-16, 5.000000000000000000 ) ) ;
#33 = AXIS2_PLACEMENT_3D ( 'NONE', #276, #299, #39 ) ;
#34 = DIRECTION ( 'NONE',  ( 0.000000000000000000, 0.000000000000000000, 1.000000000000000000 ) ) ;
#35 = ADVANCED_FACE ( 'NONE', ( #101, #24 ), #320, .T. ) ;
#36 = DIRECTION ( 'NONE',  ( 0.000000000000000000, 0.000000000000000000, 1.000000000000000000 ) ) ;
#37 = VERTEX_POINT ( 'NONE', #136 ) ;
#38 = APPROVAL_PERSON_ORGANIZATION ( #18, #74, #134 ) ;
#39 = DIRECTION ( 'NONE',  ( 1.000000000000000000, 0.000000000000000000, 0.000000000000000000 ) ) ;
#40 = APPROVAL ( #337, 'NEURÈENÝ' ) ;
#41 = EDGE_LOOP ( 'NONE', ( #346, #97, #232, #157 ) ) ;
#42 = CARTESIAN_POINT ( 'NONE',  ( 4.000000000000000000, 4.898587196589412829E-16, 5.500000000000005329 ) ) ;
#43 = APPROVAL_STATUS ( 'not_yet_approved' ) ;
#44 = AXIS2_PLACEMENT_3D ( 'NONE', #242, #91, #67 ) ;
#45 = COORDINATED_UNIVERSAL_TIME_OFFSET ( 1, 0, .AHEAD. ) ;
#46 = ORIENTED_EDGE ( 'NONE', *, *, #237, .T. ) ;
#47 = PERSON_AND_ORGANIZATION ( #356, #28 ) ;
#48 = EDGE_LOOP ( 'NONE', ( #227, #194, #173, #53 ) ) ;
#49 = CALENDAR_DATE ( 2022, 10, 7 ) ;
#50 = EDGE_LOOP ( 'NONE', ( #187, #361 ) ) ;
#51 = AXIS2_PLACEMENT_3D ( 'NONE', #264, #84, #293 ) ;
#52 = DATE_AND_TIME ( #76, #219 ) ;
#53 = ORIENTED_EDGE ( 'NONE', *, *, #367, .T. ) ;
#54 = DIRECTION ( 'NONE',  ( 0.000000000000000000, 0.000000000000000000, 1.000000000000000000 ) ) ;
#55 = PRODUCT ( '6d30', '6d30', '', ( #132 ) ) ;
#56 = CARTESIAN_POINT ( 'NONE',  ( -2.600000000000000089, 0.000000000000000000, 0.000000000000000000 ) ) ;
#57 = CIRCLE ( 'NONE', #17, 7.000000000000000000 ) ;
#58 = LINE ( 'NONE', #32, #318 ) ;
#59 = CARTESIAN_POINT ( 'NONE',  ( 7.000000000000000000, 8.572527594031473190E-16, 5.000000000000000000 ) ) ;
#60 = DIRECTION ( 'NONE',  ( -1.000000000000000000, 0.000000000000000000, 0.000000000000000000 ) ) ;
#61 = AXIS2_PLACEMENT_3D ( 'NONE', #352, #324, #3 ) ;
#62 = LOCAL_TIME ( 11, 8, 11.00000000000000000, #315 ) ;
#63 = CYLINDRICAL_SURFACE ( 'NONE', #78, 2.600000000000000089 ) ;
#64 = DIRECTION ( 'NONE',  ( -0.000000000000000000, -0.000000000000000000, -1.000000000000000000 ) ) ;
#65 = EDGE_LOOP ( 'NONE', ( #349, #366, #317, #12 ) ) ;
#66 = AXIS2_PLACEMENT_3D ( 'NONE', #111, #36, #381 ) ;
#67 = DIRECTION ( 'NONE',  ( -1.000000000000000000, 0.000000000000000000, 0.000000000000000000 ) ) ;
#68 = ORIENTED_EDGE ( 'NONE', *, *, #270, .T. ) ;
#69 = EDGE_CURVE ( 'NONE', #372, #289, #106, .T. ) ;
#70 = ORIENTED_EDGE ( 'NONE', *, *, #286, .T. ) ;
#71 = CIRCLE ( 'NONE', #208, 7.000000000000000000 ) ;
#72 = PERSON_AND_ORGANIZATION_ROLE ( 'design_owner' ) ;
#73 = DIRECTION ( 'NONE',  ( 1.000000000000000000, 0.000000000000000000, -0.000000000000000000 ) ) ;
#74 = APPROVAL ( #43, 'NEURÈENÝ' ) ;
#75 = EDGE_LOOP ( 'NONE', ( #334, #68, #70, #22 ) ) ;
#76 = CALENDAR_DATE ( 2022, 10, 7 ) ;
#77 = CYLINDRICAL_SURFACE ( 'NONE', #181, 7.000000000000000000 ) ;
#78 = AXIS2_PLACEMENT_3D ( 'NONE', #83, #291, #265 ) ;
#79 = DATE_AND_TIME ( #160, #332 ) ;
#80 = FACE_OUTER_BOUND ( 'NONE', #75, .T. ) ;
#81 = DIRECTION ( 'NONE',  ( 1.000000000000000000, 0.000000000000000000, 0.000000000000000000 ) ) ;
#82 = MANIFOLD_SOLID_BREP ( 'Odebrat vysunutím3', #99 ) ;
#83 = CARTESIAN_POINT ( 'NONE',  ( 0.000000000000000000, 0.000000000000000000, 165.0000000000000000 ) ) ;
#84 = DIRECTION ( 'NONE',  ( 0.000000000000000000, 0.000000000000000000, 1.000000000000000000 ) ) ;
#85 = DIRECTION ( 'NONE',  ( -1.000000000000000000, 1.224646799147351482E-16, 0.000000000000000000 ) ) ;
#86 = CARTESIAN_POINT ( 'NONE',  ( -7.000000000000000000, 0.000000000000000000, 5.000000000000000000 ) ) ;
#87 = LOCAL_TIME ( 11, 8, 11.00000000000000000, #369 ) ;
#88 = CARTESIAN_POINT ( 'NONE',  ( 0.000000000000000000, 0.000000000000000000, 165.0000000000000000 ) ) ;
#89 = CARTESIAN_POINT ( 'NONE',  ( 0.000000000000000000, 0.000000000000000000, 0.000000000000000000 ) ) ;
#90 = ORIENTED_EDGE ( 'NONE', *, *, #270, .F. ) ;
#91 = DIRECTION ( 'NONE',  ( -0.000000000000000000, -0.000000000000000000, -1.000000000000000000 ) ) ;
#92 = TOROIDAL_SURFACE ( 'NONE', #51, 4.500000000000000888, 0.5000000000000000000 ) ;
#93 = PLANE ( 'NONE',  #119 ) ;
#94 = ORIENTED_EDGE ( 'NONE', *, *, #229, .T. ) ;
#95 = PLANE ( 'NONE',  #169 ) ;
#96 = ADVANCED_FACE ( 'NONE', ( #139 ), #254, .F. ) ;
#97 = ORIENTED_EDGE ( 'NONE', *, *, #171, .T. ) ;
#98 = LINE ( 'NONE', #223, #112 ) ;
#99 = CLOSED_SHELL ( 'NONE', ( #162, #258, #192, #102, #373, #368, #323, #305, #35, #96, #285 ) ) ;
#100 = VECTOR ( 'NONE', #207, 1000.000000000000000 ) ;
#101 = FACE_BOUND ( 'NONE', #125, .T. ) ;
#102 = ADVANCED_FACE ( 'NONE', ( #80 ), #77, .T. ) ;
#103 = EDGE_CURVE ( 'NONE', #16, #215, #98, .T. ) ;
#104 = VERTEX_POINT ( 'NONE', #240 ) ;
#105 = PERSON_AND_ORGANIZATION ( #356, #28 ) ;
#106 = LINE ( 'NONE', #138, #301 ) ;
#107 = AXIS2_PLACEMENT_3D ( 'NONE', #325, #292, #233 ) ;
#108 = APPLICATION_PROTOCOL_DEFINITION ( 'international standard', 'config_control_design', 1994, #327 ) ;
#109 = DIRECTION ( 'NONE',  ( -0.000000000000000000, -0.000000000000000000, -1.000000000000000000 ) ) ;
#110 = DIRECTION ( 'NONE',  ( 0.000000000000000000, 0.000000000000000000, -1.000000000000000000 ) ) ;
#111 = CARTESIAN_POINT ( 'NONE',  ( 0.000000000000000000, 0.000000000000000000, 5.500000000000005329 ) ) ;
#112 = VECTOR ( 'NONE', #110, 1000.000000000000000 ) ;
#113 = CARTESIAN_POINT ( 'NONE',  ( -7.000000000000000000, 0.000000000000000000, 0.000000000000000000 ) ) ;
#114 = PRODUCT_DEFINITION_FORMATION_WITH_SPECIFIED_SOURCE ( 'LIBOVOLNÝ', '', #55, .NOT_KNOWN. ) ;
#115 = DIRECTION ( 'NONE',  ( -0.000000000000000000, -0.000000000000000000, -1.000000000000000000 ) ) ;
#116 = DIRECTION ( 'NONE',  ( -0.000000000000000000, -0.000000000000000000, -1.000000000000000000 ) ) ;
#117 = CARTESIAN_POINT ( 'NONE',  ( 0.000000000000000000, 0.000000000000000000, 0.000000000000000000 ) ) ;
#118 = CC_DESIGN_PERSON_AND_ORGANIZATION_ASSIGNMENT ( #342, #72, ( #55 ) ) ;
#119 = AXIS2_PLACEMENT_3D ( 'NONE', #307, #186, #191 ) ;
#120 = CARTESIAN_POINT ( 'NONE',  ( 0.000000000000000000, 0.000000000000000000, 5.000000000000000000 ) ) ;
#121 = ORIENTED_EDGE ( 'NONE', *, *, #213, .T. ) ;
#122 = CARTESIAN_POINT ( 'NONE',  ( 0.000000000000000000, 0.000000000000000000, 0.000000000000000000 ) ) ;
#123 = FACE_OUTER_BOUND ( 'NONE', #259, .T. ) ;
#124 = ADVANCED_BREP_SHAPE_REPRESENTATION ( '6d30', ( #82, #177 ), #250 ) ;
#125 = EDGE_LOOP ( 'NONE', ( #195, #304 ) ) ;
#126 = APPLICATION_CONTEXT ( 'configuration controlled 3d designs of mechanical parts and assemblies' ) ;
#127 = CARTESIAN_POINT ( 'NONE',  ( 4.000000000000000000, 4.898587196589412829E-16, 165.0000000000000000 ) ) ;
#128 = EDGE_CURVE ( 'NONE', #11, #215, #248, .T. ) ;
#129 = ORIENTED_EDGE ( 'NONE', *, *, #165, .T. ) ;
#130 = APPROVAL_DATE_TIME ( #365, #74 ) ;
#131 = EDGE_LOOP ( 'NONE', ( #281, #249 ) ) ;
#132 = MECHANICAL_CONTEXT ( 'NONE', #126, 'mechanical' ) ;
#133 = ORIENTED_EDGE ( 'NONE', *, *, #158, .T. ) ;
#134 = APPROVAL_ROLE ( '' ) ;
#135 = APPROVAL_PERSON_ORGANIZATION ( #47, #40, #166 ) ;
#136 = CARTESIAN_POINT ( 'NONE',  ( 2.600000000000000089, 3.184081677783118191E-16, 165.0000000000000000 ) ) ;
#137 = DIRECTION ( 'NONE',  ( 1.000000000000000000, 0.000000000000000000, 0.000000000000000000 ) ) ;
#138 = CARTESIAN_POINT ( 'NONE',  ( -4.000000000000000000, 0.000000000000000000, 165.0000000000000000 ) ) ;
#139 = FACE_OUTER_BOUND ( 'NONE', #283, .T. ) ;
#140 = CIRCLE ( 'NONE', #26, 0.5000000000000004441 ) ;
#141 = DIRECTION ( 'NONE',  ( -1.000000000000000000, 0.000000000000000000, 0.000000000000000000 ) ) ;
#142 = AXIS2_PLACEMENT_3D ( 'NONE', #31, #116, #60 ) ;
#143 = DESIGN_CONTEXT ( 'detailed design', #327, 'design' ) ;
#144 = DIRECTION ( 'NONE',  ( -0.000000000000000000, -0.000000000000000000, -1.000000000000000000 ) ) ;
#145 = DIRECTION ( 'NONE',  ( 0.000000000000000000, 0.000000000000000000, 1.000000000000000000 ) ) ;
#146 = CC_DESIGN_PERSON_AND_ORGANIZATION_ASSIGNMENT ( #105, #345, ( #114 ) ) ;
#147 = AXIS2_PLACEMENT_3D ( 'NONE', #343, #54, #73 ) ;
#148 = CYLINDRICAL_SURFACE ( 'NONE', #142, 4.000000000000000000 ) ;
#149 = VECTOR ( 'NONE', #115, 1000.000000000000000 ) ;
#150 = CARTESIAN_POINT ( 'NONE',  ( 0.000000000000000000, 0.000000000000000000, 5.500000000000005329 ) ) ;
#151 = CARTESIAN_POINT ( 'NONE',  ( 0.000000000000000000, 0.000000000000000000, 0.000000000000000000 ) ) ;
#152 = ORIENTED_EDGE ( 'NONE', *, *, #29, .F. ) ;
#153 = CARTESIAN_POINT ( 'NONE',  ( -4.000000000000000000, 0.000000000000000000, 5.500000000000005329 ) ) ;
#154 = VERTEX_POINT ( 'NONE', #86 ) ;
#155 = EDGE_CURVE ( 'NONE', #289, #364, #211, .T. ) ;
#156 = CARTESIAN_POINT ( 'NONE',  ( -4.500000000000000888, 5.510910596163088569E-16, 5.000000000000002665 ) ) ;
#157 = ORIENTED_EDGE ( 'NONE', *, *, #158, .F. ) ;
#158 = EDGE_CURVE ( 'NONE', #364, #378, #140, .T. ) ;
#159 = FACE_BOUND ( 'NONE', #131, .T. ) ;
#160 = CALENDAR_DATE ( 2022, 10, 7 ) ;
#161 = ORIENTED_EDGE ( 'NONE', *, *, #294, .T. ) ;
#162 = ADVANCED_FACE ( 'NONE', ( #263 ), #63, .F. ) ;
#163 = PERSON_AND_ORGANIZATION ( #356, #28 ) ;
#164 = ORIENTED_EDGE ( 'NONE', *, *, #274, .T. ) ;
#165 = EDGE_CURVE ( 'NONE', #16, #37, #8, .T. ) ;
#166 = APPROVAL_ROLE ( '' ) ;
#167 = CARTESIAN_POINT ( 'NONE',  ( -2.600000000000000089, 0.000000000000000000, 165.0000000000000000 ) ) ;
#168 = PERSON_AND_ORGANIZATION ( #356, #28 ) ;
#169 = AXIS2_PLACEMENT_3D ( 'NONE', #120, #244, #222 ) ;
#170 = ORIENTED_EDGE ( 'NONE', *, *, #260, .F. ) ;
#171 = EDGE_CURVE ( 'NONE', #289, #306, #379, .T. ) ;
#172 = COORDINATED_UNIVERSAL_TIME_OFFSET ( 1, 0, .AHEAD. ) ;
#173 = ORIENTED_EDGE ( 'NONE', *, *, #103, .T. ) ;
#174 = EDGE_CURVE ( 'NONE', #378, #306, #15, .T. ) ;
#175 = CARTESIAN_POINT ( 'NONE',  ( 0.000000000000000000, 0.000000000000000000, 5.000000000000000000 ) ) ;
#176 = DIRECTION ( 'NONE',  ( 0.000000000000000000, -1.000000000000000000, 0.000000000000000000 ) ) ;
#177 = AXIS2_PLACEMENT_3D ( 'NONE', #122, #230, #137 ) ;
#178 = CC_DESIGN_DATE_AND_TIME_ASSIGNMENT ( #196, #310, ( #312 ) ) ;
#179 = DIRECTION ( 'NONE',  ( -0.000000000000000000, -0.000000000000000000, -1.000000000000000000 ) ) ;
#180 = CARTESIAN_POINT ( 'NONE',  ( -7.000000000000000000, 0.000000000000000000, 5.000000000000000000 ) ) ;
#181 = AXIS2_PLACEMENT_3D ( 'NONE', #175, #290, #141 ) ;
#182 = DIRECTION ( 'NONE',  ( 0.000000000000000000, 0.000000000000000000, -1.000000000000000000 ) ) ;
#183 = AXIS2_PLACEMENT_3D ( 'NONE', #296, #326, #85 ) ;
#184 = LOCAL_TIME ( 11, 8, 11.00000000000000000, #228 ) ;
#185 = FACE_OUTER_BOUND ( 'NONE', #311, .T. ) ;
#186 = DIRECTION ( 'NONE',  ( 0.000000000000000000, 0.000000000000000000, 1.000000000000000000 ) ) ;
#187 = ORIENTED_EDGE ( 'NONE', *, *, #353, .T. ) ;
#188 = DIRECTION ( 'NONE',  ( -0.000000000000000000, -0.000000000000000000, -1.000000000000000000 ) ) ;
#189 = ORIENTED_EDGE ( 'NONE', *, *, #128, .F. ) ;
#190 = CC_DESIGN_APPROVAL ( #74, ( #231 ) ) ;
#191 = DIRECTION ( 'NONE',  ( 1.000000000000000000, 0.000000000000000000, -0.000000000000000000 ) ) ;
#192 = ADVANCED_FACE ( 'NONE', ( #185 ), #148, .T. ) ;
#193 =( NAMED_UNIT ( * ) SI_UNIT ( $, .STERADIAN. ) SOLID_ANGLE_UNIT ( ) );
#194 = ORIENTED_EDGE ( 'NONE', *, *, #20, .T. ) ;
#195 = ORIENTED_EDGE ( 'NONE', *, *, #165, .F. ) ;
#196 = DATE_AND_TIME ( #49, #184 ) ;
#197 = ORIENTED_EDGE ( 'NONE', *, *, #171, .F. ) ;
#198 = APPROVAL_ROLE ( '' ) ;
#199 = VERTEX_POINT ( 'NONE', #113 ) ;
#200 = ORIENTED_EDGE ( 'NONE', *, *, #239, .F. ) ;
#201 = AXIS2_PLACEMENT_3D ( 'NONE', #117, #302, #214 ) ;
#202 = CARTESIAN_POINT ( 'NONE',  ( 0.000000000000000000, 0.000000000000000000, 5.500000000000005329 ) ) ;
#203 = CC_DESIGN_DATE_AND_TIME_ASSIGNMENT ( #52, #371, ( #231 ) ) ;
#204 = SHAPE_DEFINITION_REPRESENTATION ( #376, #124 ) ;
#205 = DIRECTION ( 'NONE',  ( 1.000000000000000000, 0.000000000000000000, 0.000000000000000000 ) ) ;
#206 = CARTESIAN_POINT ( 'NONE',  ( 0.000000000000000000, 0.000000000000000000, 5.000000000000000000 ) ) ;
#207 = DIRECTION ( 'NONE',  ( -0.000000000000000000, -0.000000000000000000, -1.000000000000000000 ) ) ;
#208 = AXIS2_PLACEMENT_3D ( 'NONE', #206, #357, #355 ) ;
#209 = CARTESIAN_POINT ( 'NONE',  ( 0.000000000000000000, 0.000000000000000000, 5.000000000000000000 ) ) ;
#210 = CARTESIAN_POINT ( 'NONE',  ( 0.000000000000000000, 0.000000000000000000, 5.000000000000000000 ) ) ;
#211 = CIRCLE ( 'NONE', #13, 4.000000000000000000 ) ;
#212 = CARTESIAN_POINT ( 'NONE',  ( 4.500000000000000888, 0.000000000000000000, 5.500000000000005329 ) ) ;
#213 = EDGE_CURVE ( 'NONE', #37, #11, #236, .T. ) ;
#214 = DIRECTION ( 'NONE',  ( 1.000000000000000000, 0.000000000000000000, 0.000000000000000000 ) ) ;
#215 = VERTEX_POINT ( 'NONE', #56 ) ;
#216 = CARTESIAN_POINT ( 'NONE',  ( 4.500000000000000888, 0.000000000000000000, 5.000000000000002665 ) ) ;
#217 = CC_DESIGN_PERSON_AND_ORGANIZATION_ASSIGNMENT ( #257, #374, ( #312 ) ) ;
#218 = FACE_OUTER_BOUND ( 'NONE', #339, .T. ) ;
#219 = LOCAL_TIME ( 11, 8, 11.00000000000000000, #172 ) ;
#220 = FACE_BOUND ( 'NONE', #344, .T. ) ;
#221 = ORIENTED_EDGE ( 'NONE', *, *, #103, .F. ) ;
#222 = DIRECTION ( 'NONE',  ( 1.000000000000000000, 0.000000000000000000, -0.000000000000000000 ) ) ;
#223 = CARTESIAN_POINT ( 'NONE',  ( -2.600000000000000089, 0.000000000000000000, 165.0000000000000000 ) ) ;
#224 = AXIS2_PLACEMENT_3D ( 'NONE', #209, #144, #2 ) ;
#225 = ORIENTED_EDGE ( 'NONE', *, *, #367, .F. ) ;
#226 = CALENDAR_DATE ( 2022, 10, 7 ) ;
#227 = ORIENTED_EDGE ( 'NONE', *, *, #213, .F. ) ;
#228 = COORDINATED_UNIVERSAL_TIME_OFFSET ( 1, 0, .AHEAD. ) ;
#229 = EDGE_CURVE ( 'NONE', #364, #289, #243, .T. ) ;
#230 = DIRECTION ( 'NONE',  ( 0.000000000000000000, 0.000000000000000000, 1.000000000000000000 ) ) ;
#231 = SECURITY_CLASSIFICATION ( '', '', #282 ) ;
#232 = ORIENTED_EDGE ( 'NONE', *, *, #174, .F. ) ;
#233 = DIRECTION ( 'NONE',  ( 1.000000000000000000, 0.000000000000000000, 0.000000000000000000 ) ) ;
#234 = LINE ( 'NONE', #180, #100 ) ;
#235 = AXIS2_PLACEMENT_3D ( 'NONE', #202, #319, #262 ) ;
#236 = LINE ( 'NONE', #298, #267 ) ;
#237 = EDGE_CURVE ( 'NONE', #256, #154, #57, .T. ) ;
#238 = FACE_OUTER_BOUND ( 'NONE', #48, .T. ) ;
#239 = EDGE_CURVE ( 'NONE', #154, #256, #71, .T. ) ;
#240 = CARTESIAN_POINT ( 'NONE',  ( 7.000000000000000000, 8.572527594031473190E-16, 0.000000000000000000 ) ) ;
#241 = AXIS2_PLACEMENT_3D ( 'NONE', #25, #375, #370 ) ;
#242 = CARTESIAN_POINT ( 'NONE',  ( 0.000000000000000000, 0.000000000000000000, 165.0000000000000000 ) ) ;
#243 = CIRCLE ( 'NONE', #66, 4.000000000000000000 ) ;
#244 = DIRECTION ( 'NONE',  ( 0.000000000000000000, 0.000000000000000000, 1.000000000000000000 ) ) ;
#245 = APPROVAL ( #348, 'NEURÈENÝ' ) ;
#246 = DIRECTION ( 'NONE',  ( 1.000000000000000000, 0.000000000000000000, 0.000000000000000000 ) ) ;
#247 = DIRECTION ( 'NONE',  ( -1.000000000000000000, 0.000000000000000000, 0.000000000000000000 ) ) ;
#248 = CIRCLE ( 'NONE', #107, 2.600000000000000089 ) ;
#249 = ORIENTED_EDGE ( 'NONE', *, *, #260, .T. ) ;
#250 =( GEOMETRIC_REPRESENTATION_CONTEXT ( 3 ) GLOBAL_UNCERTAINTY_ASSIGNED_CONTEXT ( ( #1 ) ) GLOBAL_UNIT_ASSIGNED_CONTEXT ( ( #329, #275, #193 ) ) REPRESENTATION_CONTEXT ( 'NONE', 'WORKASPACE' ) );
#251 = CARTESIAN_POINT ( 'NONE',  ( 0.000000000000000000, 0.000000000000000000, 5.000000000000000000 ) ) ;
#252 = ORIENTED_EDGE ( 'NONE', *, *, #239, .T. ) ;
#253 = APPROVAL_DATE_TIME ( #313, #245 ) ;
#254 = TOROIDAL_SURFACE ( 'NONE', #235, 4.500000000000000888, 0.5000000000000000000 ) ;
#255 = DIRECTION ( 'NONE',  ( 0.000000000000000000, 0.000000000000000000, 1.000000000000000000 ) ) ;
#256 = VERTEX_POINT ( 'NONE', #59 ) ;
#257 = PERSON_AND_ORGANIZATION ( #356, #28 ) ;
#258 = ADVANCED_FACE ( 'NONE', ( #321 ), #92, .F. ) ;
#259 = EDGE_LOOP ( 'NONE', ( #90, #200, #314, #161 ) ) ;
#260 = EDGE_CURVE ( 'NONE', #306, #378, #273, .T. ) ;
#261 = PERSON_AND_ORGANIZATION_ROLE ( 'creator' ) ;
#262 = DIRECTION ( 'NONE',  ( 1.000000000000000000, 0.000000000000000000, 0.000000000000000000 ) ) ;
#263 = FACE_OUTER_BOUND ( 'NONE', #288, .T. ) ;
#264 = CARTESIAN_POINT ( 'NONE',  ( 0.000000000000000000, 0.000000000000000000, 5.500000000000005329 ) ) ;
#265 = DIRECTION ( 'NONE',  ( -1.000000000000000000, 0.000000000000000000, 0.000000000000000000 ) ) ;
#266 = LINE ( 'NONE', #6, #149 ) ;
#267 = VECTOR ( 'NONE', #182, 1000.000000000000000 ) ;
#268 = EDGE_CURVE ( 'NONE', #154, #199, #234, .T. ) ;
#269 = DIRECTION ( 'NONE',  ( 1.000000000000000000, 0.000000000000000000, 0.000000000000000000 ) ) ;
#270 = EDGE_CURVE ( 'NONE', #256, #104, #58, .T. ) ;
#271 = APPLICATION_PROTOCOL_DEFINITION ( 'international standard', 'config_control_design', 1994, #126 ) ;
#272 = CYLINDRICAL_SURFACE ( 'NONE', #354, 2.600000000000000089 ) ;
#273 = CIRCLE ( 'NONE', #224, 4.500000000000000888 ) ;
#274 = EDGE_CURVE ( 'NONE', #336, #364, #266, .T. ) ;
#275 =( NAMED_UNIT ( * ) PLANE_ANGLE_UNIT ( ) SI_UNIT ( $, .RADIAN. ) );
#276 = CARTESIAN_POINT ( 'NONE',  ( 0.000000000000000000, 0.000000000000000000, 165.0000000000000000 ) ) ;
#277 = CYLINDRICAL_SURFACE ( 'NONE', #340, 7.000000000000000000 ) ;
#278 = EDGE_LOOP ( 'NONE', ( #252, #46 ) ) ;
#279 = PRODUCT_RELATED_PRODUCT_CATEGORY ( 'detail', '', ( #55 ) ) ;
#280 = PERSON_AND_ORGANIZATION ( #356, #28 ) ;
#281 = ORIENTED_EDGE ( 'NONE', *, *, #174, .T. ) ;
#282 = SECURITY_CLASSIFICATION_LEVEL ( 'unclassified' ) ;
#283 = EDGE_LOOP ( 'NONE', ( #197, #300, #133, #170 ) ) ;
#284 = CARTESIAN_POINT ( 'NONE',  ( 0.000000000000000000, 0.000000000000000000, 165.0000000000000000 ) ) ;
#285 = ADVANCED_FACE ( 'NONE', ( #238 ), #272, .F. ) ;
#286 = EDGE_CURVE ( 'NONE', #104, #199, #362, .T. ) ;
#287 = CALENDAR_DATE ( 2022, 10, 7 ) ;
#288 = EDGE_LOOP ( 'NONE', ( #129, #121, #308, #221 ) ) ;
#289 = VERTEX_POINT ( 'NONE', #153 ) ;
#290 = DIRECTION ( 'NONE',  ( -0.000000000000000000, -0.000000000000000000, -1.000000000000000000 ) ) ;
#291 = DIRECTION ( 'NONE',  ( 0.000000000000000000, 0.000000000000000000, -1.000000000000000000 ) ) ;
#292 = DIRECTION ( 'NONE',  ( -0.000000000000000000, -0.000000000000000000, -1.000000000000000000 ) ) ;
#293 = DIRECTION ( 'NONE',  ( 1.000000000000000000, 0.000000000000000000, 0.000000000000000000 ) ) ;
#294 = EDGE_CURVE ( 'NONE', #199, #104, #347, .T. ) ;
#295 = AXIS2_PLACEMENT_3D ( 'NONE', #30, #358, #351 ) ;
#296 = CARTESIAN_POINT ( 'NONE',  ( -4.500000000000000888, 5.510910596163089556E-16, 5.500000000000005329 ) ) ;
#297 = APPROVAL_PERSON_ORGANIZATION ( #163, #245, #198 ) ;
#298 = CARTESIAN_POINT ( 'NONE',  ( 2.600000000000000089, 3.184081677783118191E-16, 165.0000000000000000 ) ) ;
#299 = DIRECTION ( 'NONE',  ( 0.000000000000000000, 0.000000000000000000, 1.000000000000000000 ) ) ;
#300 = ORIENTED_EDGE ( 'NONE', *, *, #229, .F. ) ;
#301 = VECTOR ( 'NONE', #109, 1000.000000000000000 ) ;
#302 = DIRECTION ( 'NONE',  ( 0.000000000000000000, 0.000000000000000000, 1.000000000000000000 ) ) ;
#303 = CIRCLE ( 'NONE', #322, 2.600000000000000089 ) ;
#304 = ORIENTED_EDGE ( 'NONE', *, *, #20, .F. ) ;
#305 = ADVANCED_FACE ( 'NONE', ( #333 ), #360, .T. ) ;
#306 = VERTEX_POINT ( 'NONE', #156 ) ;
#307 = CARTESIAN_POINT ( 'NONE',  ( 0.000000000000000000, 0.000000000000000000, 0.000000000000000000 ) ) ;
#308 = ORIENTED_EDGE ( 'NONE', *, *, #128, .T. ) ;
#309 = CC_DESIGN_APPROVAL ( #245, ( #312 ) ) ;
#310 = DATE_TIME_ROLE ( 'creation_date' ) ;
#311 = EDGE_LOOP ( 'NONE', ( #152, #164, #94, #19 ) ) ;
#312 = PRODUCT_DEFINITION ( 'NEZNÁMÝ', '', #114, #143 ) ;
#313 = DATE_AND_TIME ( #287, #87 ) ;
#314 = ORIENTED_EDGE ( 'NONE', *, *, #268, .T. ) ;
#315 = COORDINATED_UNIVERSAL_TIME_OFFSET ( 1, 0, .AHEAD. ) ;
#316 = CIRCLE ( 'NONE', #4, 2.600000000000000089 ) ;
#317 = ORIENTED_EDGE ( 'NONE', *, *, #69, .T. ) ;
#318 = VECTOR ( 'NONE', #179, 1000.000000000000000 ) ;
#319 = DIRECTION ( 'NONE',  ( 0.000000000000000000, 0.000000000000000000, 1.000000000000000000 ) ) ;
#320 = PLANE ( 'NONE',  #147 ) ;
#321 = FACE_OUTER_BOUND ( 'NONE', #41, .T. ) ;
#322 = AXIS2_PLACEMENT_3D ( 'NONE', #89, #64, #9 ) ;
#323 = ADVANCED_FACE ( 'NONE', ( #220, #218 ), #93, .F. ) ;
#324 = DIRECTION ( 'NONE',  ( -0.000000000000000000, -0.000000000000000000, -1.000000000000000000 ) ) ;
#325 = CARTESIAN_POINT ( 'NONE',  ( 0.000000000000000000, 0.000000000000000000, 0.000000000000000000 ) ) ;
#326 = DIRECTION ( 'NONE',  ( 1.224646799147353207E-16, 1.000000000000000000, -0.000000000000000000 ) ) ;
#327 = APPLICATION_CONTEXT ( 'configuration controlled 3d designs of mechanical parts and assemblies' ) ;
#328 = DIRECTION ( 'NONE',  ( 0.000000000000000000, 0.000000000000000000, 1.000000000000000000 ) ) ;
#329 =( LENGTH_UNIT ( ) NAMED_UNIT ( * ) SI_UNIT ( .MILLI., .METRE. ) );
#330 = ORIENTED_EDGE ( 'NONE', *, *, #294, .F. ) ;
#331 = FACE_OUTER_BOUND ( 'NONE', #278, .T. ) ;
#332 = LOCAL_TIME ( 11, 8, 11.00000000000000000, #45 ) ;
#333 = FACE_OUTER_BOUND ( 'NONE', #65, .T. ) ;
#334 = ORIENTED_EDGE ( 'NONE', *, *, #237, .F. ) ;
#335 = DIRECTION ( 'NONE',  ( -1.000000000000000000, 0.000000000000000000, 0.000000000000000000 ) ) ;
#336 = VERTEX_POINT ( 'NONE', #127 ) ;
#337 = APPROVAL_STATUS ( 'not_yet_approved' ) ;
#338 = CIRCLE ( 'NONE', #241, 4.000000000000000000 ) ;
#339 = EDGE_LOOP ( 'NONE', ( #330, #27 ) ) ;
#340 = AXIS2_PLACEMENT_3D ( 'NONE', #251, #188, #335 ) ;
#341 = CC_DESIGN_PERSON_AND_ORGANIZATION_ASSIGNMENT ( #280, #261, ( #114 ) ) ;
#342 = PERSON_AND_ORGANIZATION ( #356, #28 ) ;
#343 = CARTESIAN_POINT ( 'NONE',  ( 0.000000000000000000, 0.000000000000000000, 165.0000000000000000 ) ) ;
#344 = EDGE_LOOP ( 'NONE', ( #225, #189 ) ) ;
#345 = PERSON_AND_ORGANIZATION_ROLE ( 'design_supplier' ) ;
#346 = ORIENTED_EDGE ( 'NONE', *, *, #155, .F. ) ;
#347 = CIRCLE ( 'NONE', #359, 7.000000000000000000 ) ;
#348 = APPROVAL_STATUS ( 'not_yet_approved' ) ;
#349 = ORIENTED_EDGE ( 'NONE', *, *, #274, .F. ) ;
#350 = CC_DESIGN_PERSON_AND_ORGANIZATION_ASSIGNMENT ( #168, #23, ( #231 ) ) ;
#351 = DIRECTION ( 'NONE',  ( 1.000000000000000000, 0.000000000000000000, 0.000000000000000000 ) ) ;
#352 = CARTESIAN_POINT ( 'NONE',  ( 0.000000000000000000, 0.000000000000000000, 5.000000000000000000 ) ) ;
#353 = EDGE_CURVE ( 'NONE', #372, #336, #380, .T. ) ;
#354 = AXIS2_PLACEMENT_3D ( 'NONE', #88, #363, #247 ) ;
#355 = DIRECTION ( 'NONE',  ( 1.000000000000000000, 0.000000000000000000, 0.000000000000000000 ) ) ;
#356 = PERSON ( 'NEURÈENÝ', 'NEURÈENÝ', 'NEURÈENÝ', ('NEURÈENÝ'), ('NEURÈENÝ'), ('NEURÈENÝ') ) ;
#357 = DIRECTION ( 'NONE',  ( 0.000000000000000000, 0.000000000000000000, 1.000000000000000000 ) ) ;
#358 = DIRECTION ( 'NONE',  ( 0.000000000000000000, 0.000000000000000000, 1.000000000000000000 ) ) ;
#359 = AXIS2_PLACEMENT_3D ( 'NONE', #151, #328, #246 ) ;
#360 = CYLINDRICAL_SURFACE ( 'NONE', #44, 4.000000000000000000 ) ;
#361 = ORIENTED_EDGE ( 'NONE', *, *, #29, .T. ) ;
#362 = CIRCLE ( 'NONE', #201, 7.000000000000000000 ) ;
#363 = DIRECTION ( 'NONE',  ( 0.000000000000000000, 0.000000000000000000, -1.000000000000000000 ) ) ;
#364 = VERTEX_POINT ( 'NONE', #42 ) ;
#365 = DATE_AND_TIME ( #226, #62 ) ;
#366 = ORIENTED_EDGE ( 'NONE', *, *, #353, .F. ) ;
#367 = EDGE_CURVE ( 'NONE', #215, #11, #303, .T. ) ;
#368 = ADVANCED_FACE ( 'NONE', ( #159, #331 ), #95, .T. ) ;
#369 = COORDINATED_UNIVERSAL_TIME_OFFSET ( 1, 0, .AHEAD. ) ;
#370 = DIRECTION ( 'NONE',  ( 1.000000000000000000, 0.000000000000000000, 0.000000000000000000 ) ) ;
#371 = DATE_TIME_ROLE ( 'classification_date' ) ;
#372 = VERTEX_POINT ( 'NONE', #14 ) ;
#373 = ADVANCED_FACE ( 'NONE', ( #123 ), #277, .T. ) ;
#374 = PERSON_AND_ORGANIZATION_ROLE ( 'creator' ) ;
#375 = DIRECTION ( 'NONE',  ( 0.000000000000000000, 0.000000000000000000, 1.000000000000000000 ) ) ;
#376 = PRODUCT_DEFINITION_SHAPE ( 'NONE', 'NONE',  #312 ) ;
#377 = APPROVAL_DATE_TIME ( #79, #40 ) ;
#378 = VERTEX_POINT ( 'NONE', #216 ) ;
#379 = CIRCLE ( 'NONE', #183, 0.5000000000000004441 ) ;
#380 = CIRCLE ( 'NONE', #33, 4.000000000000000000 ) ;
#381 = DIRECTION ( 'NONE',  ( 1.000000000000000000, 0.000000000000000000, 0.000000000000000000 ) ) ;
ENDSEC;
END-ISO-10303-21;
