ISO-10303-21;
HEADER;
FILE_DESCRIPTION (( 'STEP AP203' ),
    '1' );
FILE_NAME ('6359.STEP',
    '2022-07-10T09:19:13',
    ( '' ),
    ( '' ),
    'SwSTEP 2.0',
    'SolidWorks 2019',
    '' );
FILE_SCHEMA (( 'CONFIG_CONTROL_DESIGN' ));
ENDSEC;

DATA;
#1 = DIRECTION ( 'NONE',  ( -0.000000000000000000, -0.000000000000000000, -1.000000000000000000 ) ) ;
#2 = ADVANCED_FACE ( 'NONE', ( #189 ), #308, .T. ) ;
#3 = DIRECTION ( 'NONE',  ( 1.000000000000000000, 0.000000000000000000, 0.000000000000000000 ) ) ;
#4 = VERTEX_POINT ( 'NONE', #83 ) ;
#5 = CIRCLE ( 'NONE', #45, 2.000000000000000000 ) ;
#6 = DIRECTION ( 'NONE',  ( -0.000000000000000000, -0.000000000000000000, -1.000000000000000000 ) ) ;
#7 = ORIENTED_EDGE ( 'NONE', *, *, #215, .F. ) ;
#8 = DIRECTION ( 'NONE',  ( 1.000000000000000000, 0.000000000000000000, 0.000000000000000000 ) ) ;
#9 = ORIENTED_EDGE ( 'NONE', *, *, #335, .F. ) ;
#10 = DIRECTION ( 'NONE',  ( 0.000000000000000000, 0.000000000000000000, 1.000000000000000000 ) ) ;
#11 = ORIENTED_EDGE ( 'NONE', *, *, #270, .T. ) ;
#12 = CC_DESIGN_APPROVAL ( #141, ( #206 ) ) ;
#13 = CARTESIAN_POINT ( 'NONE',  ( 0.000000000000000000, 0.000000000000000000, 128.0000000000000000 ) ) ;
#14 = ADVANCED_BREP_SHAPE_REPRESENTATION ( '6359', ( #203, #326 ), #312 ) ;
#15 = FACE_OUTER_BOUND ( 'NONE', #338, .T. ) ;
#16 = ADVANCED_FACE ( 'NONE', ( #226, #30 ), #286, .T. ) ;
#17 = CIRCLE ( 'NONE', #91, 1.100000000000000089 ) ;
#18 = CARTESIAN_POINT ( 'NONE',  ( 0.000000000000000000, 0.000000000000000000, 128.0000000000000000 ) ) ;
#19 = EDGE_CURVE ( 'NONE', #105, #22, #193, .T. ) ;
#20 = CARTESIAN_POINT ( 'NONE',  ( 2.000000000000000000, 2.449293598294706414E-16, 128.0000000000000000 ) ) ;
#21 = CARTESIAN_POINT ( 'NONE',  ( 0.000000000000000000, 0.000000000000000000, 128.0000000000000000 ) ) ;
#22 = VERTEX_POINT ( 'NONE', #199 ) ;
#23 = APPROVAL_STATUS ( 'not_yet_approved' ) ;
#24 = APPROVAL_PERSON_ORGANIZATION ( #58, #361, #342 ) ;
#25 = DIRECTION ( 'NONE',  ( -0.000000000000000000, -0.000000000000000000, -1.000000000000000000 ) ) ;
#26 = PERSON_AND_ORGANIZATION ( #302, #152 ) ;
#27 = DIRECTION ( 'NONE',  ( -1.000000000000000000, 0.000000000000000000, 0.000000000000000000 ) ) ;
#28 = AXIS2_PLACEMENT_3D ( 'NONE', #201, #349, #282 ) ;
#29 = VECTOR ( 'NONE', #62, 1000.000000000000000 ) ;
#30 = FACE_OUTER_BOUND ( 'NONE', #36, .T. ) ;
#31 = AXIS2_PLACEMENT_3D ( 'NONE', #187, #275, #103 ) ;
#32 = PERSON_AND_ORGANIZATION ( #302, #152 ) ;
#33 = CARTESIAN_POINT ( 'NONE',  ( -1.100000000000000089, 0.000000000000000000, 128.0000000000000000 ) ) ;
#34 = EDGE_LOOP ( 'NONE', ( #364, #73 ) ) ;
#35 = DIRECTION ( 'NONE',  ( 0.000000000000000000, 0.000000000000000000, 1.000000000000000000 ) ) ;
#36 = EDGE_LOOP ( 'NONE', ( #223, #151 ) ) ;
#37 = APPROVAL_STATUS ( 'not_yet_approved' ) ;
#38 = DIRECTION ( 'NONE',  ( 0.000000000000000000, 0.000000000000000000, -1.000000000000000000 ) ) ;
#39 = AXIS2_PLACEMENT_3D ( 'NONE', #204, #35, #185 ) ;
#40 = DIRECTION ( 'NONE',  ( 1.000000000000000000, 0.000000000000000000, 0.000000000000000000 ) ) ;
#41 = ORIENTED_EDGE ( 'NONE', *, *, #81, .T. ) ;
#42 = CARTESIAN_POINT ( 'NONE',  ( -4.000000000000000000, 0.000000000000000000, 3.000000000000000000 ) ) ;
#43 = COORDINATED_UNIVERSAL_TIME_OFFSET ( 1, 0, .AHEAD. ) ;
#44 = DIRECTION ( 'NONE',  ( 1.000000000000000000, 0.000000000000000000, -0.000000000000000000 ) ) ;
#45 = AXIS2_PLACEMENT_3D ( 'NONE', #303, #299, #134 ) ;
#46 = EDGE_CURVE ( 'NONE', #63, #232, #114, .T. ) ;
#47 = ORIENTED_EDGE ( 'NONE', *, *, #177, .T. ) ;
#48 = DIRECTION ( 'NONE',  ( 0.000000000000000000, 0.000000000000000000, -1.000000000000000000 ) ) ;
#49 = CIRCLE ( 'NONE', #85, 4.000000000000000000 ) ;
#50 = PRODUCT_DEFINITION ( 'NEZNÁMÝ', '', #206, #131 ) ;
#51 = CARTESIAN_POINT ( 'NONE',  ( 0.000000000000000000, 0.000000000000000000, 0.000000000000000000 ) ) ;
#52 = ORIENTED_EDGE ( 'NONE', *, *, #301, .T. ) ;
#53 = COORDINATED_UNIVERSAL_TIME_OFFSET ( 1, 0, .AHEAD. ) ;
#54 = APPROVAL_DATE_TIME ( #107, #361 ) ;
#55 = TOROIDAL_SURFACE ( 'NONE', #300, 2.299999999999999822, 0.2999999999999999889 ) ;
#56 = EDGE_CURVE ( 'NONE', #108, #196, #377, .T. ) ;
#57 = DIRECTION ( 'NONE',  ( -0.000000000000000000, -0.000000000000000000, -1.000000000000000000 ) ) ;
#58 = PERSON_AND_ORGANIZATION ( #302, #152 ) ;
#59 = DIRECTION ( 'NONE',  ( 0.000000000000000000, 0.000000000000000000, -1.000000000000000000 ) ) ;
#60 = DIRECTION ( 'NONE',  ( 1.000000000000000000, 0.000000000000000000, 0.000000000000000000 ) ) ;
#61 = ORIENTED_EDGE ( 'NONE', *, *, #352, .F. ) ;
#62 = DIRECTION ( 'NONE',  ( 0.000000000000000000, 0.000000000000000000, -1.000000000000000000 ) ) ;
#63 = VERTEX_POINT ( 'NONE', #149 ) ;
#64 = CARTESIAN_POINT ( 'NONE',  ( 1.100000000000000089, 1.347111479062088503E-16, 128.0000000000000000 ) ) ;
#65 = APPROVAL_ROLE ( '' ) ;
#66 = CIRCLE ( 'NONE', #173, 2.000000000000000000 ) ;
#67 = ORIENTED_EDGE ( 'NONE', *, *, #56, .T. ) ;
#68 = CARTESIAN_POINT ( 'NONE',  ( 0.000000000000000000, 0.000000000000000000, 0.000000000000000000 ) ) ;
#69 = ADVANCED_FACE ( 'NONE', ( #252 ), #256, .T. ) ;
#70 = CARTESIAN_POINT ( 'NONE',  ( 0.000000000000000000, 0.000000000000000000, 3.000000000000000000 ) ) ;
#71 = EDGE_CURVE ( 'NONE', #4, #276, #278, .T. ) ;
#72 = ORIENTED_EDGE ( 'NONE', *, *, #71, .T. ) ;
#73 = ORIENTED_EDGE ( 'NONE', *, *, #218, .F. ) ;
#74 = CARTESIAN_POINT ( 'NONE',  ( 0.000000000000000000, 0.000000000000000000, 3.000000000000000000 ) ) ;
#75 = ORIENTED_EDGE ( 'NONE', *, *, #242, .T. ) ;
#76 = CC_DESIGN_APPROVAL ( #361, ( #50 ) ) ;
#77 = CARTESIAN_POINT ( 'NONE',  ( 0.000000000000000000, 0.000000000000000000, 3.000000000000000000 ) ) ;
#78 = VECTOR ( 'NONE', #57, 1000.000000000000000 ) ;
#79 = DIRECTION ( 'NONE',  ( 1.000000000000000000, 0.000000000000000000, 0.000000000000000000 ) ) ;
#80 = EDGE_LOOP ( 'NONE', ( #41, #325, #257, #181 ) ) ;
#81 = EDGE_CURVE ( 'NONE', #108, #323, #17, .T. ) ;
#82 = PERSON_AND_ORGANIZATION_ROLE ( 'design_owner' ) ;
#83 = CARTESIAN_POINT ( 'NONE',  ( 4.000000000000000000, 4.898587196589412829E-16, 3.000000000000000000 ) ) ;
#84 = EDGE_CURVE ( 'NONE', #296, #210, #66, .T. ) ;
#85 = AXIS2_PLACEMENT_3D ( 'NONE', #51, #274, #246 ) ;
#86 = CIRCLE ( 'NONE', #31, 0.2999999999999999334 ) ;
#87 = CARTESIAN_POINT ( 'NONE',  ( 0.000000000000000000, 0.000000000000000000, 128.0000000000000000 ) ) ;
#88 = CARTESIAN_POINT ( 'NONE',  ( 0.000000000000000000, 0.000000000000000000, 3.000000000000000000 ) ) ;
#89 = COORDINATED_UNIVERSAL_TIME_OFFSET ( 1, 0, .AHEAD. ) ;
#90 = PLANE ( 'NONE',  #39 ) ;
#91 = AXIS2_PLACEMENT_3D ( 'NONE', #170, #117, #113 ) ;
#92 = AXIS2_PLACEMENT_3D ( 'NONE', #13, #363, #288 ) ;
#93 = FACE_OUTER_BOUND ( 'NONE', #330, .T. ) ;
#94 = ORIENTED_EDGE ( 'NONE', *, *, #19, .T. ) ;
#95 = CARTESIAN_POINT ( 'NONE',  ( 0.000000000000000000, 0.000000000000000000, 0.000000000000000000 ) ) ;
#96 = ORIENTED_EDGE ( 'NONE', *, *, #46, .T. ) ;
#97 = ADVANCED_FACE ( 'NONE', ( #281 ), #140, .T. ) ;
#98 = SHAPE_DEFINITION_REPRESENTATION ( #267, #14 ) ;
#99 = CARTESIAN_POINT ( 'NONE',  ( 2.000000000000000000, 2.449293598294706414E-16, 128.0000000000000000 ) ) ;
#100 = ORIENTED_EDGE ( 'NONE', *, *, #84, .F. ) ;
#101 = PRODUCT_RELATED_PRODUCT_CATEGORY ( 'detail', '', ( #111 ) ) ;
#102 =( LENGTH_UNIT ( ) NAMED_UNIT ( * ) SI_UNIT ( .MILLI., .METRE. ) );
#103 = DIRECTION ( 'NONE',  ( -1.000000000000000000, 1.224646799147353207E-16, 0.000000000000000000 ) ) ;
#104 = CIRCLE ( 'NONE', #234, 2.299999999999999822 ) ;
#105 = VERTEX_POINT ( 'NONE', #251 ) ;
#106 = VECTOR ( 'NONE', #235, 1000.000000000000000 ) ;
#107 = DATE_AND_TIME ( #166, #200 ) ;
#108 = VERTEX_POINT ( 'NONE', #33 ) ;
#109 = APPROVAL ( #37, 'NEURÈENÝ' ) ;
#110 = ADVANCED_FACE ( 'NONE', ( #143 ), #343, .F. ) ;
#111 = PRODUCT ( '6359', '6359', '', ( #285 ) ) ;
#112 = SECURITY_CLASSIFICATION_LEVEL ( 'unclassified' ) ;
#113 = DIRECTION ( 'NONE',  ( 1.000000000000000000, 0.000000000000000000, 0.000000000000000000 ) ) ;
#114 = CIRCLE ( 'NONE', #357, 2.000000000000000000 ) ;
#115 = APPLICATION_PROTOCOL_DEFINITION ( 'international standard', 'config_control_design', 1994, #260 ) ;
#116 = LOCAL_TIME ( 11, 19, 13.00000000000000000, #89 ) ;
#117 = DIRECTION ( 'NONE',  ( 0.000000000000000000, 0.000000000000000000, 1.000000000000000000 ) ) ;
#118 = ORIENTED_EDGE ( 'NONE', *, *, #335, .T. ) ;
#119 = DIRECTION ( 'NONE',  ( 0.000000000000000000, 0.000000000000000000, 1.000000000000000000 ) ) ;
#120 = DIRECTION ( 'NONE',  ( 0.000000000000000000, 0.000000000000000000, 1.000000000000000000 ) ) ;
#121 = FACE_BOUND ( 'NONE', #346, .T. ) ;
#122 = AXIS2_PLACEMENT_3D ( 'NONE', #70, #259, #3 ) ;
#123 = EDGE_CURVE ( 'NONE', #22, #105, #104, .T. ) ;
#124 = CARTESIAN_POINT ( 'NONE',  ( 0.000000000000000000, 0.000000000000000000, 3.299999999999997158 ) ) ;
#125 = CALENDAR_DATE ( 2022, 10, 7 ) ;
#126 = PLANE ( 'NONE',  #268 ) ;
#127 = AXIS2_PLACEMENT_3D ( 'NONE', #87, #59, #314 ) ;
#128 = CIRCLE ( 'NONE', #138, 1.100000000000000089 ) ;
#129 = ADVANCED_FACE ( 'NONE', ( #283, #348 ), #90, .T. ) ;
#130 = DIRECTION ( 'NONE',  ( 0.000000000000000000, 0.000000000000000000, 1.000000000000000000 ) ) ;
#131 = DESIGN_CONTEXT ( 'detailed design', #260, 'design' ) ;
#132 = DIRECTION ( 'NONE',  ( -1.000000000000000000, 0.000000000000000000, 0.000000000000000000 ) ) ;
#133 = ADVANCED_FACE ( 'NONE', ( #327 ), #292, .F. ) ;
#134 = DIRECTION ( 'NONE',  ( 1.000000000000000000, 0.000000000000000000, 0.000000000000000000 ) ) ;
#135 = CARTESIAN_POINT ( 'NONE',  ( 4.000000000000000000, 4.898587196589412829E-16, 0.000000000000000000 ) ) ;
#136 = EDGE_CURVE ( 'NONE', #210, #63, #320, .T. ) ;
#137 = EDGE_LOOP ( 'NONE', ( #7, #266, #67, #179 ) ) ;
#138 = AXIS2_PLACEMENT_3D ( 'NONE', #68, #294, #40 ) ;
#139 = COORDINATED_UNIVERSAL_TIME_OFFSET ( 1, 0, .AHEAD. ) ;
#140 = CYLINDRICAL_SURFACE ( 'NONE', #265, 4.000000000000000000 ) ;
#141 = APPROVAL ( #23, 'NEURÈENÝ' ) ;
#142 = PERSON_AND_ORGANIZATION_ROLE ( 'creator' ) ;
#143 = FACE_OUTER_BOUND ( 'NONE', #80, .T. ) ;
#144 = CARTESIAN_POINT ( 'NONE',  ( 0.000000000000000000, 0.000000000000000000, 0.000000000000000000 ) ) ;
#145 = DIRECTION ( 'NONE',  ( 1.000000000000000000, 0.000000000000000000, -0.000000000000000000 ) ) ;
#146 = AXIS2_PLACEMENT_3D ( 'NONE', #161, #271, #380 ) ;
#147 = DIRECTION ( 'NONE',  ( -1.000000000000000000, 0.000000000000000000, 0.000000000000000000 ) ) ;
#148 = ORIENTED_EDGE ( 'NONE', *, *, #136, .F. ) ;
#149 = CARTESIAN_POINT ( 'NONE',  ( -2.000000000000000000, 0.000000000000000000, 3.299999999999997158 ) ) ;
#150 = ORIENTED_EDGE ( 'NONE', *, *, #205, .F. ) ;
#151 = ORIENTED_EDGE ( 'NONE', *, *, #84, .T. ) ;
#152 = ORGANIZATION ( 'NEURÈENÝ', 'NEURÈENÝ', '' ) ;
#153 = DIRECTION ( 'NONE',  ( 0.000000000000000000, -1.000000000000000000, 0.000000000000000000 ) ) ;
#154 = ORIENTED_EDGE ( 'NONE', *, *, #237, .F. ) ;
#155 = COORDINATED_UNIVERSAL_TIME_OFFSET ( 1, 0, .AHEAD. ) ;
#156 = ORIENTED_EDGE ( 'NONE', *, *, #242, .F. ) ;
#157 = CC_DESIGN_PERSON_AND_ORGANIZATION_ASSIGNMENT ( #26, #142, ( #206 ) ) ;
#158 = LINE ( 'NONE', #64, #159 ) ;
#159 = VECTOR ( 'NONE', #178, 1000.000000000000000 ) ;
#160 = DIRECTION ( 'NONE',  ( 1.000000000000000000, 0.000000000000000000, 0.000000000000000000 ) ) ;
#161 = CARTESIAN_POINT ( 'NONE',  ( 0.000000000000000000, 0.000000000000000000, 128.0000000000000000 ) ) ;
#162 = CARTESIAN_POINT ( 'NONE',  ( -4.000000000000000000, 0.000000000000000000, 3.000000000000000000 ) ) ;
#163 = LOCAL_TIME ( 11, 19, 13.00000000000000000, #139 ) ;
#164 = CARTESIAN_POINT ( 'NONE',  ( -4.000000000000000000, 0.000000000000000000, 0.000000000000000000 ) ) ;
#165 = CARTESIAN_POINT ( 'NONE',  ( 0.000000000000000000, 0.000000000000000000, 0.000000000000000000 ) ) ;
#166 = CALENDAR_DATE ( 2022, 10, 7 ) ;
#167 = CARTESIAN_POINT ( 'NONE',  ( 0.000000000000000000, 0.000000000000000000, 128.0000000000000000 ) ) ;
#168 = CC_DESIGN_SECURITY_CLASSIFICATION ( #212, ( #206 ) ) ;
#169 = APPROVAL_DATE_TIME ( #313, #141 ) ;
#170 = CARTESIAN_POINT ( 'NONE',  ( 0.000000000000000000, 0.000000000000000000, 128.0000000000000000 ) ) ;
#171 = PERSON_AND_ORGANIZATION_ROLE ( 'creator' ) ;
#172 = EDGE_CURVE ( 'NONE', #258, #196, #304, .T. ) ;
#173 = AXIS2_PLACEMENT_3D ( 'NONE', #174, #119, #231 ) ;
#174 = CARTESIAN_POINT ( 'NONE',  ( 0.000000000000000000, 0.000000000000000000, 128.0000000000000000 ) ) ;
#175 = EDGE_CURVE ( 'NONE', #232, #22, #279, .T. ) ;
#176 = ORIENTED_EDGE ( 'NONE', *, *, #123, .F. ) ;
#177 = EDGE_CURVE ( 'NONE', #350, #4, #351, .T. ) ;
#178 = DIRECTION ( 'NONE',  ( 0.000000000000000000, 0.000000000000000000, -1.000000000000000000 ) ) ;
#179 = ORIENTED_EDGE ( 'NONE', *, *, #237, .T. ) ;
#180 = CARTESIAN_POINT ( 'NONE',  ( 2.299999999999999822, 0.000000000000000000, 3.299999999999997158 ) ) ;
#181 = ORIENTED_EDGE ( 'NONE', *, *, #56, .F. ) ;
#182 = CARTESIAN_POINT ( 'NONE',  ( 0.000000000000000000, 0.000000000000000000, 0.000000000000000000 ) ) ;
#183 = ORIENTED_EDGE ( 'NONE', *, *, #136, .T. ) ;
#184 = EDGE_CURVE ( 'NONE', #350, #298, #329, .T. ) ;
#185 = DIRECTION ( 'NONE',  ( 1.000000000000000000, 0.000000000000000000, -0.000000000000000000 ) ) ;
#186 = EDGE_LOOP ( 'NONE', ( #47, #75 ) ) ;
#187 = CARTESIAN_POINT ( 'NONE',  ( -2.299999999999999822, 2.816687638038912056E-16, 3.299999999999997158 ) ) ;
#188 = AXIS2_PLACEMENT_3D ( 'NONE', #165, #190, #160 ) ;
#189 = FACE_OUTER_BOUND ( 'NONE', #217, .T. ) ;
#190 = DIRECTION ( 'NONE',  ( 0.000000000000000000, 0.000000000000000000, 1.000000000000000000 ) ) ;
#191 = ADVANCED_FACE ( 'NONE', ( #121, #93 ), #126, .F. ) ;
#192 =( NAMED_UNIT ( * ) PLANE_ANGLE_UNIT ( ) SI_UNIT ( $, .RADIAN. ) );
#193 = CIRCLE ( 'NONE', #28, 2.299999999999999822 ) ;
#194 = CIRCLE ( 'NONE', #261, 2.000000000000000000 ) ;
#195 = CYLINDRICAL_SURFACE ( 'NONE', #319, 4.000000000000000000 ) ;
#196 = VERTEX_POINT ( 'NONE', #239 ) ;
#197 = ORIENTED_EDGE ( 'NONE', *, *, #270, .F. ) ;
#198 = APPROVAL_ROLE ( '' ) ;
#199 = CARTESIAN_POINT ( 'NONE',  ( 2.299999999999999822, 0.000000000000000000, 2.999999999999998668 ) ) ;
#200 = LOCAL_TIME ( 11, 19, 13.00000000000000000, #53 ) ;
#201 = CARTESIAN_POINT ( 'NONE',  ( 0.000000000000000000, 0.000000000000000000, 3.000000000000000000 ) ) ;
#202 = ORIENTED_EDGE ( 'NONE', *, *, #371, .T. ) ;
#203 = MANIFOLD_SOLID_BREP ( 'Odebrat vysunutím3', #277 ) ;
#204 = CARTESIAN_POINT ( 'NONE',  ( 0.000000000000000000, 0.000000000000000000, 3.000000000000000000 ) ) ;
#205 = EDGE_CURVE ( 'NONE', #296, #232, #360, .T. ) ;
#206 = PRODUCT_DEFINITION_FORMATION_WITH_SPECIFIED_SOURCE ( 'LIBOVOLNÝ', '', #111, .NOT_KNOWN. ) ;
#207 = CARTESIAN_POINT ( 'NONE',  ( 0.000000000000000000, 0.000000000000000000, 128.0000000000000000 ) ) ;
#208 = CC_DESIGN_DATE_AND_TIME_ASSIGNMENT ( #372, #347, ( #50 ) ) ;
#209 = DATE_AND_TIME ( #359, #254 ) ;
#210 = VERTEX_POINT ( 'NONE', #214 ) ;
#211 = APPROVAL_DATE_TIME ( #263, #109 ) ;
#212 = SECURITY_CLASSIFICATION ( '', '', #112 ) ;
#213 = EDGE_LOOP ( 'NONE', ( #247, #202, #176, #370 ) ) ;
#214 = CARTESIAN_POINT ( 'NONE',  ( -2.000000000000000000, 0.000000000000000000, 128.0000000000000000 ) ) ;
#215 = EDGE_CURVE ( 'NONE', #323, #258, #158, .T. ) ;
#216 = ORIENTED_EDGE ( 'NONE', *, *, #184, .F. ) ;
#217 = EDGE_LOOP ( 'NONE', ( #100, #291, #11, #148 ) ) ;
#218 = EDGE_CURVE ( 'NONE', #323, #108, #249, .T. ) ;
#219 = CIRCLE ( 'NONE', #188, 4.000000000000000000 ) ;
#220 = DIRECTION ( 'NONE',  ( -0.000000000000000000, -0.000000000000000000, -1.000000000000000000 ) ) ;
#221 =( NAMED_UNIT ( * ) SI_UNIT ( $, .STERADIAN. ) SOLID_ANGLE_UNIT ( ) );
#222 = DIRECTION ( 'NONE',  ( -1.000000000000000000, 0.000000000000000000, 0.000000000000000000 ) ) ;
#223 = ORIENTED_EDGE ( 'NONE', *, *, #352, .T. ) ;
#224 = ADVANCED_FACE ( 'NONE', ( #353 ), #55, .F. ) ;
#225 = EDGE_LOOP ( 'NONE', ( #156, #72, #118, #216 ) ) ;
#226 = FACE_BOUND ( 'NONE', #34, .T. ) ;
#227 = CIRCLE ( 'NONE', #337, 4.000000000000000000 ) ;
#228 = PERSON_AND_ORGANIZATION_ROLE ( 'classification_officer' ) ;
#229 = CARTESIAN_POINT ( 'NONE',  ( 0.000000000000000000, 0.000000000000000000, 3.299999999999997158 ) ) ;
#230 = CALENDAR_DATE ( 2022, 10, 7 ) ;
#231 = DIRECTION ( 'NONE',  ( 1.000000000000000000, 0.000000000000000000, 0.000000000000000000 ) ) ;
#232 = VERTEX_POINT ( 'NONE', #290 ) ;
#233 = PERSON_AND_ORGANIZATION ( #302, #152 ) ;
#234 = AXIS2_PLACEMENT_3D ( 'NONE', #88, #315, #60 ) ;
#235 = DIRECTION ( 'NONE',  ( -0.000000000000000000, -0.000000000000000000, -1.000000000000000000 ) ) ;
#236 = CC_DESIGN_DATE_AND_TIME_ASSIGNMENT ( #209, #381, ( #212 ) ) ;
#237 = EDGE_CURVE ( 'NONE', #196, #258, #128, .T. ) ;
#238 = AXIS2_PLACEMENT_3D ( 'NONE', #167, #1, #147 ) ;
#239 = CARTESIAN_POINT ( 'NONE',  ( -1.100000000000000089, 0.000000000000000000, 0.000000000000000000 ) ) ;
#240 = VECTOR ( 'NONE', #264, 1000.000000000000000 ) ;
#241 = DIRECTION ( 'NONE',  ( 0.000000000000000000, 0.000000000000000000, 1.000000000000000000 ) ) ;
#242 = EDGE_CURVE ( 'NONE', #4, #350, #227, .T. ) ;
#243 = APPLICATION_CONTEXT ( 'configuration controlled 3d designs of mechanical parts and assemblies' ) ;
#244 = CC_DESIGN_PERSON_AND_ORGANIZATION_ASSIGNMENT ( #376, #228, ( #212 ) ) ;
#245 = AXIS2_PLACEMENT_3D ( 'NONE', #180, #153, #38 ) ;
#246 = DIRECTION ( 'NONE',  ( 1.000000000000000000, 0.000000000000000000, 0.000000000000000000 ) ) ;
#247 = ORIENTED_EDGE ( 'NONE', *, *, #46, .F. ) ;
#248 = EDGE_LOOP ( 'NONE', ( #355, #94 ) ) ;
#249 = CIRCLE ( 'NONE', #92, 1.100000000000000089 ) ;
#250 = APPROVAL_STATUS ( 'not_yet_approved' ) ;
#251 = CARTESIAN_POINT ( 'NONE',  ( -2.299999999999999822, 2.816687638038912056E-16, 2.999999999999998668 ) ) ;
#252 = FACE_OUTER_BOUND ( 'NONE', #328, .T. ) ;
#253 = PERSON_AND_ORGANIZATION_ROLE ( 'design_supplier' ) ;
#254 = LOCAL_TIME ( 11, 19, 13.00000000000000000, #43 ) ;
#255 = APPLICATION_PROTOCOL_DEFINITION ( 'international standard', 'config_control_design', 1994, #243 ) ;
#256 = CYLINDRICAL_SURFACE ( 'NONE', #238, 2.000000000000000000 ) ;
#257 = ORIENTED_EDGE ( 'NONE', *, *, #172, .T. ) ;
#258 = VERTEX_POINT ( 'NONE', #272 ) ;
#259 = DIRECTION ( 'NONE',  ( 0.000000000000000000, 0.000000000000000000, 1.000000000000000000 ) ) ;
#260 = APPLICATION_CONTEXT ( 'configuration controlled 3d designs of mechanical parts and assemblies' ) ;
#261 = AXIS2_PLACEMENT_3D ( 'NONE', #18, #130, #333 ) ;
#262 = CARTESIAN_POINT ( 'NONE',  ( -2.000000000000000000, 0.000000000000000000, 128.0000000000000000 ) ) ;
#263 = DATE_AND_TIME ( #125, #365 ) ;
#264 = DIRECTION ( 'NONE',  ( -0.000000000000000000, -0.000000000000000000, -1.000000000000000000 ) ) ;
#265 = AXIS2_PLACEMENT_3D ( 'NONE', #345, #25, #27 ) ;
#266 = ORIENTED_EDGE ( 'NONE', *, *, #218, .T. ) ;
#267 = PRODUCT_DEFINITION_SHAPE ( 'NONE', 'NONE',  #50 ) ;
#268 = AXIS2_PLACEMENT_3D ( 'NONE', #95, #241, #44 ) ;
#269 = ORIENTED_EDGE ( 'NONE', *, *, #172, .F. ) ;
#270 = EDGE_CURVE ( 'NONE', #232, #63, #5, .T. ) ;
#271 = DIRECTION ( 'NONE',  ( -0.000000000000000000, -0.000000000000000000, -1.000000000000000000 ) ) ;
#272 = CARTESIAN_POINT ( 'NONE',  ( 1.100000000000000089, 1.347111479062088503E-16, 0.000000000000000000 ) ) ;
#273 = AXIS2_PLACEMENT_3D ( 'NONE', #182, #6, #8 ) ;
#274 = DIRECTION ( 'NONE',  ( 0.000000000000000000, 0.000000000000000000, 1.000000000000000000 ) ) ;
#275 = DIRECTION ( 'NONE',  ( 1.224646799147353207E-16, 1.000000000000000000, -0.000000000000000000 ) ) ;
#276 = VERTEX_POINT ( 'NONE', #135 ) ;
#277 = CLOSED_SHELL ( 'NONE', ( #110, #224, #2, #97, #305, #129, #191, #69, #16, #133, #375 ) ) ;
#278 = LINE ( 'NONE', #374, #78 ) ;
#279 = CIRCLE ( 'NONE', #245, 0.2999999999999999334 ) ;
#280 = PERSON_AND_ORGANIZATION ( #302, #152 ) ;
#281 = FACE_OUTER_BOUND ( 'NONE', #225, .T. ) ;
#282 = DIRECTION ( 'NONE',  ( 1.000000000000000000, 0.000000000000000000, 0.000000000000000000 ) ) ;
#283 = FACE_BOUND ( 'NONE', #248, .T. ) ;
#284 = CC_DESIGN_PERSON_AND_ORGANIZATION_ASSIGNMENT ( #379, #171, ( #50 ) ) ;
#285 = MECHANICAL_CONTEXT ( 'NONE', #243, 'mechanical' ) ;
#286 = PLANE ( 'NONE',  #356 ) ;
#287 = ORIENTED_EDGE ( 'NONE', *, *, #175, .T. ) ;
#288 = DIRECTION ( 'NONE',  ( 1.000000000000000000, 0.000000000000000000, 0.000000000000000000 ) ) ;
#289 = ORIENTED_EDGE ( 'NONE', *, *, #301, .F. ) ;
#290 = CARTESIAN_POINT ( 'NONE',  ( 2.000000000000000000, 2.449293598294706414E-16, 3.299999999999997158 ) ) ;
#291 = ORIENTED_EDGE ( 'NONE', *, *, #205, .T. ) ;
#292 = TOROIDAL_SURFACE ( 'NONE', #358, 2.299999999999999822, 0.2999999999999999889 ) ;
#293 = CC_DESIGN_APPROVAL ( #109, ( #212 ) ) ;
#294 = DIRECTION ( 'NONE',  ( -0.000000000000000000, -0.000000000000000000, -1.000000000000000000 ) ) ;
#295 = DIRECTION ( 'NONE',  ( -0.000000000000000000, -0.000000000000000000, -1.000000000000000000 ) ) ;
#296 = VERTEX_POINT ( 'NONE', #20 ) ;
#297 = CARTESIAN_POINT ( 'NONE',  ( 0.000000000000000000, 0.000000000000000000, 3.299999999999997158 ) ) ;
#298 = VERTEX_POINT ( 'NONE', #164 ) ;
#299 = DIRECTION ( 'NONE',  ( 0.000000000000000000, 0.000000000000000000, 1.000000000000000000 ) ) ;
#300 = AXIS2_PLACEMENT_3D ( 'NONE', #124, #354, #324 ) ;
#301 = EDGE_CURVE ( 'NONE', #298, #276, #49, .T. ) ;
#302 = PERSON ( 'NEURÈENÝ', 'NEURÈENÝ', 'NEURÈENÝ', ('NEURÈENÝ'), ('NEURÈENÝ'), ('NEURÈENÝ') ) ;
#303 = CARTESIAN_POINT ( 'NONE',  ( 0.000000000000000000, 0.000000000000000000, 3.299999999999997158 ) ) ;
#304 = CIRCLE ( 'NONE', #273, 1.100000000000000089 ) ;
#305 = ADVANCED_FACE ( 'NONE', ( #15 ), #195, .T. ) ;
#306 = CARTESIAN_POINT ( 'NONE',  ( 1.100000000000000089, 1.347111479062088503E-16, 128.0000000000000000 ) ) ;
#307 = ORIENTED_EDGE ( 'NONE', *, *, #184, .T. ) ;
#308 = CYLINDRICAL_SURFACE ( 'NONE', #146, 2.000000000000000000 ) ;
#309 = CALENDAR_DATE ( 2022, 10, 7 ) ;
#310 = CC_DESIGN_PERSON_AND_ORGANIZATION_ASSIGNMENT ( #32, #82, ( #111 ) ) ;
#311 = DIRECTION ( 'NONE',  ( 1.000000000000000000, 0.000000000000000000, 0.000000000000000000 ) ) ;
#312 =( GEOMETRIC_REPRESENTATION_CONTEXT ( 3 ) GLOBAL_UNCERTAINTY_ASSIGNED_CONTEXT ( ( #336 ) ) GLOBAL_UNIT_ASSIGNED_CONTEXT ( ( #102, #192, #221 ) ) REPRESENTATION_CONTEXT ( 'NONE', 'WORKASPACE' ) );
#313 = DATE_AND_TIME ( #309, #116 ) ;
#314 = DIRECTION ( 'NONE',  ( -1.000000000000000000, 0.000000000000000000, 0.000000000000000000 ) ) ;
#315 = DIRECTION ( 'NONE',  ( -0.000000000000000000, -0.000000000000000000, -1.000000000000000000 ) ) ;
#316 = ORIENTED_EDGE ( 'NONE', *, *, #177, .F. ) ;
#317 = DIRECTION ( 'NONE',  ( 0.000000000000000000, 0.000000000000000000, 1.000000000000000000 ) ) ;
#318 = CARTESIAN_POINT ( 'NONE',  ( -1.100000000000000089, 0.000000000000000000, 128.0000000000000000 ) ) ;
#319 = AXIS2_PLACEMENT_3D ( 'NONE', #74, #220, #222 ) ;
#320 = LINE ( 'NONE', #262, #240 ) ;
#321 = ORIENTED_EDGE ( 'NONE', *, *, #19, .F. ) ;
#322 = DIRECTION ( 'NONE',  ( 1.000000000000000000, 0.000000000000000000, 0.000000000000000000 ) ) ;
#323 = VERTEX_POINT ( 'NONE', #306 ) ;
#324 = DIRECTION ( 'NONE',  ( 1.000000000000000000, 0.000000000000000000, 0.000000000000000000 ) ) ;
#325 = ORIENTED_EDGE ( 'NONE', *, *, #215, .T. ) ;
#326 = AXIS2_PLACEMENT_3D ( 'NONE', #144, #317, #340 ) ;
#327 = FACE_OUTER_BOUND ( 'NONE', #339, .T. ) ;
#328 = EDGE_LOOP ( 'NONE', ( #150, #61, #183, #96 ) ) ;
#329 = LINE ( 'NONE', #42, #369 ) ;
#330 = EDGE_LOOP ( 'NONE', ( #289, #9 ) ) ;
#331 = CC_DESIGN_PERSON_AND_ORGANIZATION_ASSIGNMENT ( #373, #253, ( #206 ) ) ;
#332 = ORIENTED_EDGE ( 'NONE', *, *, #71, .F. ) ;
#333 = DIRECTION ( 'NONE',  ( 1.000000000000000000, 0.000000000000000000, 0.000000000000000000 ) ) ;
#334 = AXIS2_PLACEMENT_3D ( 'NONE', #21, #48, #132 ) ;
#335 = EDGE_CURVE ( 'NONE', #276, #298, #219, .T. ) ;
#336 = UNCERTAINTY_MEASURE_WITH_UNIT (LENGTH_MEASURE( 1.000000000000000082E-05 ), #102, 'distance_accuracy_value', 'NONE');
#337 = AXIS2_PLACEMENT_3D ( 'NONE', #77, #366, #79 ) ;
#338 = EDGE_LOOP ( 'NONE', ( #332, #316, #307, #52 ) ) ;
#339 = EDGE_LOOP ( 'NONE', ( #362, #197, #287, #321 ) ) ;
#340 = DIRECTION ( 'NONE',  ( 1.000000000000000000, 0.000000000000000000, 0.000000000000000000 ) ) ;
#341 = DIRECTION ( 'NONE',  ( 0.000000000000000000, 0.000000000000000000, 1.000000000000000000 ) ) ;
#342 = APPROVAL_ROLE ( '' ) ;
#343 = CYLINDRICAL_SURFACE ( 'NONE', #127, 1.100000000000000089 ) ;
#344 = APPROVAL_PERSON_ORGANIZATION ( #233, #109, #65 ) ;
#345 = CARTESIAN_POINT ( 'NONE',  ( 0.000000000000000000, 0.000000000000000000, 3.000000000000000000 ) ) ;
#346 = EDGE_LOOP ( 'NONE', ( #154, #269 ) ) ;
#347 = DATE_TIME_ROLE ( 'creation_date' ) ;
#348 = FACE_OUTER_BOUND ( 'NONE', #186, .T. ) ;
#349 = DIRECTION ( 'NONE',  ( -0.000000000000000000, -0.000000000000000000, -1.000000000000000000 ) ) ;
#350 = VERTEX_POINT ( 'NONE', #162 ) ;
#351 = CIRCLE ( 'NONE', #122, 4.000000000000000000 ) ;
#352 = EDGE_CURVE ( 'NONE', #210, #296, #194, .T. ) ;
#353 = FACE_OUTER_BOUND ( 'NONE', #213, .T. ) ;
#354 = DIRECTION ( 'NONE',  ( 0.000000000000000000, 0.000000000000000000, 1.000000000000000000 ) ) ;
#355 = ORIENTED_EDGE ( 'NONE', *, *, #123, .T. ) ;
#356 = AXIS2_PLACEMENT_3D ( 'NONE', #207, #341, #145 ) ;
#357 = AXIS2_PLACEMENT_3D ( 'NONE', #229, #120, #311 ) ;
#358 = AXIS2_PLACEMENT_3D ( 'NONE', #297, #10, #322 ) ;
#359 = CALENDAR_DATE ( 2022, 10, 7 ) ;
#360 = LINE ( 'NONE', #99, #106 ) ;
#361 = APPROVAL ( #250, 'NEURÈENÝ' ) ;
#362 = ORIENTED_EDGE ( 'NONE', *, *, #371, .F. ) ;
#363 = DIRECTION ( 'NONE',  ( 0.000000000000000000, 0.000000000000000000, 1.000000000000000000 ) ) ;
#364 = ORIENTED_EDGE ( 'NONE', *, *, #81, .F. ) ;
#365 = LOCAL_TIME ( 11, 19, 13.00000000000000000, #155 ) ;
#366 = DIRECTION ( 'NONE',  ( 0.000000000000000000, 0.000000000000000000, 1.000000000000000000 ) ) ;
#367 = CYLINDRICAL_SURFACE ( 'NONE', #334, 1.100000000000000089 ) ;
#368 = FACE_OUTER_BOUND ( 'NONE', #137, .T. ) ;
#369 = VECTOR ( 'NONE', #295, 1000.000000000000000 ) ;
#370 = ORIENTED_EDGE ( 'NONE', *, *, #175, .F. ) ;
#371 = EDGE_CURVE ( 'NONE', #63, #105, #86, .T. ) ;
#372 = DATE_AND_TIME ( #230, #163 ) ;
#373 = PERSON_AND_ORGANIZATION ( #302, #152 ) ;
#374 = CARTESIAN_POINT ( 'NONE',  ( 4.000000000000000000, 4.898587196589412829E-16, 3.000000000000000000 ) ) ;
#375 = ADVANCED_FACE ( 'NONE', ( #368 ), #367, .F. ) ;
#376 = PERSON_AND_ORGANIZATION ( #302, #152 ) ;
#377 = LINE ( 'NONE', #318, #29 ) ;
#378 = APPROVAL_PERSON_ORGANIZATION ( #280, #141, #198 ) ;
#379 = PERSON_AND_ORGANIZATION ( #302, #152 ) ;
#380 = DIRECTION ( 'NONE',  ( -1.000000000000000000, 0.000000000000000000, 0.000000000000000000 ) ) ;
#381 = DATE_TIME_ROLE ( 'classification_date' ) ;
ENDSEC;
END-ISO-10303-21;
