ISO-10303-21;
HEADER;
FILE_DESCRIPTION (( 'STEP AP203' ),
    '1' );
FILE_NAME ('5481.STEP',
    '2022-07-10T09:14:24',
    ( '' ),
    ( '' ),
    'SwSTEP 2.0',
    'SolidWorks 2019',
    '' );
FILE_SCHEMA (( 'CONFIG_CONTROL_DESIGN' ));
ENDSEC;

DATA;
#1 = DATE_TIME_ROLE ( 'classification_date' ) ;
#2 = ORIENTED_EDGE ( 'NONE', *, *, #199, .T. ) ;
#3 = PERSON_AND_ORGANIZATION_ROLE ( 'design_supplier' ) ;
#4 = CARTESIAN_POINT ( 'NONE',  ( 0.000000000000000000, 0.000000000000000000, 0.000000000000000000 ) ) ;
#5 = AXIS2_PLACEMENT_3D ( 'NONE', #200, #134, #19 ) ;
#6 = LOCAL_TIME ( 11, 14, 24.00000000000000000, #88 ) ;
#7 = ADVANCED_FACE ( 'NONE', ( #155 ), #311, .F. ) ;
#8 = CARTESIAN_POINT ( 'NONE',  ( 0.000000000000000000, 0.000000000000000000, 5.000000000000000000 ) ) ;
#9 = CALENDAR_DATE ( 2022, 10, 7 ) ;
#10 = DIRECTION ( 'NONE',  ( 0.000000000000000000, 0.000000000000000000, 1.000000000000000000 ) ) ;
#11 = CARTESIAN_POINT ( 'NONE',  ( -2.000000000000000000, 0.000000000000000000, 130.0000000000000000 ) ) ;
#12 =( GEOMETRIC_REPRESENTATION_CONTEXT ( 3 ) GLOBAL_UNCERTAINTY_ASSIGNED_CONTEXT ( ( #114 ) ) GLOBAL_UNIT_ASSIGNED_CONTEXT ( ( #86, #203, #149 ) ) REPRESENTATION_CONTEXT ( 'NONE', 'WORKASPACE' ) );
#13 = DIRECTION ( 'NONE',  ( 1.000000000000000000, 0.000000000000000000, 0.000000000000000000 ) ) ;
#14 = PRODUCT_DEFINITION ( 'NEZNÁMÝ', '', #352, #205 ) ;
#15 = LINE ( 'NONE', #338, #225 ) ;
#16 = FACE_BOUND ( 'NONE', #284, .T. ) ;
#17 = EDGE_LOOP ( 'NONE', ( #137, #30, #321, #198 ) ) ;
#18 = ORGANIZATION ( 'NEURÈENÝ', 'NEURÈENÝ', '' ) ;
#19 = DIRECTION ( 'NONE',  ( 1.000000000000000000, 0.000000000000000000, 0.000000000000000000 ) ) ;
#20 = ORIENTED_EDGE ( 'NONE', *, *, #222, .F. ) ;
#21 = FACE_OUTER_BOUND ( 'NONE', #295, .T. ) ;
#22 = APPROVAL_STATUS ( 'not_yet_approved' ) ;
#23 = EDGE_LOOP ( 'NONE', ( #83, #374 ) ) ;
#24 = VECTOR ( 'NONE', #101, 1000.000000000000000 ) ;
#25 = APPROVAL_STATUS ( 'not_yet_approved' ) ;
#26 = CC_DESIGN_APPROVAL ( #294, ( #14 ) ) ;
#27 = ADVANCED_FACE ( 'NONE', ( #38, #188 ), #280, .T. ) ;
#28 = CALENDAR_DATE ( 2022, 10, 7 ) ;
#29 = CIRCLE ( 'NONE', #326, 6.000000000000000888 ) ;
#30 = ORIENTED_EDGE ( 'NONE', *, *, #222, .T. ) ;
#31 = APPROVAL_ROLE ( '' ) ;
#32 = EDGE_LOOP ( 'NONE', ( #265, #108 ) ) ;
#33 = APPROVAL_DATE_TIME ( #126, #235 ) ;
#34 = CARTESIAN_POINT ( 'NONE',  ( -2.000000000000000000, 0.000000000000000000, 130.0000000000000000 ) ) ;
#35 = EDGE_CURVE ( 'NONE', #77, #314, #229, .T. ) ;
#36 = CARTESIAN_POINT ( 'NONE',  ( 3.000000000000000444, 3.673940397442060361E-16, 5.500000000000005329 ) ) ;
#37 = APPROVAL_PERSON_ORGANIZATION ( #84, #294, #353 ) ;
#38 = FACE_BOUND ( 'NONE', #23, .T. ) ;
#39 = DIRECTION ( 'NONE',  ( -1.000000000000000000, 0.000000000000000000, 0.000000000000000000 ) ) ;
#40 = VERTEX_POINT ( 'NONE', #127 ) ;
#41 = DIRECTION ( 'NONE',  ( -0.000000000000000000, -0.000000000000000000, -1.000000000000000000 ) ) ;
#42 = AXIS2_PLACEMENT_3D ( 'NONE', #175, #58, #151 ) ;
#43 = ORIENTED_EDGE ( 'NONE', *, *, #67, .F. ) ;
#44 = CARTESIAN_POINT ( 'NONE',  ( 0.000000000000000000, 0.000000000000000000, 130.0000000000000000 ) ) ;
#45 = CARTESIAN_POINT ( 'NONE',  ( 3.000000000000000444, 3.673940397442060361E-16, 130.0000000000000000 ) ) ;
#46 = VERTEX_POINT ( 'NONE', #34 ) ;
#47 = DIRECTION ( 'NONE',  ( 0.000000000000000000, 0.000000000000000000, 1.000000000000000000 ) ) ;
#48 = ORIENTED_EDGE ( 'NONE', *, *, #341, .T. ) ;
#49 = CIRCLE ( 'NONE', #336, 3.500000000000000444 ) ;
#50 = CARTESIAN_POINT ( 'NONE',  ( 0.000000000000000000, 0.000000000000000000, 130.0000000000000000 ) ) ;
#51 = ORIENTED_EDGE ( 'NONE', *, *, #285, .T. ) ;
#52 = APPLICATION_PROTOCOL_DEFINITION ( 'international standard', 'config_control_design', 1994, #192 ) ;
#53 = ORIENTED_EDGE ( 'NONE', *, *, #153, .F. ) ;
#54 = COORDINATED_UNIVERSAL_TIME_OFFSET ( 1, 0, .AHEAD. ) ;
#55 = CC_DESIGN_PERSON_AND_ORGANIZATION_ASSIGNMENT ( #251, #159, ( #352 ) ) ;
#56 = ORIENTED_EDGE ( 'NONE', *, *, #72, .T. ) ;
#57 = APPROVAL_PERSON_ORGANIZATION ( #296, #235, #31 ) ;
#58 = DIRECTION ( 'NONE',  ( 0.000000000000000000, 0.000000000000000000, 1.000000000000000000 ) ) ;
#59 = EDGE_CURVE ( 'NONE', #316, #46, #308, .T. ) ;
#60 = DIRECTION ( 'NONE',  ( 0.000000000000000000, 0.000000000000000000, 1.000000000000000000 ) ) ;
#61 = DIRECTION ( 'NONE',  ( -0.000000000000000000, -0.000000000000000000, -1.000000000000000000 ) ) ;
#62 = FACE_OUTER_BOUND ( 'NONE', #204, .T. ) ;
#63 = DIRECTION ( 'NONE',  ( 0.000000000000000000, 0.000000000000000000, 1.000000000000000000 ) ) ;
#64 = AXIS2_PLACEMENT_3D ( 'NONE', #214, #331, #39 ) ;
#65 = DIRECTION ( 'NONE',  ( 1.000000000000000000, 0.000000000000000000, 0.000000000000000000 ) ) ;
#66 = DIRECTION ( 'NONE',  ( -0.000000000000000000, -0.000000000000000000, -1.000000000000000000 ) ) ;
#67 = EDGE_CURVE ( 'NONE', #93, #349, #239, .T. ) ;
#68 = CYLINDRICAL_SURFACE ( 'NONE', #78, 2.000000000000000000 ) ;
#69 = CARTESIAN_POINT ( 'NONE',  ( 6.000000000000000888, 7.347880794884120722E-16, 5.000000000000000000 ) ) ;
#70 = TOROIDAL_SURFACE ( 'NONE', #201, 3.500000000000000444, 0.5000000000000000000 ) ;
#71 = DIRECTION ( 'NONE',  ( -0.000000000000000000, -0.000000000000000000, -1.000000000000000000 ) ) ;
#72 = EDGE_CURVE ( 'NONE', #46, #77, #157, .T. ) ;
#73 = ORIENTED_EDGE ( 'NONE', *, *, #35, .T. ) ;
#74 = CYLINDRICAL_SURFACE ( 'NONE', #104, 3.000000000000000444 ) ;
#75 = CARTESIAN_POINT ( 'NONE',  ( 0.000000000000000000, 0.000000000000000000, 5.500000000000005329 ) ) ;
#76 = CLOSED_SHELL ( 'NONE', ( #178, #327, #190, #123, #135, #27, #256, #322, #243, #82, #7 ) ) ;
#77 = VERTEX_POINT ( 'NONE', #362 ) ;
#78 = AXIS2_PLACEMENT_3D ( 'NONE', #50, #140, #368 ) ;
#79 = CC_DESIGN_SECURITY_CLASSIFICATION ( #232, ( #352 ) ) ;
#80 = PRODUCT_DEFINITION_SHAPE ( 'NONE', 'NONE',  #14 ) ;
#81 = ORIENTED_EDGE ( 'NONE', *, *, #147, .F. ) ;
#82 = ADVANCED_FACE ( 'NONE', ( #62 ), #218, .F. ) ;
#83 = ORIENTED_EDGE ( 'NONE', *, *, #273, .T. ) ;
#84 = PERSON_AND_ORGANIZATION ( #332, #18 ) ;
#85 = AXIS2_PLACEMENT_3D ( 'NONE', #313, #165, #223 ) ;
#86 =( LENGTH_UNIT ( ) NAMED_UNIT ( * ) SI_UNIT ( .MILLI., .METRE. ) );
#87 = DIRECTION ( 'NONE',  ( 1.000000000000000000, 0.000000000000000000, 0.000000000000000000 ) ) ;
#88 = COORDINATED_UNIVERSAL_TIME_OFFSET ( 1, 0, .AHEAD. ) ;
#89 = ORIENTED_EDGE ( 'NONE', *, *, #372, .F. ) ;
#90 = DIRECTION ( 'NONE',  ( -1.000000000000000000, 0.000000000000000000, 0.000000000000000000 ) ) ;
#91 = CC_DESIGN_APPROVAL ( #207, ( #232 ) ) ;
#92 = EDGE_CURVE ( 'NONE', #176, #139, #303, .T. ) ;
#93 = VERTEX_POINT ( 'NONE', #36 ) ;
#94 = CALENDAR_DATE ( 2022, 10, 7 ) ;
#95 = DIRECTION ( 'NONE',  ( 0.000000000000000000, 0.000000000000000000, 1.000000000000000000 ) ) ;
#96 = APPROVAL_STATUS ( 'not_yet_approved' ) ;
#97 = ORIENTED_EDGE ( 'NONE', *, *, #335, .F. ) ;
#98 = AXIS2_PLACEMENT_3D ( 'NONE', #75, #47, #283 ) ;
#99 = EDGE_CURVE ( 'NONE', #316, #314, #128, .T. ) ;
#100 = DIRECTION ( 'NONE',  ( -0.000000000000000000, -0.000000000000000000, -1.000000000000000000 ) ) ;
#101 = DIRECTION ( 'NONE',  ( -0.000000000000000000, -0.000000000000000000, -1.000000000000000000 ) ) ;
#102 = EDGE_CURVE ( 'NONE', #142, #139, #334, .T. ) ;
#103 = DIRECTION ( 'NONE',  ( 1.000000000000000000, 0.000000000000000000, -0.000000000000000000 ) ) ;
#104 = AXIS2_PLACEMENT_3D ( 'NONE', #197, #41, #146 ) ;
#105 = CARTESIAN_POINT ( 'NONE',  ( 0.000000000000000000, 0.000000000000000000, 5.000000000000000000 ) ) ;
#106 = ORIENTED_EDGE ( 'NONE', *, *, #59, .T. ) ;
#107 = CARTESIAN_POINT ( 'NONE',  ( 2.000000000000000000, 2.449293598294706414E-16, 130.0000000000000000 ) ) ;
#108 = ORIENTED_EDGE ( 'NONE', *, *, #335, .T. ) ;
#109 = DIRECTION ( 'NONE',  ( 0.000000000000000000, -1.000000000000000000, 0.000000000000000000 ) ) ;
#110 = AXIS2_PLACEMENT_3D ( 'NONE', #250, #61, #124 ) ;
#111 = ORIENTED_EDGE ( 'NONE', *, *, #72, .F. ) ;
#112 = CC_DESIGN_PERSON_AND_ORGANIZATION_ASSIGNMENT ( #270, #333, ( #232 ) ) ;
#113 = CIRCLE ( 'NONE', #289, 2.000000000000000000 ) ;
#114 = UNCERTAINTY_MEASURE_WITH_UNIT (LENGTH_MEASURE( 1.000000000000000082E-05 ), #86, 'distance_accuracy_value', 'NONE');
#115 = CARTESIAN_POINT ( 'NONE',  ( 0.000000000000000000, 0.000000000000000000, 0.000000000000000000 ) ) ;
#116 = DIRECTION ( 'NONE',  ( -1.000000000000000000, 1.224646799147354440E-16, 0.000000000000000000 ) ) ;
#117 = CARTESIAN_POINT ( 'NONE',  ( 3.500000000000000444, 0.000000000000000000, 5.500000000000005329 ) ) ;
#118 = CC_DESIGN_PERSON_AND_ORGANIZATION_ASSIGNMENT ( #148, #378, ( #14 ) ) ;
#119 = VECTOR ( 'NONE', #309, 1000.000000000000000 ) ;
#120 = APPROVAL_ROLE ( '' ) ;
#121 = VERTEX_POINT ( 'NONE', #152 ) ;
#122 = CARTESIAN_POINT ( 'NONE',  ( 0.000000000000000000, 0.000000000000000000, 5.000000000000000000 ) ) ;
#123 = ADVANCED_FACE ( 'NONE', ( #329 ), #272, .T. ) ;
#124 = DIRECTION ( 'NONE',  ( -1.000000000000000000, 0.000000000000000000, 0.000000000000000000 ) ) ;
#125 = LOCAL_TIME ( 11, 14, 24.00000000000000000, #54 ) ;
#126 = DATE_AND_TIME ( #361, #158 ) ;
#127 = CARTESIAN_POINT ( 'NONE',  ( 3.500000000000000444, 0.000000000000000000, 5.000000000000002665 ) ) ;
#128 = LINE ( 'NONE', #220, #345 ) ;
#129 = CC_DESIGN_PERSON_AND_ORGANIZATION_ASSIGNMENT ( #249, #3, ( #352 ) ) ;
#130 = AXIS2_PLACEMENT_3D ( 'NONE', #306, #95, #366 ) ;
#131 = DIRECTION ( 'NONE',  ( 0.000000000000000000, 0.000000000000000000, 1.000000000000000000 ) ) ;
#132 = DIRECTION ( 'NONE',  ( 0.000000000000000000, 0.000000000000000000, 1.000000000000000000 ) ) ;
#133 = EDGE_LOOP ( 'NONE', ( #196, #106, #56, #73 ) ) ;
#134 = DIRECTION ( 'NONE',  ( 0.000000000000000000, 0.000000000000000000, 1.000000000000000000 ) ) ;
#135 = ADVANCED_FACE ( 'NONE', ( #186 ), #271, .T. ) ;
#136 = CARTESIAN_POINT ( 'NONE',  ( 0.000000000000000000, 0.000000000000000000, 5.000000000000000000 ) ) ;
#137 = ORIENTED_EDGE ( 'NONE', *, *, #341, .F. ) ;
#138 = PLANE ( 'NONE',  #264 ) ;
#139 = VERTEX_POINT ( 'NONE', #248 ) ;
#140 = DIRECTION ( 'NONE',  ( 0.000000000000000000, 0.000000000000000000, -1.000000000000000000 ) ) ;
#141 = CC_DESIGN_PERSON_AND_ORGANIZATION_ASSIGNMENT ( #293, #351, ( #164 ) ) ;
#142 = VERTEX_POINT ( 'NONE', #360 ) ;
#143 = COORDINATED_UNIVERSAL_TIME_OFFSET ( 1, 0, .AHEAD. ) ;
#144 = EDGE_LOOP ( 'NONE', ( #187, #276 ) ) ;
#145 = CIRCLE ( 'NONE', #359, 0.4999999999999995559 ) ;
#146 = DIRECTION ( 'NONE',  ( -1.000000000000000000, 0.000000000000000000, 0.000000000000000000 ) ) ;
#147 = EDGE_CURVE ( 'NONE', #179, #93, #228, .T. ) ;
#148 = PERSON_AND_ORGANIZATION ( #332, #18 ) ;
#149 =( NAMED_UNIT ( * ) SI_UNIT ( $, .STERADIAN. ) SOLID_ANGLE_UNIT ( ) );
#150 = AXIS2_PLACEMENT_3D ( 'NONE', #226, #193, #320 ) ;
#151 = DIRECTION ( 'NONE',  ( 1.000000000000000000, 0.000000000000000000, 0.000000000000000000 ) ) ;
#152 = CARTESIAN_POINT ( 'NONE',  ( -3.000000000000000444, 0.000000000000000000, 130.0000000000000000 ) ) ;
#153 = EDGE_CURVE ( 'NONE', #121, #179, #208, .T. ) ;
#154 = SHAPE_DEFINITION_REPRESENTATION ( #80, #302 ) ;
#155 = FACE_OUTER_BOUND ( 'NONE', #133, .T. ) ;
#156 = DATE_AND_TIME ( #94, #6 ) ;
#157 = LINE ( 'NONE', #11, #119 ) ;
#158 = LOCAL_TIME ( 11, 14, 24.00000000000000000, #275 ) ;
#159 = PERSON_AND_ORGANIZATION_ROLE ( 'creator' ) ;
#160 = DIRECTION ( 'NONE',  ( 1.000000000000000000, 0.000000000000000000, -0.000000000000000000 ) ) ;
#161 = CARTESIAN_POINT ( 'NONE',  ( 0.000000000000000000, 0.000000000000000000, 5.500000000000005329 ) ) ;
#162 = CARTESIAN_POINT ( 'NONE',  ( -3.000000000000000444, 0.000000000000000000, 130.0000000000000000 ) ) ;
#163 = CIRCLE ( 'NONE', #85, 6.000000000000000888 ) ;
#164 = PRODUCT ( '5481', '5481', '', ( #234 ) ) ;
#165 = DIRECTION ( 'NONE',  ( 0.000000000000000000, 0.000000000000000000, 1.000000000000000000 ) ) ;
#166 = ORIENTED_EDGE ( 'NONE', *, *, #372, .T. ) ;
#167 = DIRECTION ( 'NONE',  ( -1.000000000000000000, 0.000000000000000000, 0.000000000000000000 ) ) ;
#168 = EDGE_LOOP ( 'NONE', ( #2, #252, #51, #111 ) ) ;
#169 = FACE_OUTER_BOUND ( 'NONE', #32, .T. ) ;
#170 = CIRCLE ( 'NONE', #330, 3.500000000000000444 ) ;
#171 = ORIENTED_EDGE ( 'NONE', *, *, #67, .T. ) ;
#172 = EDGE_CURVE ( 'NONE', #142, #174, #163, .T. ) ;
#173 = FACE_BOUND ( 'NONE', #144, .T. ) ;
#174 = VERTEX_POINT ( 'NONE', #69 ) ;
#175 = CARTESIAN_POINT ( 'NONE',  ( 0.000000000000000000, 0.000000000000000000, 130.0000000000000000 ) ) ;
#176 = VERTEX_POINT ( 'NONE', #339 ) ;
#177 = DATE_TIME_ROLE ( 'creation_date' ) ;
#178 = ADVANCED_FACE ( 'NONE', ( #221 ), #68, .F. ) ;
#179 = VERTEX_POINT ( 'NONE', #45 ) ;
#180 = LOCAL_TIME ( 11, 14, 24.00000000000000000, #244 ) ;
#181 = APPLICATION_PROTOCOL_DEFINITION ( 'international standard', 'config_control_design', 1994, #241 ) ;
#182 = DIRECTION ( 'NONE',  ( 1.224646799147353207E-16, 1.000000000000000000, -0.000000000000000000 ) ) ;
#183 = VECTOR ( 'NONE', #66, 1000.000000000000000 ) ;
#184 = AXIS2_PLACEMENT_3D ( 'NONE', #375, #60, #242 ) ;
#185 = EDGE_CURVE ( 'NONE', #121, #349, #312, .T. ) ;
#186 = FACE_OUTER_BOUND ( 'NONE', #245, .T. ) ;
#187 = ORIENTED_EDGE ( 'NONE', *, *, #199, .F. ) ;
#188 = FACE_OUTER_BOUND ( 'NONE', #291, .T. ) ;
#189 = AXIS2_PLACEMENT_3D ( 'NONE', #217, #278, #65 ) ;
#190 = ADVANCED_FACE ( 'NONE', ( #21 ), #344, .T. ) ;
#191 = CARTESIAN_POINT ( 'NONE',  ( 0.000000000000000000, 0.000000000000000000, 5.500000000000005329 ) ) ;
#192 = APPLICATION_CONTEXT ( 'configuration controlled 3d designs of mechanical parts and assemblies' ) ;
#193 = DIRECTION ( 'NONE',  ( -0.000000000000000000, -0.000000000000000000, -1.000000000000000000 ) ) ;
#194 = DIRECTION ( 'NONE',  ( -0.000000000000000000, -0.000000000000000000, -1.000000000000000000 ) ) ;
#195 = DIRECTION ( 'NONE',  ( -0.000000000000000000, -0.000000000000000000, -1.000000000000000000 ) ) ;
#196 = ORIENTED_EDGE ( 'NONE', *, *, #99, .F. ) ;
#197 = CARTESIAN_POINT ( 'NONE',  ( 0.000000000000000000, 0.000000000000000000, 130.0000000000000000 ) ) ;
#198 = ORIENTED_EDGE ( 'NONE', *, *, #102, .F. ) ;
#199 = EDGE_CURVE ( 'NONE', #46, #316, #113, .T. ) ;
#200 = CARTESIAN_POINT ( 'NONE',  ( 0.000000000000000000, 0.000000000000000000, 130.0000000000000000 ) ) ;
#201 = AXIS2_PLACEMENT_3D ( 'NONE', #380, #267, #238 ) ;
#202 = ORIENTED_EDGE ( 'NONE', *, *, #172, .F. ) ;
#203 =( NAMED_UNIT ( * ) PLANE_ANGLE_UNIT ( ) SI_UNIT ( $, .RADIAN. ) );
#204 = EDGE_LOOP ( 'NONE', ( #89, #43, #299, #262 ) ) ;
#205 = DESIGN_CONTEXT ( 'detailed design', #241, 'design' ) ;
#206 = ORIENTED_EDGE ( 'NONE', *, *, #185, .T. ) ;
#207 = APPROVAL ( #96, 'NEURÈENÝ' ) ;
#208 = CIRCLE ( 'NONE', #5, 3.000000000000000444 ) ;
#209 = DATE_AND_TIME ( #325, #348 ) ;
#210 = PRODUCT_RELATED_PRODUCT_CATEGORY ( 'detail', '', ( #164 ) ) ;
#211 = CARTESIAN_POINT ( 'NONE',  ( -6.000000000000000888, 0.000000000000000000, 5.000000000000000000 ) ) ;
#212 = CIRCLE ( 'NONE', #42, 3.000000000000000444 ) ;
#213 = DIRECTION ( 'NONE',  ( 1.000000000000000000, 0.000000000000000000, 0.000000000000000000 ) ) ;
#214 = CARTESIAN_POINT ( 'NONE',  ( 0.000000000000000000, 0.000000000000000000, 130.0000000000000000 ) ) ;
#215 = EDGE_CURVE ( 'NONE', #349, #93, #346, .T. ) ;
#216 = APPROVAL_DATE_TIME ( #156, #207 ) ;
#217 = CARTESIAN_POINT ( 'NONE',  ( 0.000000000000000000, 0.000000000000000000, 130.0000000000000000 ) ) ;
#218 = TOROIDAL_SURFACE ( 'NONE', #364, 3.500000000000000444, 0.5000000000000000000 ) ;
#219 = VECTOR ( 'NONE', #194, 1000.000000000000000 ) ;
#220 = CARTESIAN_POINT ( 'NONE',  ( 2.000000000000000000, 2.449293598294706414E-16, 130.0000000000000000 ) ) ;
#221 = FACE_OUTER_BOUND ( 'NONE', #168, .T. ) ;
#222 = EDGE_CURVE ( 'NONE', #174, #176, #15, .T. ) ;
#223 = DIRECTION ( 'NONE',  ( 1.000000000000000000, 0.000000000000000000, 0.000000000000000000 ) ) ;
#224 = CARTESIAN_POINT ( 'NONE',  ( 0.000000000000000000, 0.000000000000000000, 0.000000000000000000 ) ) ;
#225 = VECTOR ( 'NONE', #290, 1000.000000000000000 ) ;
#226 = CARTESIAN_POINT ( 'NONE',  ( 0.000000000000000000, 0.000000000000000000, 0.000000000000000000 ) ) ;
#227 = ORIENTED_EDGE ( 'NONE', *, *, #215, .F. ) ;
#228 = LINE ( 'NONE', #367, #24 ) ;
#229 = CIRCLE ( 'NONE', #237, 2.000000000000000000 ) ;
#230 = DIRECTION ( 'NONE',  ( 0.000000000000000000, 0.000000000000000000, 1.000000000000000000 ) ) ;
#231 = AXIS2_PLACEMENT_3D ( 'NONE', #122, #246, #90 ) ;
#232 = SECURITY_CLASSIFICATION ( '', '', #381 ) ;
#233 = ORIENTED_EDGE ( 'NONE', *, *, #356, .F. ) ;
#234 = MECHANICAL_CONTEXT ( 'NONE', #192, 'mechanical' ) ;
#235 = APPROVAL ( #25, 'NEURÈENÝ' ) ;
#236 = DIRECTION ( 'NONE',  ( 0.000000000000000000, 0.000000000000000000, 1.000000000000000000 ) ) ;
#237 = AXIS2_PLACEMENT_3D ( 'NONE', #4, #365, #307 ) ;
#238 = DIRECTION ( 'NONE',  ( 1.000000000000000000, 0.000000000000000000, 0.000000000000000000 ) ) ;
#239 = CIRCLE ( 'NONE', #287, 3.000000000000000444 ) ;
#240 = AXIS2_PLACEMENT_3D ( 'NONE', #44, #195, #167 ) ;
#241 = APPLICATION_CONTEXT ( 'configuration controlled 3d designs of mechanical parts and assemblies' ) ;
#242 = DIRECTION ( 'NONE',  ( 1.000000000000000000, 0.000000000000000000, 0.000000000000000000 ) ) ;
#243 = ADVANCED_FACE ( 'NONE', ( #173, #169 ), #257, .T. ) ;
#244 = COORDINATED_UNIVERSAL_TIME_OFFSET ( 1, 0, .AHEAD. ) ;
#245 = EDGE_LOOP ( 'NONE', ( #20, #202, #318, #355 ) ) ;
#246 = DIRECTION ( 'NONE',  ( -0.000000000000000000, -0.000000000000000000, -1.000000000000000000 ) ) ;
#247 = APPROVAL_PERSON_ORGANIZATION ( #357, #207, #120 ) ;
#248 = CARTESIAN_POINT ( 'NONE',  ( -6.000000000000000888, 0.000000000000000000, 0.000000000000000000 ) ) ;
#249 = PERSON_AND_ORGANIZATION ( #332, #18 ) ;
#250 = CARTESIAN_POINT ( 'NONE',  ( 0.000000000000000000, 0.000000000000000000, 5.000000000000000000 ) ) ;
#251 = PERSON_AND_ORGANIZATION ( #332, #18 ) ;
#252 = ORIENTED_EDGE ( 'NONE', *, *, #99, .T. ) ;
#253 = CIRCLE ( 'NONE', #274, 6.000000000000000888 ) ;
#254 = DIRECTION ( 'NONE',  ( 1.000000000000000000, 0.000000000000000000, 0.000000000000000000 ) ) ;
#255 = CC_DESIGN_DATE_AND_TIME_ASSIGNMENT ( #354, #1, ( #232 ) ) ;
#256 = ADVANCED_FACE ( 'NONE', ( #16, #292 ), #138, .F. ) ;
#257 = PLANE ( 'NONE',  #319 ) ;
#258 = VERTEX_POINT ( 'NONE', #315 ) ;
#259 = DIRECTION ( 'NONE',  ( 1.000000000000000000, 0.000000000000000000, 0.000000000000000000 ) ) ;
#260 = ORIENTED_EDGE ( 'NONE', *, *, #172, .T. ) ;
#261 = CARTESIAN_POINT ( 'NONE',  ( 0.000000000000000000, 0.000000000000000000, 130.0000000000000000 ) ) ;
#262 = ORIENTED_EDGE ( 'NONE', *, *, #281, .F. ) ;
#263 = DATE_AND_TIME ( #28, #125 ) ;
#264 = AXIS2_PLACEMENT_3D ( 'NONE', #224, #282, #340 ) ;
#265 = ORIENTED_EDGE ( 'NONE', *, *, #153, .T. ) ;
#266 = FACE_OUTER_BOUND ( 'NONE', #358, .T. ) ;
#267 = DIRECTION ( 'NONE',  ( 0.000000000000000000, 0.000000000000000000, 1.000000000000000000 ) ) ;
#268 = CIRCLE ( 'NONE', #150, 2.000000000000000000 ) ;
#269 = CC_DESIGN_APPROVAL ( #235, ( #352 ) ) ;
#270 = PERSON_AND_ORGANIZATION ( #332, #18 ) ;
#271 = CYLINDRICAL_SURFACE ( 'NONE', #231, 6.000000000000000888 ) ;
#272 = CYLINDRICAL_SURFACE ( 'NONE', #110, 6.000000000000000888 ) ;
#273 = EDGE_CURVE ( 'NONE', #40, #258, #49, .T. ) ;
#274 = AXIS2_PLACEMENT_3D ( 'NONE', #115, #230, #87 ) ;
#275 = COORDINATED_UNIVERSAL_TIME_OFFSET ( 1, 0, .AHEAD. ) ;
#276 = ORIENTED_EDGE ( 'NONE', *, *, #59, .F. ) ;
#277 = ORIENTED_EDGE ( 'NONE', *, *, #273, .F. ) ;
#278 = DIRECTION ( 'NONE',  ( 0.000000000000000000, 0.000000000000000000, 1.000000000000000000 ) ) ;
#279 = ORIENTED_EDGE ( 'NONE', *, *, #147, .T. ) ;
#280 = PLANE ( 'NONE',  #379 ) ;
#281 = EDGE_CURVE ( 'NONE', #258, #40, #170, .T. ) ;
#282 = DIRECTION ( 'NONE',  ( 0.000000000000000000, 0.000000000000000000, 1.000000000000000000 ) ) ;
#283 = DIRECTION ( 'NONE',  ( 1.000000000000000000, 0.000000000000000000, 0.000000000000000000 ) ) ;
#284 = EDGE_LOOP ( 'NONE', ( #370, #288 ) ) ;
#285 = EDGE_CURVE ( 'NONE', #314, #77, #268, .T. ) ;
#286 = CARTESIAN_POINT ( 'NONE',  ( 0.000000000000000000, 0.000000000000000000, 130.0000000000000000 ) ) ;
#287 = AXIS2_PLACEMENT_3D ( 'NONE', #161, #10, #213 ) ;
#288 = ORIENTED_EDGE ( 'NONE', *, *, #285, .F. ) ;
#289 = AXIS2_PLACEMENT_3D ( 'NONE', #286, #317, #13 ) ;
#290 = DIRECTION ( 'NONE',  ( -0.000000000000000000, -0.000000000000000000, -1.000000000000000000 ) ) ;
#291 = EDGE_LOOP ( 'NONE', ( #260, #48 ) ) ;
#292 = FACE_OUTER_BOUND ( 'NONE', #373, .T. ) ;
#293 = PERSON_AND_ORGANIZATION ( #332, #18 ) ;
#294 = APPROVAL ( #22, 'NEURÈENÝ' ) ;
#295 = EDGE_LOOP ( 'NONE', ( #97, #279, #171, #376 ) ) ;
#296 = PERSON_AND_ORGANIZATION ( #332, #18 ) ;
#297 = MANIFOLD_SOLID_BREP ( 'Odebrat vysunutím3', #76 ) ;
#298 = AXIS2_PLACEMENT_3D ( 'NONE', #117, #109, #300 ) ;
#299 = ORIENTED_EDGE ( 'NONE', *, *, #350, .T. ) ;
#300 = DIRECTION ( 'NONE',  ( 0.000000000000000000, 0.000000000000000000, -1.000000000000000000 ) ) ;
#301 = CARTESIAN_POINT ( 'NONE',  ( -3.000000000000000444, 0.000000000000000000, 5.500000000000005329 ) ) ;
#302 = ADVANCED_BREP_SHAPE_REPRESENTATION ( '5481', ( #297, #184 ), #12 ) ;
#303 = CIRCLE ( 'NONE', #130, 6.000000000000000888 ) ;
#304 = APPROVAL_DATE_TIME ( #209, #294 ) ;
#305 = CIRCLE ( 'NONE', #298, 0.5000000000000004441 ) ;
#306 = CARTESIAN_POINT ( 'NONE',  ( 0.000000000000000000, 0.000000000000000000, 0.000000000000000000 ) ) ;
#307 = DIRECTION ( 'NONE',  ( 1.000000000000000000, 0.000000000000000000, 0.000000000000000000 ) ) ;
#308 = CIRCLE ( 'NONE', #189, 2.000000000000000000 ) ;
#309 = DIRECTION ( 'NONE',  ( 0.000000000000000000, 0.000000000000000000, -1.000000000000000000 ) ) ;
#310 = ORIENTED_EDGE ( 'NONE', *, *, #92, .F. ) ;
#311 = CYLINDRICAL_SURFACE ( 'NONE', #64, 2.000000000000000000 ) ;
#312 = LINE ( 'NONE', #162, #219 ) ;
#313 = CARTESIAN_POINT ( 'NONE',  ( 0.000000000000000000, 0.000000000000000000, 5.000000000000000000 ) ) ;
#314 = VERTEX_POINT ( 'NONE', #371 ) ;
#315 = CARTESIAN_POINT ( 'NONE',  ( -3.500000000000000444, 4.286263797015737088E-16, 5.000000000000002665 ) ) ;
#316 = VERTEX_POINT ( 'NONE', #107 ) ;
#317 = DIRECTION ( 'NONE',  ( 0.000000000000000000, 0.000000000000000000, 1.000000000000000000 ) ) ;
#318 = ORIENTED_EDGE ( 'NONE', *, *, #102, .T. ) ;
#319 = AXIS2_PLACEMENT_3D ( 'NONE', #261, #132, #103 ) ;
#320 = DIRECTION ( 'NONE',  ( 1.000000000000000000, 0.000000000000000000, 0.000000000000000000 ) ) ;
#321 = ORIENTED_EDGE ( 'NONE', *, *, #92, .T. ) ;
#322 = ADVANCED_FACE ( 'NONE', ( #342 ), #74, .T. ) ;
#323 = ORIENTED_EDGE ( 'NONE', *, *, #350, .F. ) ;
#324 = ORIENTED_EDGE ( 'NONE', *, *, #215, .T. ) ;
#325 = CALENDAR_DATE ( 2022, 10, 7 ) ;
#326 = AXIS2_PLACEMENT_3D ( 'NONE', #377, #236, #347 ) ;
#327 = ADVANCED_FACE ( 'NONE', ( #266 ), #70, .F. ) ;
#328 = CARTESIAN_POINT ( 'NONE',  ( -3.500000000000000444, 4.286263797015737088E-16, 5.500000000000005329 ) ) ;
#329 = FACE_OUTER_BOUND ( 'NONE', #17, .T. ) ;
#330 = AXIS2_PLACEMENT_3D ( 'NONE', #105, #100, #259 ) ;
#331 = DIRECTION ( 'NONE',  ( 0.000000000000000000, 0.000000000000000000, -1.000000000000000000 ) ) ;
#332 = PERSON ( 'NEURÈENÝ', 'NEURÈENÝ', 'NEURÈENÝ', ('NEURÈENÝ'), ('NEURÈENÝ'), ('NEURÈENÝ') ) ;
#333 = PERSON_AND_ORGANIZATION_ROLE ( 'classification_officer' ) ;
#334 = LINE ( 'NONE', #211, #183 ) ;
#335 = EDGE_CURVE ( 'NONE', #179, #121, #212, .T. ) ;
#336 = AXIS2_PLACEMENT_3D ( 'NONE', #136, #71, #369 ) ;
#337 = DIRECTION ( 'NONE',  ( 0.000000000000000000, 0.000000000000000000, -1.000000000000000000 ) ) ;
#338 = CARTESIAN_POINT ( 'NONE',  ( 6.000000000000000888, 7.347880794884120722E-16, 5.000000000000000000 ) ) ;
#339 = CARTESIAN_POINT ( 'NONE',  ( 6.000000000000000888, 7.347880794884120722E-16, 0.000000000000000000 ) ) ;
#340 = DIRECTION ( 'NONE',  ( 1.000000000000000000, 0.000000000000000000, -0.000000000000000000 ) ) ;
#341 = EDGE_CURVE ( 'NONE', #174, #142, #29, .T. ) ;
#342 = FACE_OUTER_BOUND ( 'NONE', #343, .T. ) ;
#343 = EDGE_LOOP ( 'NONE', ( #81, #53, #206, #324 ) ) ;
#344 = CYLINDRICAL_SURFACE ( 'NONE', #240, 3.000000000000000444 ) ;
#345 = VECTOR ( 'NONE', #337, 1000.000000000000000 ) ;
#346 = CIRCLE ( 'NONE', #98, 3.000000000000000444 ) ;
#347 = DIRECTION ( 'NONE',  ( 1.000000000000000000, 0.000000000000000000, 0.000000000000000000 ) ) ;
#348 = LOCAL_TIME ( 11, 14, 24.00000000000000000, #143 ) ;
#349 = VERTEX_POINT ( 'NONE', #301 ) ;
#350 = EDGE_CURVE ( 'NONE', #93, #40, #305, .T. ) ;
#351 = PERSON_AND_ORGANIZATION_ROLE ( 'design_owner' ) ;
#352 = PRODUCT_DEFINITION_FORMATION_WITH_SPECIFIED_SOURCE ( 'LIBOVOLNÝ', '', #164, .NOT_KNOWN. ) ;
#353 = APPROVAL_ROLE ( '' ) ;
#354 = DATE_AND_TIME ( #9, #180 ) ;
#355 = ORIENTED_EDGE ( 'NONE', *, *, #356, .T. ) ;
#356 = EDGE_CURVE ( 'NONE', #139, #176, #253, .T. ) ;
#357 = PERSON_AND_ORGANIZATION ( #332, #18 ) ;
#358 = EDGE_LOOP ( 'NONE', ( #227, #166, #277, #323 ) ) ;
#359 = AXIS2_PLACEMENT_3D ( 'NONE', #328, #182, #116 ) ;
#360 = CARTESIAN_POINT ( 'NONE',  ( -6.000000000000000888, 0.000000000000000000, 5.000000000000000000 ) ) ;
#361 = CALENDAR_DATE ( 2022, 10, 7 ) ;
#362 = CARTESIAN_POINT ( 'NONE',  ( -2.000000000000000000, 0.000000000000000000, 0.000000000000000000 ) ) ;
#363 = CC_DESIGN_DATE_AND_TIME_ASSIGNMENT ( #263, #177, ( #14 ) ) ;
#364 = AXIS2_PLACEMENT_3D ( 'NONE', #191, #131, #254 ) ;
#365 = DIRECTION ( 'NONE',  ( -0.000000000000000000, -0.000000000000000000, -1.000000000000000000 ) ) ;
#366 = DIRECTION ( 'NONE',  ( 1.000000000000000000, 0.000000000000000000, 0.000000000000000000 ) ) ;
#367 = CARTESIAN_POINT ( 'NONE',  ( 3.000000000000000444, 3.673940397442060361E-16, 130.0000000000000000 ) ) ;
#368 = DIRECTION ( 'NONE',  ( -1.000000000000000000, 0.000000000000000000, 0.000000000000000000 ) ) ;
#369 = DIRECTION ( 'NONE',  ( 1.000000000000000000, 0.000000000000000000, 0.000000000000000000 ) ) ;
#370 = ORIENTED_EDGE ( 'NONE', *, *, #35, .F. ) ;
#371 = CARTESIAN_POINT ( 'NONE',  ( 2.000000000000000000, 2.449293598294706414E-16, 0.000000000000000000 ) ) ;
#372 = EDGE_CURVE ( 'NONE', #349, #258, #145, .T. ) ;
#373 = EDGE_LOOP ( 'NONE', ( #233, #310 ) ) ;
#374 = ORIENTED_EDGE ( 'NONE', *, *, #281, .T. ) ;
#375 = CARTESIAN_POINT ( 'NONE',  ( 0.000000000000000000, 0.000000000000000000, 0.000000000000000000 ) ) ;
#376 = ORIENTED_EDGE ( 'NONE', *, *, #185, .F. ) ;
#377 = CARTESIAN_POINT ( 'NONE',  ( 0.000000000000000000, 0.000000000000000000, 5.000000000000000000 ) ) ;
#378 = PERSON_AND_ORGANIZATION_ROLE ( 'creator' ) ;
#379 = AXIS2_PLACEMENT_3D ( 'NONE', #8, #63, #160 ) ;
#380 = CARTESIAN_POINT ( 'NONE',  ( 0.000000000000000000, 0.000000000000000000, 5.500000000000005329 ) ) ;
#381 = SECURITY_CLASSIFICATION_LEVEL ( 'unclassified' ) ;
ENDSEC;
END-ISO-10303-21;
