ISO-10303-21;
HEADER;
FILE_DESCRIPTION (( 'STEP AP203' ),
    '1' );
FILE_NAME ('2a47.STEP',
    '2022-07-10T09:10:12',
    ( '' ),
    ( '' ),
    'SwSTEP 2.0',
    'SolidWorks 2019',
    '' );
FILE_SCHEMA (( 'CONFIG_CONTROL_DESIGN' ));
ENDSEC;

DATA;
#1 = ORIENTED_EDGE ( 'NONE', *, *, #306, .T. ) ;
#2 = DIRECTION ( 'NONE',  ( 0.000000000000000000, 0.000000000000000000, -1.000000000000000000 ) ) ;
#3 = PLANE ( 'NONE',  #346 ) ;
#4 = APPROVAL_PERSON_ORGANIZATION ( #191, #62, #160 ) ;
#5 = DIRECTION ( 'NONE',  ( -0.000000000000000000, -0.000000000000000000, -1.000000000000000000 ) ) ;
#6 = EDGE_LOOP ( 'NONE', ( #114, #1 ) ) ;
#7 = CARTESIAN_POINT ( 'NONE',  ( 4.000000000000000000, 4.898587196589412829E-16, 80.00000000000000000 ) ) ;
#8 = DIRECTION ( 'NONE',  ( 1.000000000000000000, 0.000000000000000000, 0.000000000000000000 ) ) ;
#9 = AXIS2_PLACEMENT_3D ( 'NONE', #204, #81, #49 ) ;
#10 = DIRECTION ( 'NONE',  ( 0.000000000000000000, 0.000000000000000000, 1.000000000000000000 ) ) ;
#11 = EDGE_CURVE ( 'NONE', #340, #258, #219, .T. ) ;
#12 = CARTESIAN_POINT ( 'NONE',  ( 0.000000000000000000, 0.000000000000000000, 0.000000000000000000 ) ) ;
#13 = CARTESIAN_POINT ( 'NONE',  ( 0.000000000000000000, 0.000000000000000000, 0.000000000000000000 ) ) ;
#14 = PERSON_AND_ORGANIZATION ( #171, #48 ) ;
#15 = VERTEX_POINT ( 'NONE', #196 ) ;
#16 = EDGE_CURVE ( 'NONE', #71, #175, #251, .T. ) ;
#17 = AXIS2_PLACEMENT_3D ( 'NONE', #267, #129, #121 ) ;
#18 = DIRECTION ( 'NONE',  ( 0.000000000000000000, 0.000000000000000000, 1.000000000000000000 ) ) ;
#19 = CIRCLE ( 'NONE', #41, 2.500000000000000000 ) ;
#20 = DIRECTION ( 'NONE',  ( 1.000000000000000000, 0.000000000000000000, 0.000000000000000000 ) ) ;
#21 = AXIS2_PLACEMENT_3D ( 'NONE', #322, #230, #85 ) ;
#22 = DIRECTION ( 'NONE',  ( 0.000000000000000000, 0.000000000000000000, 1.000000000000000000 ) ) ;
#23 = EDGE_CURVE ( 'NONE', #153, #266, #308, .T. ) ;
#24 = ORIENTED_EDGE ( 'NONE', *, *, #353, .F. ) ;
#25 = DIRECTION ( 'NONE',  ( 1.000000000000000000, 0.000000000000000000, 0.000000000000000000 ) ) ;
#26 = DIRECTION ( 'NONE',  ( 0.000000000000000000, 0.000000000000000000, 1.000000000000000000 ) ) ;
#27 = AXIS2_PLACEMENT_3D ( 'NONE', #183, #26, #352 ) ;
#28 = DIRECTION ( 'NONE',  ( 1.000000000000000000, 0.000000000000000000, 0.000000000000000000 ) ) ;
#29 = FACE_OUTER_BOUND ( 'NONE', #268, .T. ) ;
#30 = ORIENTED_EDGE ( 'NONE', *, *, #253, .T. ) ;
#31 = AXIS2_PLACEMENT_3D ( 'NONE', #103, #272, #225 ) ;
#32 = DIRECTION ( 'NONE',  ( -0.000000000000000000, -0.000000000000000000, -1.000000000000000000 ) ) ;
#33 = CC_DESIGN_DATE_AND_TIME_ASSIGNMENT ( #165, #281, ( #89 ) ) ;
#34 = AXIS2_PLACEMENT_3D ( 'NONE', #286, #256, #20 ) ;
#35 = APPROVAL_PERSON_ORGANIZATION ( #138, #174, #276 ) ;
#36 = DIRECTION ( 'NONE',  ( -0.000000000000000000, -0.000000000000000000, -1.000000000000000000 ) ) ;
#37 = PERSON_AND_ORGANIZATION_ROLE ( 'creator' ) ;
#38 = ORIENTED_EDGE ( 'NONE', *, *, #306, .F. ) ;
#39 = ADVANCED_FACE ( 'NONE', ( #250 ), #277, .F. ) ;
#40 = ORIENTED_EDGE ( 'NONE', *, *, #146, .F. ) ;
#41 = AXIS2_PLACEMENT_3D ( 'NONE', #212, #177, #295 ) ;
#42 = APPLICATION_PROTOCOL_DEFINITION ( 'international standard', 'config_control_design', 1994, #254 ) ;
#43 = DIRECTION ( 'NONE',  ( 1.000000000000000000, 0.000000000000000000, 0.000000000000000000 ) ) ;
#44 = ORIENTED_EDGE ( 'NONE', *, *, #242, .T. ) ;
#45 = CALENDAR_DATE ( 2022, 10, 7 ) ;
#46 = ORIENTED_EDGE ( 'NONE', *, *, #23, .T. ) ;
#47 = ORIENTED_EDGE ( 'NONE', *, *, #287, .F. ) ;
#48 = ORGANIZATION ( 'NEURÈENÝ', 'NEURÈENÝ', '' ) ;
#49 = DIRECTION ( 'NONE',  ( 1.000000000000000000, 0.000000000000000000, 0.000000000000000000 ) ) ;
#50 = ORIENTED_EDGE ( 'NONE', *, *, #242, .F. ) ;
#51 = EDGE_CURVE ( 'NONE', #266, #153, #339, .T. ) ;
#52 = AXIS2_PLACEMENT_3D ( 'NONE', #108, #78, #367 ) ;
#53 = EDGE_LOOP ( 'NONE', ( #161, #24, #69, #257 ) ) ;
#54 = DATE_AND_TIME ( #111, #94 ) ;
#55 = VERTEX_POINT ( 'NONE', #101 ) ;
#56 = FACE_OUTER_BOUND ( 'NONE', #187, .T. ) ;
#57 = APPROVAL ( #118, 'NEURÈENÝ' ) ;
#58 = CARTESIAN_POINT ( 'NONE',  ( 4.000000000000000000, 4.898587196589412829E-16, 5.500000000000005329 ) ) ;
#59 = DIRECTION ( 'NONE',  ( 1.000000000000000000, 0.000000000000000000, 0.000000000000000000 ) ) ;
#60 = AXIS2_PLACEMENT_3D ( 'NONE', #220, #241, #100 ) ;
#61 = CARTESIAN_POINT ( 'NONE',  ( 0.000000000000000000, 0.000000000000000000, 80.00000000000000000 ) ) ;
#62 = APPROVAL ( #134, 'NEURÈENÝ' ) ;
#63 = DIRECTION ( 'NONE',  ( 1.000000000000000000, 0.000000000000000000, 0.000000000000000000 ) ) ;
#64 = DIRECTION ( 'NONE',  ( -1.000000000000000000, 0.000000000000000000, 0.000000000000000000 ) ) ;
#65 = EDGE_LOOP ( 'NONE', ( #271, #40 ) ) ;
#66 = CC_DESIGN_APPROVAL ( #174, ( #72 ) ) ;
#67 = DIRECTION ( 'NONE',  ( 0.000000000000000000, -1.000000000000000000, 0.000000000000000000 ) ) ;
#68 = MECHANICAL_CONTEXT ( 'NONE', #254, 'mechanical' ) ;
#69 = ORIENTED_EDGE ( 'NONE', *, *, #106, .T. ) ;
#70 = DIRECTION ( 'NONE',  ( 1.000000000000000000, 0.000000000000000000, 0.000000000000000000 ) ) ;
#71 = VERTEX_POINT ( 'NONE', #247 ) ;
#72 = PRODUCT_DEFINITION_FORMATION_WITH_SPECIFIED_SOURCE ( 'LIBOVOLNÝ', '', #99, .NOT_KNOWN. ) ;
#73 = APPROVAL_DATE_TIME ( #246, #174 ) ;
#74 = PLANE ( 'NONE',  #21 ) ;
#75 = PERSON_AND_ORGANIZATION ( #171, #48 ) ;
#76 = ADVANCED_FACE ( 'NONE', ( #309, #221 ), #74, .T. ) ;
#77 = ORIENTED_EDGE ( 'NONE', *, *, #178, .T. ) ;
#78 = DIRECTION ( 'NONE',  ( 0.000000000000000000, 0.000000000000000000, -1.000000000000000000 ) ) ;
#79 = AXIS2_PLACEMENT_3D ( 'NONE', #125, #381, #63 ) ;
#80 = AXIS2_PLACEMENT_3D ( 'NONE', #61, #333, #189 ) ;
#81 = DIRECTION ( 'NONE',  ( -0.000000000000000000, -0.000000000000000000, -1.000000000000000000 ) ) ;
#82 = AXIS2_PLACEMENT_3D ( 'NONE', #130, #67, #218 ) ;
#83 = CC_DESIGN_PERSON_AND_ORGANIZATION_ASSIGNMENT ( #363, #164, ( #72 ) ) ;
#84 = DIRECTION ( 'NONE',  ( -0.000000000000000000, -0.000000000000000000, -1.000000000000000000 ) ) ;
#85 = DIRECTION ( 'NONE',  ( 1.000000000000000000, 0.000000000000000000, -0.000000000000000000 ) ) ;
#86 = TOROIDAL_SURFACE ( 'NONE', #137, 4.500000000000000888, 0.5000000000000000000 ) ;
#87 = ORIENTED_EDGE ( 'NONE', *, *, #11, .F. ) ;
#88 = CIRCLE ( 'NONE', #190, 2.500000000000000000 ) ;
#89 = SECURITY_CLASSIFICATION ( '', '', #278 ) ;
#90 = DIRECTION ( 'NONE',  ( -1.000000000000000000, 0.000000000000000000, 0.000000000000000000 ) ) ;
#91 = DIRECTION ( 'NONE',  ( -0.000000000000000000, -0.000000000000000000, -1.000000000000000000 ) ) ;
#92 = AXIS2_PLACEMENT_3D ( 'NONE', #312, #224, #43 ) ;
#93 = FACE_BOUND ( 'NONE', #6, .T. ) ;
#94 = LOCAL_TIME ( 11, 10, 12.00000000000000000, #371 ) ;
#95 = DIRECTION ( 'NONE',  ( 1.000000000000000000, 0.000000000000000000, 0.000000000000000000 ) ) ;
#96 = VERTEX_POINT ( 'NONE', #143 ) ;
#97 = CARTESIAN_POINT ( 'NONE',  ( -4.000000000000000000, 0.000000000000000000, 80.00000000000000000 ) ) ;
#98 = AXIS2_PLACEMENT_3D ( 'NONE', #149, #126, #28 ) ;
#99 = PRODUCT ( '2a47', '2a47', '', ( #68 ) ) ;
#100 = DIRECTION ( 'NONE',  ( -1.000000000000000000, 0.000000000000000000, 0.000000000000000000 ) ) ;
#101 = CARTESIAN_POINT ( 'NONE',  ( -4.000000000000000000, 0.000000000000000000, 5.500000000000005329 ) ) ;
#102 = COORDINATED_UNIVERSAL_TIME_OFFSET ( 1, 0, .AHEAD. ) ;
#103 = CARTESIAN_POINT ( 'NONE',  ( 0.000000000000000000, 0.000000000000000000, 80.00000000000000000 ) ) ;
#104 = AXIS2_PLACEMENT_3D ( 'NONE', #231, #226, #347 ) ;
#105 = PERSON_AND_ORGANIZATION ( #171, #48 ) ;
#106 = EDGE_CURVE ( 'NONE', #166, #266, #145, .T. ) ;
#107 = LOCAL_TIME ( 11, 10, 12.00000000000000000, #365 ) ;
#108 = CARTESIAN_POINT ( 'NONE',  ( 0.000000000000000000, 0.000000000000000000, 80.00000000000000000 ) ) ;
#109 = DATE_TIME_ROLE ( 'creation_date' ) ;
#110 = ORIENTED_EDGE ( 'NONE', *, *, #345, .T. ) ;
#111 = CALENDAR_DATE ( 2022, 10, 7 ) ;
#112 = FACE_BOUND ( 'NONE', #65, .T. ) ;
#113 = CC_DESIGN_PERSON_AND_ORGANIZATION_ASSIGNMENT ( #336, #307, ( #99 ) ) ;
#114 = ORIENTED_EDGE ( 'NONE', *, *, #280, .T. ) ;
#115 = SHAPE_DEFINITION_REPRESENTATION ( #261, #252 ) ;
#116 = AXIS2_PLACEMENT_3D ( 'NONE', #378, #325, #25 ) ;
#117 = CARTESIAN_POINT ( 'NONE',  ( -7.000000000000000000, 0.000000000000000000, 5.000000000000000000 ) ) ;
#118 = APPROVAL_STATUS ( 'not_yet_approved' ) ;
#119 = DIRECTION ( 'NONE',  ( 0.000000000000000000, 0.000000000000000000, 1.000000000000000000 ) ) ;
#120 = DIRECTION ( 'NONE',  ( 0.000000000000000000, 0.000000000000000000, -1.000000000000000000 ) ) ;
#121 = DIRECTION ( 'NONE',  ( 1.000000000000000000, 0.000000000000000000, -0.000000000000000000 ) ) ;
#122 = CARTESIAN_POINT ( 'NONE',  ( 0.000000000000000000, 0.000000000000000000, 5.000000000000000000 ) ) ;
#123 = ADVANCED_FACE ( 'NONE', ( #205 ), #374, .T. ) ;
#124 = VECTOR ( 'NONE', #320, 1000.000000000000000 ) ;
#125 = CARTESIAN_POINT ( 'NONE',  ( 0.000000000000000000, 0.000000000000000000, 5.000000000000000000 ) ) ;
#126 = DIRECTION ( 'NONE',  ( -0.000000000000000000, -0.000000000000000000, -1.000000000000000000 ) ) ;
#127 = ORIENTED_EDGE ( 'NONE', *, *, #106, .F. ) ;
#128 = EDGE_CURVE ( 'NONE', #55, #15, #323, .T. ) ;
#129 = DIRECTION ( 'NONE',  ( 0.000000000000000000, 0.000000000000000000, 1.000000000000000000 ) ) ;
#130 = CARTESIAN_POINT ( 'NONE',  ( 4.500000000000000888, 0.000000000000000000, 5.500000000000005329 ) ) ;
#131 = AXIS2_PLACEMENT_3D ( 'NONE', #263, #358, #95 ) ;
#132 = DATE_AND_TIME ( #273, #107 ) ;
#133 = ORIENTED_EDGE ( 'NONE', *, *, #259, .F. ) ;
#134 = APPROVAL_STATUS ( 'not_yet_approved' ) ;
#135 = DIRECTION ( 'NONE',  ( 1.000000000000000000, 0.000000000000000000, 0.000000000000000000 ) ) ;
#136 = ADVANCED_FACE ( 'NONE', ( #56 ), #86, .F. ) ;
#137 = AXIS2_PLACEMENT_3D ( 'NONE', #201, #119, #288 ) ;
#138 = PERSON_AND_ORGANIZATION ( #171, #48 ) ;
#139 = ORIENTED_EDGE ( 'NONE', *, *, #259, .T. ) ;
#140 = ORIENTED_EDGE ( 'NONE', *, *, #287, .T. ) ;
#141 = APPROVAL_ROLE ( '' ) ;
#142 = CYLINDRICAL_SURFACE ( 'NONE', #168, 4.000000000000000000 ) ;
#143 = CARTESIAN_POINT ( 'NONE',  ( 2.500000000000000000, 3.061616997868383141E-16, 0.000000000000000000 ) ) ;
#144 = LOCAL_TIME ( 11, 10, 12.00000000000000000, #223 ) ;
#145 = LINE ( 'NONE', #377, #124 ) ;
#146 = EDGE_CURVE ( 'NONE', #96, #232, #188, .T. ) ;
#147 = FACE_OUTER_BOUND ( 'NONE', #148, .T. ) ;
#148 = EDGE_LOOP ( 'NONE', ( #50, #342, #110, #240 ) ) ;
#149 = CARTESIAN_POINT ( 'NONE',  ( 0.000000000000000000, 0.000000000000000000, 5.000000000000000000 ) ) ;
#150 = EDGE_LOOP ( 'NONE', ( #216, #321 ) ) ;
#151 = ADVANCED_FACE ( 'NONE', ( #172 ), #350, .F. ) ;
#152 = CARTESIAN_POINT ( 'NONE',  ( -2.500000000000000000, 0.000000000000000000, 80.00000000000000000 ) ) ;
#153 = VERTEX_POINT ( 'NONE', #202 ) ;
#154 = CYLINDRICAL_SURFACE ( 'NONE', #60, 2.500000000000000000 ) ;
#155 = FACE_OUTER_BOUND ( 'NONE', #279, .T. ) ;
#156 = CC_DESIGN_PERSON_AND_ORGANIZATION_ASSIGNMENT ( #75, #315, ( #72 ) ) ;
#157 = CARTESIAN_POINT ( 'NONE',  ( 7.000000000000000000, 8.572527594031473190E-16, 5.000000000000000000 ) ) ;
#158 = ORIENTED_EDGE ( 'NONE', *, *, #194, .F. ) ;
#159 = COORDINATED_UNIVERSAL_TIME_OFFSET ( 1, 0, .AHEAD. ) ;
#160 = APPROVAL_ROLE ( '' ) ;
#161 = ORIENTED_EDGE ( 'NONE', *, *, #253, .F. ) ;
#162 = APPROVAL_DATE_TIME ( #132, #62 ) ;
#163 = EDGE_LOOP ( 'NONE', ( #243, #208, #300, #38 ) ) ;
#164 = PERSON_AND_ORGANIZATION_ROLE ( 'creator' ) ;
#165 = DATE_AND_TIME ( #45, #144 ) ;
#166 = VERTEX_POINT ( 'NONE', #117 ) ;
#167 = ADVANCED_FACE ( 'NONE', ( #147 ), #142, .T. ) ;
#168 = AXIS2_PLACEMENT_3D ( 'NONE', #260, #84, #90 ) ;
#169 = CIRCLE ( 'NONE', #82, 0.5000000000000004441 ) ;
#170 = LINE ( 'NONE', #372, #379 ) ;
#171 = PERSON ( 'NEURÈENÝ', 'NEURÈENÝ', 'NEURÈENÝ', ('NEURÈENÝ'), ('NEURÈENÝ'), ('NEURÈENÝ') ) ;
#172 = FACE_OUTER_BOUND ( 'NONE', #163, .T. ) ;
#173 = APPROVAL_DATE_TIME ( #54, #57 ) ;
#174 = APPROVAL ( #341, 'NEURÈENÝ' ) ;
#175 = VERTEX_POINT ( 'NONE', #324 ) ;
#176 = ORIENTED_EDGE ( 'NONE', *, *, #16, .F. ) ;
#177 = DIRECTION ( 'NONE',  ( -0.000000000000000000, -0.000000000000000000, -1.000000000000000000 ) ) ;
#178 = EDGE_CURVE ( 'NONE', #175, #96, #170, .T. ) ;
#179 = CIRCLE ( 'NONE', #298, 4.500000000000000888 ) ;
#180 = CYLINDRICAL_SURFACE ( 'NONE', #181, 7.000000000000000000 ) ;
#181 = AXIS2_PLACEMENT_3D ( 'NONE', #235, #32, #233 ) ;
#182 = MANIFOLD_SOLID_BREP ( 'Odebrat vysunutím3', #332 ) ;
#183 = CARTESIAN_POINT ( 'NONE',  ( 0.000000000000000000, 0.000000000000000000, 5.000000000000000000 ) ) ;
#184 = DESIGN_CONTEXT ( 'detailed design', #338, 'design' ) ;
#185 = ORIENTED_EDGE ( 'NONE', *, *, #198, .F. ) ;
#186 = CARTESIAN_POINT ( 'NONE',  ( 0.000000000000000000, 0.000000000000000000, 5.000000000000000000 ) ) ;
#187 = EDGE_LOOP ( 'NONE', ( #158, #274, #327, #304 ) ) ;
#188 = CIRCLE ( 'NONE', #9, 2.500000000000000000 ) ;
#189 = DIRECTION ( 'NONE',  ( 1.000000000000000000, 0.000000000000000000, 0.000000000000000000 ) ) ;
#190 = AXIS2_PLACEMENT_3D ( 'NONE', #290, #22, #351 ) ;
#191 = PERSON_AND_ORGANIZATION ( #171, #48 ) ;
#192 = APPLICATION_PROTOCOL_DEFINITION ( 'international standard', 'config_control_design', 1994, #338 ) ;
#193 = DIRECTION ( 'NONE',  ( 0.000000000000000000, 0.000000000000000000, 1.000000000000000000 ) ) ;
#194 = EDGE_CURVE ( 'NONE', #55, #316, #311, .T. ) ;
#195 = LOCAL_TIME ( 11, 10, 12.00000000000000000, #159 ) ;
#196 = CARTESIAN_POINT ( 'NONE',  ( -4.500000000000000888, 5.510910596163088569E-16, 5.000000000000002665 ) ) ;
#197 = EDGE_LOOP ( 'NONE', ( #176, #185 ) ) ;
#198 = EDGE_CURVE ( 'NONE', #175, #71, #88, .T. ) ;
#199 = ORIENTED_EDGE ( 'NONE', *, *, #23, .F. ) ;
#200 = CC_DESIGN_APPROVAL ( #57, ( #89 ) ) ;
#201 = CARTESIAN_POINT ( 'NONE',  ( 0.000000000000000000, 0.000000000000000000, 5.500000000000005329 ) ) ;
#202 = CARTESIAN_POINT ( 'NONE',  ( 7.000000000000000000, 8.572527594031473190E-16, 0.000000000000000000 ) ) ;
#203 = CIRCLE ( 'NONE', #131, 4.000000000000000000 ) ;
#204 = CARTESIAN_POINT ( 'NONE',  ( 0.000000000000000000, 0.000000000000000000, 0.000000000000000000 ) ) ;
#205 = FACE_OUTER_BOUND ( 'NONE', #53, .T. ) ;
#206 = LINE ( 'NONE', #299, #283 ) ;
#207 = DIRECTION ( 'NONE',  ( 1.000000000000000000, 0.000000000000000000, -0.000000000000000000 ) ) ;
#208 = ORIENTED_EDGE ( 'NONE', *, *, #328, .F. ) ;
#209 = LINE ( 'NONE', #357, #213 ) ;
#210 = ORIENTED_EDGE ( 'NONE', *, *, #345, .F. ) ;
#211 = FACE_OUTER_BOUND ( 'NONE', #335, .T. ) ;
#212 = CARTESIAN_POINT ( 'NONE',  ( 0.000000000000000000, 0.000000000000000000, 0.000000000000000000 ) ) ;
#213 = VECTOR ( 'NONE', #270, 1000.000000000000000 ) ;
#214 = CIRCLE ( 'NONE', #27, 7.000000000000000000 ) ;
#215 =( LENGTH_UNIT ( ) NAMED_UNIT ( * ) SI_UNIT ( .MILLI., .METRE. ) );
#216 = ORIENTED_EDGE ( 'NONE', *, *, #334, .T. ) ;
#217 = CC_DESIGN_DATE_AND_TIME_ASSIGNMENT ( #248, #109, ( #364 ) ) ;
#218 = DIRECTION ( 'NONE',  ( 0.000000000000000000, 0.000000000000000000, -1.000000000000000000 ) ) ;
#219 = CIRCLE ( 'NONE', #31, 4.000000000000000000 ) ;
#220 = CARTESIAN_POINT ( 'NONE',  ( 0.000000000000000000, 0.000000000000000000, 80.00000000000000000 ) ) ;
#221 = FACE_OUTER_BOUND ( 'NONE', #150, .T. ) ;
#222 = ADVANCED_FACE ( 'NONE', ( #112, #326 ), #265, .F. ) ;
#223 = COORDINATED_UNIVERSAL_TIME_OFFSET ( 1, 0, .AHEAD. ) ;
#224 = DIRECTION ( 'NONE',  ( 0.000000000000000000, 0.000000000000000000, 1.000000000000000000 ) ) ;
#225 = DIRECTION ( 'NONE',  ( 1.000000000000000000, 0.000000000000000000, 0.000000000000000000 ) ) ;
#226 = DIRECTION ( 'NONE',  ( -0.000000000000000000, -0.000000000000000000, -1.000000000000000000 ) ) ;
#227 = ORIENTED_EDGE ( 'NONE', *, *, #51, .F. ) ;
#228 = PRODUCT_RELATED_PRODUCT_CATEGORY ( 'detail', '', ( #99 ) ) ;
#229 = EDGE_LOOP ( 'NONE', ( #360, #245, #139, #375 ) ) ;
#230 = DIRECTION ( 'NONE',  ( 0.000000000000000000, 0.000000000000000000, 1.000000000000000000 ) ) ;
#231 = CARTESIAN_POINT ( 'NONE',  ( 0.000000000000000000, 0.000000000000000000, 5.000000000000000000 ) ) ;
#232 = VERTEX_POINT ( 'NONE', #355 ) ;
#233 = DIRECTION ( 'NONE',  ( -1.000000000000000000, 0.000000000000000000, 0.000000000000000000 ) ) ;
#234 = AXIS2_PLACEMENT_3D ( 'NONE', #13, #193, #135 ) ;
#235 = CARTESIAN_POINT ( 'NONE',  ( 0.000000000000000000, 0.000000000000000000, 5.000000000000000000 ) ) ;
#236 = FACE_OUTER_BOUND ( 'NONE', #282, .T. ) ;
#237 = CC_DESIGN_PERSON_AND_ORGANIZATION_ASSIGNMENT ( #105, #37, ( #364 ) ) ;
#238 = CARTESIAN_POINT ( 'NONE',  ( -7.000000000000000000, 0.000000000000000000, 0.000000000000000000 ) ) ;
#239 = DIRECTION ( 'NONE',  ( -0.000000000000000000, -0.000000000000000000, -1.000000000000000000 ) ) ;
#240 = ORIENTED_EDGE ( 'NONE', *, *, #194, .T. ) ;
#241 = DIRECTION ( 'NONE',  ( 0.000000000000000000, 0.000000000000000000, -1.000000000000000000 ) ) ;
#242 = EDGE_CURVE ( 'NONE', #340, #316, #206, .T. ) ;
#243 = ORIENTED_EDGE ( 'NONE', *, *, #128, .F. ) ;
#244 = CALENDAR_DATE ( 2022, 10, 7 ) ;
#245 = ORIENTED_EDGE ( 'NONE', *, *, #198, .T. ) ;
#246 = DATE_AND_TIME ( #244, #195 ) ;
#247 = CARTESIAN_POINT ( 'NONE',  ( -2.500000000000000000, 0.000000000000000000, 80.00000000000000000 ) ) ;
#248 = DATE_AND_TIME ( #313, #297 ) ;
#249 = CIRCLE ( 'NONE', #80, 4.000000000000000000 ) ;
#250 = FACE_OUTER_BOUND ( 'NONE', #229, .T. ) ;
#251 = CIRCLE ( 'NONE', #92, 2.500000000000000000 ) ;
#252 = ADVANCED_BREP_SHAPE_REPRESENTATION ( '2a47', ( #182, #255 ), #319 ) ;
#253 = EDGE_CURVE ( 'NONE', #337, #153, #209, .T. ) ;
#254 = APPLICATION_CONTEXT ( 'configuration controlled 3d designs of mechanical parts and assemblies' ) ;
#255 = AXIS2_PLACEMENT_3D ( 'NONE', #12, #10, #70 ) ;
#256 = DIRECTION ( 'NONE',  ( 0.000000000000000000, 0.000000000000000000, 1.000000000000000000 ) ) ;
#257 = ORIENTED_EDGE ( 'NONE', *, *, #51, .T. ) ;
#258 = VERTEX_POINT ( 'NONE', #331 ) ;
#259 = EDGE_CURVE ( 'NONE', #71, #232, #305, .T. ) ;
#260 = CARTESIAN_POINT ( 'NONE',  ( 0.000000000000000000, 0.000000000000000000, 80.00000000000000000 ) ) ;
#261 = PRODUCT_DEFINITION_SHAPE ( 'NONE', 'NONE',  #364 ) ;
#262 = CIRCLE ( 'NONE', #98, 4.500000000000000888 ) ;
#263 = CARTESIAN_POINT ( 'NONE',  ( 0.000000000000000000, 0.000000000000000000, 5.500000000000005329 ) ) ;
#264 = ORIENTED_EDGE ( 'NONE', *, *, #146, .T. ) ;
#265 = PLANE ( 'NONE',  #17 ) ;
#266 = VERTEX_POINT ( 'NONE', #238 ) ;
#267 = CARTESIAN_POINT ( 'NONE',  ( 0.000000000000000000, 0.000000000000000000, 0.000000000000000000 ) ) ;
#268 = EDGE_LOOP ( 'NONE', ( #289, #77, #264, #133 ) ) ;
#269 = CARTESIAN_POINT ( 'NONE',  ( 0.000000000000000000, 0.000000000000000000, 80.00000000000000000 ) ) ;
#270 = DIRECTION ( 'NONE',  ( -0.000000000000000000, -0.000000000000000000, -1.000000000000000000 ) ) ;
#271 = ORIENTED_EDGE ( 'NONE', *, *, #348, .F. ) ;
#272 = DIRECTION ( 'NONE',  ( 0.000000000000000000, 0.000000000000000000, 1.000000000000000000 ) ) ;
#273 = CALENDAR_DATE ( 2022, 10, 7 ) ;
#274 = ORIENTED_EDGE ( 'NONE', *, *, #128, .T. ) ;
#275 = CC_DESIGN_APPROVAL ( #62, ( #364 ) ) ;
#276 = APPROVAL_ROLE ( '' ) ;
#277 = CYLINDRICAL_SURFACE ( 'NONE', #52, 2.500000000000000000 ) ;
#278 = SECURITY_CLASSIFICATION_LEVEL ( 'unclassified' ) ;
#279 = EDGE_LOOP ( 'NONE', ( #87, #44, #317, #210 ) ) ;
#280 = EDGE_CURVE ( 'NONE', #369, #15, #262, .T. ) ;
#281 = DATE_TIME_ROLE ( 'classification_date' ) ;
#282 = EDGE_LOOP ( 'NONE', ( #47, #30, #46, #127 ) ) ;
#283 = VECTOR ( 'NONE', #5, 1000.000000000000000 ) ;
#284 = APPROVAL_PERSON_ORGANIZATION ( #285, #57, #141 ) ;
#285 = PERSON_AND_ORGANIZATION ( #171, #48 ) ;
#286 = CARTESIAN_POINT ( 'NONE',  ( 0.000000000000000000, 0.000000000000000000, 5.500000000000005329 ) ) ;
#287 = EDGE_CURVE ( 'NONE', #337, #166, #361, .T. ) ;
#288 = DIRECTION ( 'NONE',  ( 1.000000000000000000, 0.000000000000000000, 0.000000000000000000 ) ) ;
#289 = ORIENTED_EDGE ( 'NONE', *, *, #16, .T. ) ;
#290 = CARTESIAN_POINT ( 'NONE',  ( 0.000000000000000000, 0.000000000000000000, 80.00000000000000000 ) ) ;
#291 = CC_DESIGN_SECURITY_CLASSIFICATION ( #89, ( #72 ) ) ;
#292 = CARTESIAN_POINT ( 'NONE',  ( -4.500000000000000888, 5.510910596163089556E-16, 5.500000000000005329 ) ) ;
#293 = ADVANCED_FACE ( 'NONE', ( #93, #211 ), #3, .T. ) ;
#294 = ORIENTED_EDGE ( 'NONE', *, *, #353, .T. ) ;
#295 = DIRECTION ( 'NONE',  ( 1.000000000000000000, 0.000000000000000000, 0.000000000000000000 ) ) ;
#296 = VECTOR ( 'NONE', #2, 1000.000000000000000 ) ;
#297 = LOCAL_TIME ( 11, 10, 12.00000000000000000, #102 ) ;
#298 = AXIS2_PLACEMENT_3D ( 'NONE', #122, #36, #59 ) ;
#299 = CARTESIAN_POINT ( 'NONE',  ( 4.000000000000000000, 4.898587196589412829E-16, 80.00000000000000000 ) ) ;
#300 = ORIENTED_EDGE ( 'NONE', *, *, #376, .T. ) ;
#301 = CC_DESIGN_PERSON_AND_ORGANIZATION_ASSIGNMENT ( #14, #368, ( #89 ) ) ;
#302 = CARTESIAN_POINT ( 'NONE',  ( 4.500000000000000888, 0.000000000000000000, 5.000000000000002665 ) ) ;
#303 = DIRECTION ( 'NONE',  ( 0.000000000000000000, 0.000000000000000000, 1.000000000000000000 ) ) ;
#304 = ORIENTED_EDGE ( 'NONE', *, *, #376, .F. ) ;
#305 = LINE ( 'NONE', #152, #296 ) ;
#306 = EDGE_CURVE ( 'NONE', #15, #369, #179, .T. ) ;
#307 = PERSON_AND_ORGANIZATION_ROLE ( 'design_owner' ) ;
#308 = CIRCLE ( 'NONE', #354, 7.000000000000000000 ) ;
#309 = FACE_BOUND ( 'NONE', #197, .T. ) ;
#310 =( NAMED_UNIT ( * ) PLANE_ANGLE_UNIT ( ) SI_UNIT ( $, .RADIAN. ) );
#311 = CIRCLE ( 'NONE', #34, 4.000000000000000000 ) ;
#312 = CARTESIAN_POINT ( 'NONE',  ( 0.000000000000000000, 0.000000000000000000, 80.00000000000000000 ) ) ;
#313 = CALENDAR_DATE ( 2022, 10, 7 ) ;
#314 = ADVANCED_FACE ( 'NONE', ( #236 ), #180, .T. ) ;
#315 = PERSON_AND_ORGANIZATION_ROLE ( 'design_supplier' ) ;
#316 = VERTEX_POINT ( 'NONE', #58 ) ;
#317 = ORIENTED_EDGE ( 'NONE', *, *, #328, .T. ) ;
#318 = ADVANCED_FACE ( 'NONE', ( #155 ), #329, .T. ) ;
#319 =( GEOMETRIC_REPRESENTATION_CONTEXT ( 3 ) GLOBAL_UNCERTAINTY_ASSIGNED_CONTEXT ( ( #330 ) ) GLOBAL_UNIT_ASSIGNED_CONTEXT ( ( #215, #310, #343 ) ) REPRESENTATION_CONTEXT ( 'NONE', 'WORKASPACE' ) );
#320 = DIRECTION ( 'NONE',  ( -0.000000000000000000, -0.000000000000000000, -1.000000000000000000 ) ) ;
#321 = ORIENTED_EDGE ( 'NONE', *, *, #11, .T. ) ;
#322 = CARTESIAN_POINT ( 'NONE',  ( 0.000000000000000000, 0.000000000000000000, 80.00000000000000000 ) ) ;
#323 = CIRCLE ( 'NONE', #366, 0.5000000000000004441 ) ;
#324 = CARTESIAN_POINT ( 'NONE',  ( 2.500000000000000000, 3.061616997868383141E-16, 80.00000000000000000 ) ) ;
#325 = DIRECTION ( 'NONE',  ( 0.000000000000000000, 0.000000000000000000, 1.000000000000000000 ) ) ;
#326 = FACE_OUTER_BOUND ( 'NONE', #362, .T. ) ;
#327 = ORIENTED_EDGE ( 'NONE', *, *, #280, .F. ) ;
#328 = EDGE_CURVE ( 'NONE', #316, #55, #203, .T. ) ;
#329 = CYLINDRICAL_SURFACE ( 'NONE', #380, 4.000000000000000000 ) ;
#330 = UNCERTAINTY_MEASURE_WITH_UNIT (LENGTH_MEASURE( 1.000000000000000082E-05 ), #215, 'distance_accuracy_value', 'NONE');
#331 = CARTESIAN_POINT ( 'NONE',  ( -4.000000000000000000, 0.000000000000000000, 80.00000000000000000 ) ) ;
#332 = CLOSED_SHELL ( 'NONE', ( #370, #136, #318, #314, #123, #293, #222, #167, #76, #151, #39 ) ) ;
#333 = DIRECTION ( 'NONE',  ( 0.000000000000000000, 0.000000000000000000, 1.000000000000000000 ) ) ;
#334 = EDGE_CURVE ( 'NONE', #258, #340, #249, .T. ) ;
#335 = EDGE_LOOP ( 'NONE', ( #294, #140 ) ) ;
#336 = PERSON_AND_ORGANIZATION ( #171, #48 ) ;
#337 = VERTEX_POINT ( 'NONE', #157 ) ;
#338 = APPLICATION_CONTEXT ( 'configuration controlled 3d designs of mechanical parts and assemblies' ) ;
#339 = CIRCLE ( 'NONE', #234, 7.000000000000000000 ) ;
#340 = VERTEX_POINT ( 'NONE', #7 ) ;
#341 = APPROVAL_STATUS ( 'not_yet_approved' ) ;
#342 = ORIENTED_EDGE ( 'NONE', *, *, #334, .F. ) ;
#343 =( NAMED_UNIT ( * ) SI_UNIT ( $, .STERADIAN. ) SOLID_ANGLE_UNIT ( ) );
#344 = CARTESIAN_POINT ( 'NONE',  ( 0.000000000000000000, 0.000000000000000000, 0.000000000000000000 ) ) ;
#345 = EDGE_CURVE ( 'NONE', #258, #55, #359, .T. ) ;
#346 = AXIS2_PLACEMENT_3D ( 'NONE', #186, #303, #207 ) ;
#347 = DIRECTION ( 'NONE',  ( -1.000000000000000000, 0.000000000000000000, 0.000000000000000000 ) ) ;
#348 = EDGE_CURVE ( 'NONE', #232, #96, #19, .T. ) ;
#349 = DIRECTION ( 'NONE',  ( -1.000000000000000000, 1.224646799147351482E-16, 0.000000000000000000 ) ) ;
#350 = TOROIDAL_SURFACE ( 'NONE', #116, 4.500000000000000888, 0.5000000000000000000 ) ;
#351 = DIRECTION ( 'NONE',  ( 1.000000000000000000, 0.000000000000000000, 0.000000000000000000 ) ) ;
#352 = DIRECTION ( 'NONE',  ( 1.000000000000000000, 0.000000000000000000, 0.000000000000000000 ) ) ;
#353 = EDGE_CURVE ( 'NONE', #166, #337, #214, .T. ) ;
#354 = AXIS2_PLACEMENT_3D ( 'NONE', #344, #18, #8 ) ;
#355 = CARTESIAN_POINT ( 'NONE',  ( -2.500000000000000000, 0.000000000000000000, 0.000000000000000000 ) ) ;
#356 = VECTOR ( 'NONE', #91, 1000.000000000000000 ) ;
#357 = CARTESIAN_POINT ( 'NONE',  ( 7.000000000000000000, 8.572527594031473190E-16, 5.000000000000000000 ) ) ;
#358 = DIRECTION ( 'NONE',  ( 0.000000000000000000, 0.000000000000000000, 1.000000000000000000 ) ) ;
#359 = LINE ( 'NONE', #97, #356 ) ;
#360 = ORIENTED_EDGE ( 'NONE', *, *, #178, .F. ) ;
#361 = CIRCLE ( 'NONE', #79, 7.000000000000000000 ) ;
#362 = EDGE_LOOP ( 'NONE', ( #227, #199 ) ) ;
#363 = PERSON_AND_ORGANIZATION ( #171, #48 ) ;
#364 = PRODUCT_DEFINITION ( 'NEZNÁMÝ', '', #72, #184 ) ;
#365 = COORDINATED_UNIVERSAL_TIME_OFFSET ( 1, 0, .AHEAD. ) ;
#366 = AXIS2_PLACEMENT_3D ( 'NONE', #292, #373, #349 ) ;
#367 = DIRECTION ( 'NONE',  ( -1.000000000000000000, 0.000000000000000000, 0.000000000000000000 ) ) ;
#368 = PERSON_AND_ORGANIZATION_ROLE ( 'classification_officer' ) ;
#369 = VERTEX_POINT ( 'NONE', #302 ) ;
#370 = ADVANCED_FACE ( 'NONE', ( #29 ), #154, .F. ) ;
#371 = COORDINATED_UNIVERSAL_TIME_OFFSET ( 1, 0, .AHEAD. ) ;
#372 = CARTESIAN_POINT ( 'NONE',  ( 2.500000000000000000, 3.061616997868383141E-16, 80.00000000000000000 ) ) ;
#373 = DIRECTION ( 'NONE',  ( 1.224646799147353207E-16, 1.000000000000000000, -0.000000000000000000 ) ) ;
#374 = CYLINDRICAL_SURFACE ( 'NONE', #104, 7.000000000000000000 ) ;
#375 = ORIENTED_EDGE ( 'NONE', *, *, #348, .T. ) ;
#376 = EDGE_CURVE ( 'NONE', #316, #369, #169, .T. ) ;
#377 = CARTESIAN_POINT ( 'NONE',  ( -7.000000000000000000, 0.000000000000000000, 5.000000000000000000 ) ) ;
#378 = CARTESIAN_POINT ( 'NONE',  ( 0.000000000000000000, 0.000000000000000000, 5.500000000000005329 ) ) ;
#379 = VECTOR ( 'NONE', #120, 1000.000000000000000 ) ;
#380 = AXIS2_PLACEMENT_3D ( 'NONE', #269, #239, #64 ) ;
#381 = DIRECTION ( 'NONE',  ( 0.000000000000000000, 0.000000000000000000, 1.000000000000000000 ) ) ;
ENDSEC;
END-ISO-10303-21;
