ISO-10303-21;
HEADER;
FILE_DESCRIPTION (( 'STEP AP203' ),
    '1' );
FILE_NAME ('8823.STEP',
    '2022-07-10T08:59:39',
    ( '' ),
    ( '' ),
    'SwSTEP 2.0',
    'SolidWorks 2019',
    '' );
FILE_SCHEMA (( 'CONFIG_CONTROL_DESIGN' ));
ENDSEC;

DATA;
#1 = APPROVAL ( #175, 'NEURÈENÝ' ) ;
#2 = ADVANCED_FACE ( 'NONE', ( #247 ), #154, .T. ) ;
#3 = DIRECTION ( 'NONE',  ( 0.000000000000000000, 0.000000000000000000, 1.000000000000000000 ) ) ;
#4 = CC_DESIGN_APPROVAL ( #118, ( #18 ) ) ;
#5 = DATE_TIME_ROLE ( 'classification_date' ) ;
#6 = ORIENTED_EDGE ( 'NONE', *, *, #135, .T. ) ;
#7 = COORDINATED_UNIVERSAL_TIME_OFFSET ( 1, 0, .AHEAD. ) ;
#8 = ORIENTED_EDGE ( 'NONE', *, *, #57, .F. ) ;
#9 = CIRCLE ( 'NONE', #228, 6.000000000000000888 ) ;
#10 = PERSON ( 'NEURÈENÝ', 'NEURÈENÝ', 'NEURÈENÝ', ('NEURÈENÝ'), ('NEURÈENÝ'), ('NEURÈENÝ') ) ;
#11 = ORIENTED_EDGE ( 'NONE', *, *, #101, .T. ) ;
#12 = LOCAL_TIME ( 10, 59, 39.00000000000000000, #150 ) ;
#13 = FACE_OUTER_BOUND ( 'NONE', #317, .T. ) ;
#14 = DIRECTION ( 'NONE',  ( 0.000000000000000000, 0.000000000000000000, 1.000000000000000000 ) ) ;
#15 = CIRCLE ( 'NONE', #64, 8.000000000000000000 ) ;
#16 = DIRECTION ( 'NONE',  ( 0.000000000000000000, 0.000000000000000000, 1.000000000000000000 ) ) ;
#17 = CYLINDRICAL_SURFACE ( 'NONE', #172, 6.000000000000000888 ) ;
#18 = SECURITY_CLASSIFICATION ( '', '', #300 ) ;
#19 = CC_DESIGN_PERSON_AND_ORGANIZATION_ASSIGNMENT ( #90, #324, ( #210 ) ) ;
#20 = DIRECTION ( 'NONE',  ( 1.000000000000000000, 0.000000000000000000, 0.000000000000000000 ) ) ;
#21 = DIRECTION ( 'NONE',  ( 1.000000000000000000, 0.000000000000000000, 0.000000000000000000 ) ) ;
#22 = ORIENTED_EDGE ( 'NONE', *, *, #174, .T. ) ;
#23 = CARTESIAN_POINT ( 'NONE',  ( -6.000000000000000888, 0.000000000000000000, 182.0000000000000000 ) ) ;
#24 = EDGE_CURVE ( 'NONE', #346, #167, #15, .T. ) ;
#25 = CARTESIAN_POINT ( 'NONE',  ( 0.000000000000000000, 0.000000000000000000, 7.700000000000012612 ) ) ;
#26 = VERTEX_POINT ( 'NONE', #359 ) ;
#27 = DIRECTION ( 'NONE',  ( -0.000000000000000000, -0.000000000000000000, -1.000000000000000000 ) ) ;
#28 = CIRCLE ( 'NONE', #96, 8.000000000000000000 ) ;
#29 = ORIENTED_EDGE ( 'NONE', *, *, #222, .T. ) ;
#30 = AXIS2_PLACEMENT_3D ( 'NONE', #366, #16, #20 ) ;
#31 = DATE_TIME_ROLE ( 'creation_date' ) ;
#32 = ORIENTED_EDGE ( 'NONE', *, *, #272, .F. ) ;
#33 = ORIENTED_EDGE ( 'NONE', *, *, #174, .F. ) ;
#34 = PERSON_AND_ORGANIZATION ( #10, #363 ) ;
#35 = ORIENTED_EDGE ( 'NONE', *, *, #135, .F. ) ;
#36 = AXIS2_PLACEMENT_3D ( 'NONE', #139, #201, #318 ) ;
#37 = PERSON_AND_ORGANIZATION_ROLE ( 'design_owner' ) ;
#38 = EDGE_LOOP ( 'NONE', ( #58, #68, #117, #86 ) ) ;
#39 = VERTEX_POINT ( 'NONE', #119 ) ;
#40 = APPLICATION_CONTEXT ( 'configuration controlled 3d designs of mechanical parts and assemblies' ) ;
#41 = EDGE_CURVE ( 'NONE', #63, #115, #214, .T. ) ;
#42 = DIRECTION ( 'NONE',  ( 0.000000000000000000, 0.000000000000000000, 1.000000000000000000 ) ) ;
#43 = LOCAL_TIME ( 10, 59, 39.00000000000000000, #97 ) ;
#44 = CARTESIAN_POINT ( 'NONE',  ( 0.000000000000000000, 0.000000000000000000, 7.000000000000000000 ) ) ;
#45 = DIRECTION ( 'NONE',  ( 1.000000000000000000, 0.000000000000000000, 0.000000000000000000 ) ) ;
#46 = VECTOR ( 'NONE', #158, 1000.000000000000000 ) ;
#47 = DIRECTION ( 'NONE',  ( -0.000000000000000000, -0.000000000000000000, -1.000000000000000000 ) ) ;
#48 = FACE_BOUND ( 'NONE', #202, .T. ) ;
#49 = AXIS2_PLACEMENT_3D ( 'NONE', #349, #168, #294 ) ;
#50 = DIRECTION ( 'NONE',  ( 0.000000000000000000, 0.000000000000000000, 1.000000000000000000 ) ) ;
#51 = DIRECTION ( 'NONE',  ( 1.000000000000000000, 0.000000000000000000, 0.000000000000000000 ) ) ;
#52 = ORIENTED_EDGE ( 'NONE', *, *, #206, .F. ) ;
#53 = FACE_BOUND ( 'NONE', #271, .T. ) ;
#54 = CC_DESIGN_SECURITY_CLASSIFICATION ( #18, ( #210 ) ) ;
#55 = DIRECTION ( 'NONE',  ( 0.000000000000000000, -1.000000000000000000, 0.000000000000000000 ) ) ;
#56 = CARTESIAN_POINT ( 'NONE',  ( -8.000000000000000000, 0.000000000000000000, 182.0000000000000000 ) ) ;
#57 = EDGE_CURVE ( 'NONE', #26, #167, #190, .T. ) ;
#58 = ORIENTED_EDGE ( 'NONE', *, *, #319, .F. ) ;
#59 = APPROVAL_PERSON_ORGANIZATION ( #305, #118, #360 ) ;
#60 = ORIENTED_EDGE ( 'NONE', *, *, #206, .T. ) ;
#61 = CALENDAR_DATE ( 2022, 10, 7 ) ;
#62 = EDGE_CURVE ( 'NONE', #167, #346, #28, .T. ) ;
#63 = VERTEX_POINT ( 'NONE', #282 ) ;
#64 = AXIS2_PLACEMENT_3D ( 'NONE', #216, #3, #331 ) ;
#65 = DATE_AND_TIME ( #380, #187 ) ;
#66 = ORIENTED_EDGE ( 'NONE', *, *, #343, .T. ) ;
#67 = AXIS2_PLACEMENT_3D ( 'NONE', #285, #263, #204 ) ;
#68 = ORIENTED_EDGE ( 'NONE', *, *, #57, .T. ) ;
#69 = ADVANCED_FACE ( 'NONE', ( #196 ), #17, .F. ) ;
#70 = CARTESIAN_POINT ( 'NONE',  ( -6.000000000000000888, 0.000000000000000000, 182.0000000000000000 ) ) ;
#71 = ADVANCED_FACE ( 'NONE', ( #195, #13 ), #221, .T. ) ;
#72 = DIRECTION ( 'NONE',  ( -1.000000000000000000, 0.000000000000000000, 0.000000000000000000 ) ) ;
#73 = CIRCLE ( 'NONE', #336, 6.000000000000000888 ) ;
#74 = DIRECTION ( 'NONE',  ( 1.000000000000000000, 0.000000000000000000, 0.000000000000000000 ) ) ;
#75 = CARTESIAN_POINT ( 'NONE',  ( 0.000000000000000000, 0.000000000000000000, 0.000000000000000000 ) ) ;
#76 = VECTOR ( 'NONE', #255, 1000.000000000000000 ) ;
#77 = DIRECTION ( 'NONE',  ( -0.000000000000000000, -0.000000000000000000, -1.000000000000000000 ) ) ;
#78 = AXIS2_PLACEMENT_3D ( 'NONE', #112, #231, #144 ) ;
#79 = CARTESIAN_POINT ( 'NONE',  ( 8.699999999999999289, 0.000000000000000000, 7.700000000000012612 ) ) ;
#80 = ORIENTED_EDGE ( 'NONE', *, *, #258, .T. ) ;
#81 = ADVANCED_FACE ( 'NONE', ( #48, #310 ), #278, .T. ) ;
#82 = CARTESIAN_POINT ( 'NONE',  ( 6.000000000000000888, 7.347880794884120722E-16, 182.0000000000000000 ) ) ;
#83 = CARTESIAN_POINT ( 'NONE',  ( 0.000000000000000000, 0.000000000000000000, 182.0000000000000000 ) ) ;
#84 = VERTEX_POINT ( 'NONE', #128 ) ;
#85 = CARTESIAN_POINT ( 'NONE',  ( -8.000000000000000000, 0.000000000000000000, 7.700000000000012612 ) ) ;
#86 = ORIENTED_EDGE ( 'NONE', *, *, #88, .F. ) ;
#87 = CC_DESIGN_PERSON_AND_ORGANIZATION_ASSIGNMENT ( #240, #121, ( #314 ) ) ;
#88 = EDGE_CURVE ( 'NONE', #381, #346, #249, .T. ) ;
#89 = EDGE_LOOP ( 'NONE', ( #91, #364 ) ) ;
#90 = PERSON_AND_ORGANIZATION ( #10, #363 ) ;
#91 = ORIENTED_EDGE ( 'NONE', *, *, #125, .F. ) ;
#92 = AXIS2_PLACEMENT_3D ( 'NONE', #292, #113, #51 ) ;
#93 = CC_DESIGN_PERSON_AND_ORGANIZATION_ASSIGNMENT ( #242, #37, ( #354 ) ) ;
#94 = EDGE_LOOP ( 'NONE', ( #177, #11, #286, #321 ) ) ;
#95 = EDGE_LOOP ( 'NONE', ( #238, #218, #186, #183 ) ) ;
#96 = AXIS2_PLACEMENT_3D ( 'NONE', #241, #357, #165 ) ;
#97 = COORDINATED_UNIVERSAL_TIME_OFFSET ( 1, 0, .AHEAD. ) ;
#98 = DIRECTION ( 'NONE',  ( -1.000000000000000000, 0.000000000000000000, 0.000000000000000000 ) ) ;
#99 = VECTOR ( 'NONE', #260, 1000.000000000000000 ) ;
#100 = DIRECTION ( 'NONE',  ( 0.000000000000000000, 0.000000000000000000, 1.000000000000000000 ) ) ;
#101 = EDGE_CURVE ( 'NONE', #246, #84, #254, .T. ) ;
#102 = DIRECTION ( 'NONE',  ( -0.000000000000000000, -0.000000000000000000, -1.000000000000000000 ) ) ;
#103 = DIRECTION ( 'NONE',  ( -0.000000000000000000, -0.000000000000000000, -1.000000000000000000 ) ) ;
#104 = CIRCLE ( 'NONE', #30, 6.000000000000000888 ) ;
#105 = DIRECTION ( 'NONE',  ( 1.000000000000000000, 0.000000000000000000, 0.000000000000000000 ) ) ;
#106 = CARTESIAN_POINT ( 'NONE',  ( 0.000000000000000000, 0.000000000000000000, 182.0000000000000000 ) ) ;
#107 = CARTESIAN_POINT ( 'NONE',  ( 0.000000000000000000, 0.000000000000000000, 7.000000000000000000 ) ) ;
#108 = LINE ( 'NONE', #320, #99 ) ;
#109 = DIRECTION ( 'NONE',  ( 0.000000000000000000, 0.000000000000000000, 1.000000000000000000 ) ) ;
#110 = ORIENTED_EDGE ( 'NONE', *, *, #137, .T. ) ;
#111 = AXIS2_PLACEMENT_3D ( 'NONE', #301, #100, #266 ) ;
#112 = CARTESIAN_POINT ( 'NONE',  ( 0.000000000000000000, 0.000000000000000000, 7.000000000000000000 ) ) ;
#113 = DIRECTION ( 'NONE',  ( 0.000000000000000000, 0.000000000000000000, 1.000000000000000000 ) ) ;
#114 = CIRCLE ( 'NONE', #92, 8.000000000000000000 ) ;
#115 = VERTEX_POINT ( 'NONE', #311 ) ;
#116 =( NAMED_UNIT ( * ) SI_UNIT ( $, .STERADIAN. ) SOLID_ANGLE_UNIT ( ) );
#117 = ORIENTED_EDGE ( 'NONE', *, *, #62, .T. ) ;
#118 = APPROVAL ( #245, 'NEURÈENÝ' ) ;
#119 = CARTESIAN_POINT ( 'NONE',  ( -11.00000000000000000, 0.000000000000000000, 7.000000000000000000 ) ) ;
#120 = LOCAL_TIME ( 10, 59, 39.00000000000000000, #296 ) ;
#121 = PERSON_AND_ORGANIZATION_ROLE ( 'creator' ) ;
#122 = ORIENTED_EDGE ( 'NONE', *, *, #198, .T. ) ;
#123 = DATE_AND_TIME ( #61, #12 ) ;
#124 = ORIENTED_EDGE ( 'NONE', *, *, #343, .F. ) ;
#125 = EDGE_CURVE ( 'NONE', #179, #246, #9, .T. ) ;
#126 = EDGE_LOOP ( 'NONE', ( #375, #66, #207, #262 ) ) ;
#127 = AXIS2_PLACEMENT_3D ( 'NONE', #83, #345, #142 ) ;
#128 = CARTESIAN_POINT ( 'NONE',  ( 6.000000000000000888, 7.347880794884120722E-16, 0.000000000000000000 ) ) ;
#129 = DIRECTION ( 'NONE',  ( -1.000000000000000000, 0.000000000000000000, 0.000000000000000000 ) ) ;
#130 = ADVANCED_FACE ( 'NONE', ( #370 ), #369, .T. ) ;
#131 = DIRECTION ( 'NONE',  ( 0.000000000000000000, 0.000000000000000000, 1.000000000000000000 ) ) ;
#132 = AXIS2_PLACEMENT_3D ( 'NONE', #356, #237, #267 ) ;
#133 = DIRECTION ( 'NONE',  ( 1.000000000000000000, 0.000000000000000000, -0.000000000000000000 ) ) ;
#134 = CYLINDRICAL_SURFACE ( 'NONE', #379, 11.00000000000000000 ) ;
#135 = EDGE_CURVE ( 'NONE', #39, #325, #256, .T. ) ;
#136 = FACE_OUTER_BOUND ( 'NONE', #151, .T. ) ;
#137 = EDGE_CURVE ( 'NONE', #246, #179, #104, .T. ) ;
#138 = EDGE_LOOP ( 'NONE', ( #6, #211 ) ) ;
#139 = CARTESIAN_POINT ( 'NONE',  ( 0.000000000000000000, 0.000000000000000000, 7.000000000000000000 ) ) ;
#140 = CIRCLE ( 'NONE', #145, 11.00000000000000000 ) ;
#141 = ORIENTED_EDGE ( 'NONE', *, *, #307, .T. ) ;
#142 = DIRECTION ( 'NONE',  ( -1.000000000000000000, 0.000000000000000000, 0.000000000000000000 ) ) ;
#143 = AXIS2_PLACEMENT_3D ( 'NONE', #159, #131, #133 ) ;
#144 = DIRECTION ( 'NONE',  ( 1.000000000000000000, 0.000000000000000000, 0.000000000000000000 ) ) ;
#145 = AXIS2_PLACEMENT_3D ( 'NONE', #75, #42, #74 ) ;
#146 = EDGE_LOOP ( 'NONE', ( #8, #276, #274, #361 ) ) ;
#147 = PERSON_AND_ORGANIZATION ( #10, #363 ) ;
#148 = CLOSED_SHELL ( 'NONE', ( #69, #377, #2, #156, #188, #81, #277, #130, #71, #215, #291 ) ) ;
#149 = CARTESIAN_POINT ( 'NONE',  ( 0.000000000000000000, 0.000000000000000000, 182.0000000000000000 ) ) ;
#150 = COORDINATED_UNIVERSAL_TIME_OFFSET ( 1, 0, .AHEAD. ) ;
#151 = EDGE_LOOP ( 'NONE', ( #329, #208 ) ) ;
#152 = TOROIDAL_SURFACE ( 'NONE', #330, 8.699999999999999289, 0.6999999999999999556 ) ;
#153 = CALENDAR_DATE ( 2022, 10, 7 ) ;
#154 = CYLINDRICAL_SURFACE ( 'NONE', #182, 8.000000000000000000 ) ;
#155 = APPROVAL ( #352, 'NEURÈENÝ' ) ;
#156 = ADVANCED_FACE ( 'NONE', ( #252 ), #134, .T. ) ;
#157 = CALENDAR_DATE ( 2022, 10, 7 ) ;
#158 = DIRECTION ( 'NONE',  ( -0.000000000000000000, -0.000000000000000000, -1.000000000000000000 ) ) ;
#159 = CARTESIAN_POINT ( 'NONE',  ( 0.000000000000000000, 0.000000000000000000, 182.0000000000000000 ) ) ;
#160 = SHAPE_DEFINITION_REPRESENTATION ( #239, #273 ) ;
#161 = DIRECTION ( 'NONE',  ( 0.000000000000000000, 0.000000000000000000, -1.000000000000000000 ) ) ;
#162 = CARTESIAN_POINT ( 'NONE',  ( 0.000000000000000000, 0.000000000000000000, 182.0000000000000000 ) ) ;
#163 = DIRECTION ( 'NONE',  ( -1.000000000000000000, 0.000000000000000000, 0.000000000000000000 ) ) ;
#164 = AXIS2_PLACEMENT_3D ( 'NONE', #106, #102, #72 ) ;
#165 = DIRECTION ( 'NONE',  ( 1.000000000000000000, 0.000000000000000000, 0.000000000000000000 ) ) ;
#166 = CARTESIAN_POINT ( 'NONE',  ( 8.699999999999999289, 0.000000000000000000, 7.000000000000006217 ) ) ;
#167 = VERTEX_POINT ( 'NONE', #338 ) ;
#168 = DIRECTION ( 'NONE',  ( -0.000000000000000000, -0.000000000000000000, -1.000000000000000000 ) ) ;
#169 = FACE_OUTER_BOUND ( 'NONE', #95, .T. ) ;
#170 =( GEOMETRIC_REPRESENTATION_CONTEXT ( 3 ) GLOBAL_UNCERTAINTY_ASSIGNED_CONTEXT ( ( #298 ) ) GLOBAL_UNIT_ASSIGNED_CONTEXT ( ( #264, #313, #116 ) ) REPRESENTATION_CONTEXT ( 'NONE', 'WORKASPACE' ) );
#171 = CARTESIAN_POINT ( 'NONE',  ( 0.000000000000000000, 0.000000000000000000, 0.000000000000000000 ) ) ;
#172 = AXIS2_PLACEMENT_3D ( 'NONE', #162, #161, #129 ) ;
#173 = DIRECTION ( 'NONE',  ( 0.000000000000000000, 0.000000000000000000, -1.000000000000000000 ) ) ;
#174 = EDGE_CURVE ( 'NONE', #212, #243, #323, .T. ) ;
#175 = APPROVAL_STATUS ( 'not_yet_approved' ) ;
#176 = AXIS2_PLACEMENT_3D ( 'NONE', #367, #103, #223 ) ;
#177 = ORIENTED_EDGE ( 'NONE', *, *, #125, .T. ) ;
#178 = DATE_AND_TIME ( #153, #120 ) ;
#179 = VERTEX_POINT ( 'NONE', #70 ) ;
#180 = DESIGN_CONTEXT ( 'detailed design', #40, 'design' ) ;
#181 = PERSON_AND_ORGANIZATION_ROLE ( 'design_supplier' ) ;
#182 = AXIS2_PLACEMENT_3D ( 'NONE', #149, #268, #98 ) ;
#183 = ORIENTED_EDGE ( 'NONE', *, *, #258, .F. ) ;
#184 = APPLICATION_CONTEXT ( 'configuration controlled 3d designs of mechanical parts and assemblies' ) ;
#185 = PERSON_AND_ORGANIZATION_ROLE ( 'classification_officer' ) ;
#186 = ORIENTED_EDGE ( 'NONE', *, *, #307, .F. ) ;
#187 = LOCAL_TIME ( 10, 59, 39.00000000000000000, #328 ) ;
#188 = ADVANCED_FACE ( 'NONE', ( #251 ), #191, .T. ) ;
#189 = MECHANICAL_CONTEXT ( 'NONE', #184, 'mechanical' ) ;
#190 = LINE ( 'NONE', #220, #46 ) ;
#191 = CYLINDRICAL_SURFACE ( 'NONE', #176, 11.00000000000000000 ) ;
#192 = CC_DESIGN_DATE_AND_TIME_ASSIGNMENT ( #269, #5, ( #18 ) ) ;
#193 = CARTESIAN_POINT ( 'NONE',  ( 0.000000000000000000, 0.000000000000000000, 7.000000000000000000 ) ) ;
#194 = APPROVAL_PERSON_ORGANIZATION ( #147, #155, #326 ) ;
#195 = FACE_BOUND ( 'NONE', #89, .T. ) ;
#196 = FACE_OUTER_BOUND ( 'NONE', #94, .T. ) ;
#197 = CARTESIAN_POINT ( 'NONE',  ( 0.000000000000000000, 0.000000000000000000, 0.000000000000000000 ) ) ;
#198 = EDGE_CURVE ( 'NONE', #381, #26, #200, .T. ) ;
#199 = EDGE_CURVE ( 'NONE', #115, #63, #140, .T. ) ;
#200 = CIRCLE ( 'NONE', #283, 8.000000000000000000 ) ;
#201 = DIRECTION ( 'NONE',  ( -0.000000000000000000, -0.000000000000000000, -1.000000000000000000 ) ) ;
#202 = EDGE_LOOP ( 'NONE', ( #141, #22 ) ) ;
#203 = PRODUCT_RELATED_PRODUCT_CATEGORY ( 'detail', '', ( #354 ) ) ;
#204 = DIRECTION ( 'NONE',  ( -1.000000000000000000, 1.224646799147353207E-16, 0.000000000000000000 ) ) ;
#205 = CIRCLE ( 'NONE', #36, 8.699999999999999289 ) ;
#206 = EDGE_CURVE ( 'NONE', #351, #84, #73, .T. ) ;
#207 = ORIENTED_EDGE ( 'NONE', *, *, #41, .T. ) ;
#208 = ORIENTED_EDGE ( 'NONE', *, *, #41, .F. ) ;
#209 = PERSON_AND_ORGANIZATION ( #10, #363 ) ;
#210 = PRODUCT_DEFINITION_FORMATION_WITH_SPECIFIED_SOURCE ( 'LIBOVOLNÝ', '', #354, .NOT_KNOWN. ) ;
#211 = ORIENTED_EDGE ( 'NONE', *, *, #253, .T. ) ;
#212 = VERTEX_POINT ( 'NONE', #378 ) ;
#213 = APPROVAL_DATE_TIME ( #178, #1 ) ;
#214 = CIRCLE ( 'NONE', #111, 11.00000000000000000 ) ;
#215 = ADVANCED_FACE ( 'NONE', ( #230 ), #152, .F. ) ;
#216 = CARTESIAN_POINT ( 'NONE',  ( 0.000000000000000000, 0.000000000000000000, 7.700000000000012612 ) ) ;
#217 = APPROVAL_DATE_TIME ( #123, #155 ) ;
#218 = ORIENTED_EDGE ( 'NONE', *, *, #272, .T. ) ;
#219 = VECTOR ( 'NONE', #27, 1000.000000000000000 ) ;
#220 = CARTESIAN_POINT ( 'NONE',  ( 8.000000000000000000, 9.797174393178825657E-16, 182.0000000000000000 ) ) ;
#221 = PLANE ( 'NONE',  #143 ) ;
#222 = EDGE_CURVE ( 'NONE', #39, #115, #261, .T. ) ;
#223 = DIRECTION ( 'NONE',  ( -1.000000000000000000, 0.000000000000000000, 0.000000000000000000 ) ) ;
#224 = VECTOR ( 'NONE', #340, 1000.000000000000000 ) ;
#225 = DIRECTION ( 'NONE',  ( 0.000000000000000000, 0.000000000000000000, -1.000000000000000000 ) ) ;
#226 = DIRECTION ( 'NONE',  ( 1.000000000000000000, 0.000000000000000000, -0.000000000000000000 ) ) ;
#227 = CC_DESIGN_DATE_AND_TIME_ASSIGNMENT ( #65, #31, ( #314 ) ) ;
#228 = AXIS2_PLACEMENT_3D ( 'NONE', #280, #333, #281 ) ;
#229 = CC_DESIGN_APPROVAL ( #155, ( #210 ) ) ;
#230 = FACE_OUTER_BOUND ( 'NONE', #297, .T. ) ;
#231 = DIRECTION ( 'NONE',  ( 0.000000000000000000, 0.000000000000000000, 1.000000000000000000 ) ) ;
#232 = PLANE ( 'NONE',  #259 ) ;
#233 = LINE ( 'NONE', #23, #224 ) ;
#234 = CIRCLE ( 'NONE', #368, 0.7000000000000000666 ) ;
#235 = APPLICATION_PROTOCOL_DEFINITION ( 'international standard', 'config_control_design', 1994, #40 ) ;
#236 = ORIENTED_EDGE ( 'NONE', *, *, #101, .F. ) ;
#237 = DIRECTION ( 'NONE',  ( 0.000000000000000000, 0.000000000000000000, 1.000000000000000000 ) ) ;
#238 = ORIENTED_EDGE ( 'NONE', *, *, #24, .F. ) ;
#239 = PRODUCT_DEFINITION_SHAPE ( 'NONE', 'NONE',  #314 ) ;
#240 = PERSON_AND_ORGANIZATION ( #10, #363 ) ;
#241 = CARTESIAN_POINT ( 'NONE',  ( 0.000000000000000000, 0.000000000000000000, 7.700000000000012612 ) ) ;
#242 = PERSON_AND_ORGANIZATION ( #10, #363 ) ;
#243 = VERTEX_POINT ( 'NONE', #166 ) ;
#244 = AXIS2_PLACEMENT_3D ( 'NONE', #44, #365, #226 ) ;
#245 = APPROVAL_STATUS ( 'not_yet_approved' ) ;
#246 = VERTEX_POINT ( 'NONE', #82 ) ;
#247 = FACE_OUTER_BOUND ( 'NONE', #38, .T. ) ;
#248 = CIRCLE ( 'NONE', #78, 11.00000000000000000 ) ;
#249 = LINE ( 'NONE', #312, #76 ) ;
#250 = CC_DESIGN_PERSON_AND_ORGANIZATION_ASSIGNMENT ( #209, #181, ( #210 ) ) ;
#251 = FACE_OUTER_BOUND ( 'NONE', #299, .T. ) ;
#252 = FACE_OUTER_BOUND ( 'NONE', #126, .T. ) ;
#253 = EDGE_CURVE ( 'NONE', #325, #39, #248, .T. ) ;
#254 = LINE ( 'NONE', #284, #293 ) ;
#255 = DIRECTION ( 'NONE',  ( -0.000000000000000000, -0.000000000000000000, -1.000000000000000000 ) ) ;
#256 = CIRCLE ( 'NONE', #303, 11.00000000000000000 ) ;
#257 = DIRECTION ( 'NONE',  ( 1.000000000000000000, 0.000000000000000000, -0.000000000000000000 ) ) ;
#258 = EDGE_CURVE ( 'NONE', #167, #243, #234, .T. ) ;
#259 = AXIS2_PLACEMENT_3D ( 'NONE', #171, #50, #257 ) ;
#260 = DIRECTION ( 'NONE',  ( -0.000000000000000000, -0.000000000000000000, -1.000000000000000000 ) ) ;
#261 = LINE ( 'NONE', #344, #219 ) ;
#262 = ORIENTED_EDGE ( 'NONE', *, *, #222, .F. ) ;
#263 = DIRECTION ( 'NONE',  ( 1.224646799147353207E-16, 1.000000000000000000, -0.000000000000000000 ) ) ;
#264 =( LENGTH_UNIT ( ) NAMED_UNIT ( * ) SI_UNIT ( .MILLI., .METRE. ) );
#265 = CALENDAR_DATE ( 2022, 10, 7 ) ;
#266 = DIRECTION ( 'NONE',  ( 1.000000000000000000, 0.000000000000000000, 0.000000000000000000 ) ) ;
#267 = DIRECTION ( 'NONE',  ( 1.000000000000000000, 0.000000000000000000, 0.000000000000000000 ) ) ;
#268 = DIRECTION ( 'NONE',  ( -0.000000000000000000, -0.000000000000000000, -1.000000000000000000 ) ) ;
#269 = DATE_AND_TIME ( #265, #373 ) ;
#270 = AXIS2_PLACEMENT_3D ( 'NONE', #107, #77, #332 ) ;
#271 = EDGE_LOOP ( 'NONE', ( #52, #327 ) ) ;
#272 = EDGE_CURVE ( 'NONE', #346, #212, #295, .T. ) ;
#273 = ADVANCED_BREP_SHAPE_REPRESENTATION ( '8823', ( #337, #132 ), #170 ) ;
#274 = ORIENTED_EDGE ( 'NONE', *, *, #88, .T. ) ;
#275 = DATE_AND_TIME ( #157, #43 ) ;
#276 = ORIENTED_EDGE ( 'NONE', *, *, #198, .F. ) ;
#277 = ADVANCED_FACE ( 'NONE', ( #53, #136 ), #232, .F. ) ;
#278 = PLANE ( 'NONE',  #244 ) ;
#279 = CIRCLE ( 'NONE', #49, 6.000000000000000888 ) ;
#280 = CARTESIAN_POINT ( 'NONE',  ( 0.000000000000000000, 0.000000000000000000, 182.0000000000000000 ) ) ;
#281 = DIRECTION ( 'NONE',  ( 1.000000000000000000, 0.000000000000000000, 0.000000000000000000 ) ) ;
#282 = CARTESIAN_POINT ( 'NONE',  ( 11.00000000000000000, 1.347111479062088405E-15, 0.000000000000000000 ) ) ;
#283 = AXIS2_PLACEMENT_3D ( 'NONE', #335, #308, #105 ) ;
#284 = CARTESIAN_POINT ( 'NONE',  ( 6.000000000000000888, 7.347880794884120722E-16, 182.0000000000000000 ) ) ;
#285 = CARTESIAN_POINT ( 'NONE',  ( -8.699999999999999289, 1.065442715258197248E-15, 7.700000000000012612 ) ) ;
#286 = ORIENTED_EDGE ( 'NONE', *, *, #342, .T. ) ;
#287 = CARTESIAN_POINT ( 'NONE',  ( 0.000000000000000000, 0.000000000000000000, 7.700000000000012612 ) ) ;
#288 = EDGE_CURVE ( 'NONE', #179, #351, #233, .T. ) ;
#289 = EDGE_LOOP ( 'NONE', ( #236, #110, #306, #60 ) ) ;
#290 = DIRECTION ( 'NONE',  ( 1.000000000000000000, 0.000000000000000000, 0.000000000000000000 ) ) ;
#291 = ADVANCED_FACE ( 'NONE', ( #347 ), #376, .F. ) ;
#292 = CARTESIAN_POINT ( 'NONE',  ( 0.000000000000000000, 0.000000000000000000, 182.0000000000000000 ) ) ;
#293 = VECTOR ( 'NONE', #225, 1000.000000000000000 ) ;
#294 = DIRECTION ( 'NONE',  ( 1.000000000000000000, 0.000000000000000000, 0.000000000000000000 ) ) ;
#295 = CIRCLE ( 'NONE', #67, 0.6999999999999992895 ) ;
#296 = COORDINATED_UNIVERSAL_TIME_OFFSET ( 1, 0, .AHEAD. ) ;
#297 = EDGE_LOOP ( 'NONE', ( #32, #304, #80, #33 ) ) ;
#298 = UNCERTAINTY_MEASURE_WITH_UNIT (LENGTH_MEASURE( 1.000000000000000082E-05 ), #264, 'distance_accuracy_value', 'NONE');
#299 = EDGE_LOOP ( 'NONE', ( #124, #35, #29, #353 ) ) ;
#300 = SECURITY_CLASSIFICATION_LEVEL ( 'unclassified' ) ;
#301 = CARTESIAN_POINT ( 'NONE',  ( 0.000000000000000000, 0.000000000000000000, 0.000000000000000000 ) ) ;
#302 = APPLICATION_PROTOCOL_DEFINITION ( 'international standard', 'config_control_design', 1994, #184 ) ;
#303 = AXIS2_PLACEMENT_3D ( 'NONE', #193, #14, #45 ) ;
#304 = ORIENTED_EDGE ( 'NONE', *, *, #62, .F. ) ;
#305 = PERSON_AND_ORGANIZATION ( #10, #363 ) ;
#306 = ORIENTED_EDGE ( 'NONE', *, *, #288, .T. ) ;
#307 = EDGE_CURVE ( 'NONE', #243, #212, #205, .T. ) ;
#308 = DIRECTION ( 'NONE',  ( 0.000000000000000000, 0.000000000000000000, 1.000000000000000000 ) ) ;
#309 = DIRECTION ( 'NONE',  ( -0.000000000000000000, -0.000000000000000000, -1.000000000000000000 ) ) ;
#310 = FACE_OUTER_BOUND ( 'NONE', #138, .T. ) ;
#311 = CARTESIAN_POINT ( 'NONE',  ( -11.00000000000000000, 0.000000000000000000, 0.000000000000000000 ) ) ;
#312 = CARTESIAN_POINT ( 'NONE',  ( -8.000000000000000000, 0.000000000000000000, 182.0000000000000000 ) ) ;
#313 =( NAMED_UNIT ( * ) PLANE_ANGLE_UNIT ( ) SI_UNIT ( $, .RADIAN. ) );
#314 = PRODUCT_DEFINITION ( 'NEZNÁMÝ', '', #210, #180 ) ;
#315 = DIRECTION ( 'NONE',  ( 1.000000000000000000, 0.000000000000000000, 0.000000000000000000 ) ) ;
#316 = CARTESIAN_POINT ( 'NONE',  ( -6.000000000000000888, 0.000000000000000000, 0.000000000000000000 ) ) ;
#317 = EDGE_LOOP ( 'NONE', ( #122, #372 ) ) ;
#318 = DIRECTION ( 'NONE',  ( 1.000000000000000000, 0.000000000000000000, 0.000000000000000000 ) ) ;
#319 = EDGE_CURVE ( 'NONE', #26, #381, #114, .T. ) ;
#320 = CARTESIAN_POINT ( 'NONE',  ( 11.00000000000000000, 1.347111479062088405E-15, 7.000000000000000000 ) ) ;
#321 = ORIENTED_EDGE ( 'NONE', *, *, #288, .F. ) ;
#322 = APPROVAL_ROLE ( '' ) ;
#323 = CIRCLE ( 'NONE', #270, 8.699999999999999289 ) ;
#324 = PERSON_AND_ORGANIZATION_ROLE ( 'creator' ) ;
#325 = VERTEX_POINT ( 'NONE', #371 ) ;
#326 = APPROVAL_ROLE ( '' ) ;
#327 = ORIENTED_EDGE ( 'NONE', *, *, #342, .F. ) ;
#328 = COORDINATED_UNIVERSAL_TIME_OFFSET ( 1, 0, .AHEAD. ) ;
#329 = ORIENTED_EDGE ( 'NONE', *, *, #199, .F. ) ;
#330 = AXIS2_PLACEMENT_3D ( 'NONE', #25, #374, #21 ) ;
#331 = DIRECTION ( 'NONE',  ( 1.000000000000000000, 0.000000000000000000, 0.000000000000000000 ) ) ;
#332 = DIRECTION ( 'NONE',  ( 1.000000000000000000, 0.000000000000000000, 0.000000000000000000 ) ) ;
#333 = DIRECTION ( 'NONE',  ( 0.000000000000000000, 0.000000000000000000, 1.000000000000000000 ) ) ;
#334 = CC_DESIGN_PERSON_AND_ORGANIZATION_ASSIGNMENT ( #34, #185, ( #18 ) ) ;
#335 = CARTESIAN_POINT ( 'NONE',  ( 0.000000000000000000, 0.000000000000000000, 182.0000000000000000 ) ) ;
#336 = AXIS2_PLACEMENT_3D ( 'NONE', #197, #47, #315 ) ;
#337 = MANIFOLD_SOLID_BREP ( 'Odebrat vysunutím3', #148 ) ;
#338 = CARTESIAN_POINT ( 'NONE',  ( 8.000000000000000000, 9.797174393178825657E-16, 7.700000000000012612 ) ) ;
#339 = CARTESIAN_POINT ( 'NONE',  ( 0.000000000000000000, 0.000000000000000000, 7.000000000000000000 ) ) ;
#340 = DIRECTION ( 'NONE',  ( 0.000000000000000000, 0.000000000000000000, -1.000000000000000000 ) ) ;
#341 = TOROIDAL_SURFACE ( 'NONE', #355, 8.699999999999999289, 0.6999999999999999556 ) ;
#342 = EDGE_CURVE ( 'NONE', #84, #351, #279, .T. ) ;
#343 = EDGE_CURVE ( 'NONE', #325, #63, #108, .T. ) ;
#344 = CARTESIAN_POINT ( 'NONE',  ( -11.00000000000000000, 0.000000000000000000, 7.000000000000000000 ) ) ;
#345 = DIRECTION ( 'NONE',  ( 0.000000000000000000, 0.000000000000000000, -1.000000000000000000 ) ) ;
#346 = VERTEX_POINT ( 'NONE', #85 ) ;
#347 = FACE_OUTER_BOUND ( 'NONE', #289, .T. ) ;
#348 = CC_DESIGN_APPROVAL ( #1, ( #314 ) ) ;
#349 = CARTESIAN_POINT ( 'NONE',  ( 0.000000000000000000, 0.000000000000000000, 0.000000000000000000 ) ) ;
#350 = APPROVAL_DATE_TIME ( #275, #118 ) ;
#351 = VERTEX_POINT ( 'NONE', #316 ) ;
#352 = APPROVAL_STATUS ( 'not_yet_approved' ) ;
#353 = ORIENTED_EDGE ( 'NONE', *, *, #199, .T. ) ;
#354 = PRODUCT ( '8823', '8823', '', ( #189 ) ) ;
#355 = AXIS2_PLACEMENT_3D ( 'NONE', #287, #109, #290 ) ;
#356 = CARTESIAN_POINT ( 'NONE',  ( 0.000000000000000000, 0.000000000000000000, 0.000000000000000000 ) ) ;
#357 = DIRECTION ( 'NONE',  ( 0.000000000000000000, 0.000000000000000000, 1.000000000000000000 ) ) ;
#358 = PERSON_AND_ORGANIZATION ( #10, #363 ) ;
#359 = CARTESIAN_POINT ( 'NONE',  ( 8.000000000000000000, 9.797174393178825657E-16, 182.0000000000000000 ) ) ;
#360 = APPROVAL_ROLE ( '' ) ;
#361 = ORIENTED_EDGE ( 'NONE', *, *, #24, .T. ) ;
#362 = APPROVAL_PERSON_ORGANIZATION ( #358, #1, #322 ) ;
#363 = ORGANIZATION ( 'NEURÈENÝ', 'NEURÈENÝ', '' ) ;
#364 = ORIENTED_EDGE ( 'NONE', *, *, #137, .F. ) ;
#365 = DIRECTION ( 'NONE',  ( 0.000000000000000000, 0.000000000000000000, 1.000000000000000000 ) ) ;
#366 = CARTESIAN_POINT ( 'NONE',  ( 0.000000000000000000, 0.000000000000000000, 182.0000000000000000 ) ) ;
#367 = CARTESIAN_POINT ( 'NONE',  ( 0.000000000000000000, 0.000000000000000000, 7.000000000000000000 ) ) ;
#368 = AXIS2_PLACEMENT_3D ( 'NONE', #79, #55, #173 ) ;
#369 = CYLINDRICAL_SURFACE ( 'NONE', #164, 8.000000000000000000 ) ;
#370 = FACE_OUTER_BOUND ( 'NONE', #146, .T. ) ;
#371 = CARTESIAN_POINT ( 'NONE',  ( 11.00000000000000000, 1.347111479062088405E-15, 7.000000000000000000 ) ) ;
#372 = ORIENTED_EDGE ( 'NONE', *, *, #319, .T. ) ;
#373 = LOCAL_TIME ( 10, 59, 39.00000000000000000, #7 ) ;
#374 = DIRECTION ( 'NONE',  ( 0.000000000000000000, 0.000000000000000000, 1.000000000000000000 ) ) ;
#375 = ORIENTED_EDGE ( 'NONE', *, *, #253, .F. ) ;
#376 = CYLINDRICAL_SURFACE ( 'NONE', #127, 6.000000000000000888 ) ;
#377 = ADVANCED_FACE ( 'NONE', ( #169 ), #341, .F. ) ;
#378 = CARTESIAN_POINT ( 'NONE',  ( -8.699999999999999289, 1.065442715258197248E-15, 7.000000000000006217 ) ) ;
#379 = AXIS2_PLACEMENT_3D ( 'NONE', #339, #309, #163 ) ;
#380 = CALENDAR_DATE ( 2022, 10, 7 ) ;
#381 = VERTEX_POINT ( 'NONE', #56 ) ;
ENDSEC;
END-ISO-10303-21;
