ISO-10303-21;
HEADER;
FILE_DESCRIPTION (( 'STEP AP203' ),
    '1' );
FILE_NAME ('111c.STEP',
    '2022-07-10T09:05:39',
    ( '' ),
    ( '' ),
    'SwSTEP 2.0',
    'SolidWorks 2019',
    '' );
FILE_SCHEMA (( 'CONFIG_CONTROL_DESIGN' ));
ENDSEC;

DATA;
#1 = DIRECTION ( 'NONE',  ( 1.000000000000000000, 0.000000000000000000, 0.000000000000000000 ) ) ;
#2 = FACE_OUTER_BOUND ( 'NONE', #275, .T. ) ;
#3 = VERTEX_POINT ( 'NONE', #280 ) ;
#4 = DIRECTION ( 'NONE',  ( -0.000000000000000000, -0.000000000000000000, -1.000000000000000000 ) ) ;
#5 = AXIS2_PLACEMENT_3D ( 'NONE', #325, #54, #167 ) ;
#6 = EDGE_CURVE ( 'NONE', #284, #336, #132, .T. ) ;
#7 = DIRECTION ( 'NONE',  ( 1.000000000000000000, 0.000000000000000000, -0.000000000000000000 ) ) ;
#8 = VERTEX_POINT ( 'NONE', #156 ) ;
#9 = DIRECTION ( 'NONE',  ( -0.000000000000000000, -0.000000000000000000, -1.000000000000000000 ) ) ;
#10 = LINE ( 'NONE', #210, #50 ) ;
#11 = ORIENTED_EDGE ( 'NONE', *, *, #103, .T. ) ;
#12 = ADVANCED_FACE ( 'NONE', ( #189 ), #161, .T. ) ;
#13 = LINE ( 'NONE', #240, #173 ) ;
#14 = MANIFOLD_SOLID_BREP ( 'Odebrat vysunutím3', #53 ) ;
#15 = VECTOR ( 'NONE', #253, 1000.000000000000000 ) ;
#16 = PERSON_AND_ORGANIZATION_ROLE ( 'creator' ) ;
#17 = EDGE_CURVE ( 'NONE', #341, #366, #77, .T. ) ;
#18 = EDGE_LOOP ( 'NONE', ( #314, #113, #359, #67 ) ) ;
#19 = PERSON_AND_ORGANIZATION ( #87, #42 ) ;
#20 = APPROVAL_ROLE ( '' ) ;
#21 = EDGE_LOOP ( 'NONE', ( #324, #277 ) ) ;
#22 = AXIS2_PLACEMENT_3D ( 'NONE', #372, #48, #250 ) ;
#23 = CIRCLE ( 'NONE', #32, 3.100000000000000089 ) ;
#24 = ORIENTED_EDGE ( 'NONE', *, *, #298, .F. ) ;
#25 = AXIS2_PLACEMENT_3D ( 'NONE', #125, #117, #299 ) ;
#26 = COORDINATED_UNIVERSAL_TIME_OFFSET ( 1, 0, .AHEAD. ) ;
#27 = CYLINDRICAL_SURFACE ( 'NONE', #326, 5.000000000000000000 ) ;
#28 = DIRECTION ( 'NONE',  ( 1.000000000000000000, 0.000000000000000000, 0.000000000000000000 ) ) ;
#29 = AXIS2_PLACEMENT_3D ( 'NONE', #140, #111, #261 ) ;
#30 = EDGE_CURVE ( 'NONE', #284, #8, #160, .T. ) ;
#31 = DIRECTION ( 'NONE',  ( 0.000000000000000000, 0.000000000000000000, 1.000000000000000000 ) ) ;
#32 = AXIS2_PLACEMENT_3D ( 'NONE', #271, #174, #123 ) ;
#33 = PLANE ( 'NONE',  #5 ) ;
#34 = EDGE_LOOP ( 'NONE', ( #237, #259, #95, #170 ) ) ;
#35 = CARTESIAN_POINT ( 'NONE',  ( -5.500000000000000000, 6.735557395310442023E-16, 5.500000000000005329 ) ) ;
#36 = ADVANCED_FACE ( 'NONE', ( #282 ), #158, .T. ) ;
#37 = AXIS2_PLACEMENT_3D ( 'NONE', #351, #292, #7 ) ;
#38 = DIRECTION ( 'NONE',  ( 0.000000000000000000, 0.000000000000000000, -1.000000000000000000 ) ) ;
#39 = DIRECTION ( 'NONE',  ( -1.000000000000000000, 0.000000000000000000, 0.000000000000000000 ) ) ;
#40 = ADVANCED_FACE ( 'NONE', ( #108 ), #27, .T. ) ;
#41 = VERTEX_POINT ( 'NONE', #356 ) ;
#42 = ORGANIZATION ( 'NEURÈENÝ', 'NEURÈENÝ', '' ) ;
#43 = DIRECTION ( 'NONE',  ( 0.000000000000000000, 0.000000000000000000, 1.000000000000000000 ) ) ;
#44 = EDGE_LOOP ( 'NONE', ( #203, #126 ) ) ;
#45 = CARTESIAN_POINT ( 'NONE',  ( 0.000000000000000000, 0.000000000000000000, 5.000000000000000000 ) ) ;
#46 = EDGE_LOOP ( 'NONE', ( #251, #24 ) ) ;
#47 = PERSON_AND_ORGANIZATION ( #87, #42 ) ;
#48 = DIRECTION ( 'NONE',  ( -0.000000000000000000, -0.000000000000000000, -1.000000000000000000 ) ) ;
#49 = ADVANCED_FACE ( 'NONE', ( #350 ), #110, .F. ) ;
#50 = VECTOR ( 'NONE', #332, 1000.000000000000000 ) ;
#51 = CC_DESIGN_APPROVAL ( #225, ( #236 ) ) ;
#52 = DIRECTION ( 'NONE',  ( 1.000000000000000000, 0.000000000000000000, 0.000000000000000000 ) ) ;
#53 = CLOSED_SHELL ( 'NONE', ( #260, #49, #40, #348, #36, #228, #190, #12, #109, #59, #76 ) ) ;
#54 = DIRECTION ( 'NONE',  ( 0.000000000000000000, 0.000000000000000000, 1.000000000000000000 ) ) ;
#55 = ORIENTED_EDGE ( 'NONE', *, *, #272, .T. ) ;
#56 = CIRCLE ( 'NONE', #266, 8.000000000000000000 ) ;
#57 = DIRECTION ( 'NONE',  ( -1.000000000000000000, 1.224646799147351482E-16, 0.000000000000000000 ) ) ;
#58 = DIRECTION ( 'NONE',  ( -1.000000000000000000, 0.000000000000000000, 0.000000000000000000 ) ) ;
#59 = ADVANCED_FACE ( 'NONE', ( #294 ), #358, .F. ) ;
#60 = AXIS2_PLACEMENT_3D ( 'NONE', #223, #183, #288 ) ;
#61 = CARTESIAN_POINT ( 'NONE',  ( -5.000000000000000000, 0.000000000000000000, 5.500000000000005329 ) ) ;
#62 = CARTESIAN_POINT ( 'NONE',  ( 0.000000000000000000, 0.000000000000000000, 105.0000000000000142 ) ) ;
#63 = ORIENTED_EDGE ( 'NONE', *, *, #289, .T. ) ;
#64 = DIRECTION ( 'NONE',  ( -0.000000000000000000, -0.000000000000000000, -1.000000000000000000 ) ) ;
#65 = ORIENTED_EDGE ( 'NONE', *, *, #155, .F. ) ;
#66 = CARTESIAN_POINT ( 'NONE',  ( 0.000000000000000000, 0.000000000000000000, 5.500000000000005329 ) ) ;
#67 = ORIENTED_EDGE ( 'NONE', *, *, #283, .F. ) ;
#68 = AXIS2_PLACEMENT_3D ( 'NONE', #268, #4, #52 ) ;
#69 = DIRECTION ( 'NONE',  ( 1.000000000000000000, 0.000000000000000000, 0.000000000000000000 ) ) ;
#70 = APPROVAL_ROLE ( '' ) ;
#71 = ORIENTED_EDGE ( 'NONE', *, *, #143, .F. ) ;
#72 = APPROVAL_ROLE ( '' ) ;
#73 = DATE_AND_TIME ( #343, #368 ) ;
#74 = ORIENTED_EDGE ( 'NONE', *, *, #364, .F. ) ;
#75 = PERSON_AND_ORGANIZATION ( #87, #42 ) ;
#76 = ADVANCED_FACE ( 'NONE', ( #2 ), #165, .F. ) ;
#77 = LINE ( 'NONE', #257, #301 ) ;
#78 = COORDINATED_UNIVERSAL_TIME_OFFSET ( 1, 0, .AHEAD. ) ;
#79 = EDGE_LOOP ( 'NONE', ( #208, #369, #63, #124 ) ) ;
#80 = EDGE_CURVE ( 'NONE', #336, #305, #373, .T. ) ;
#81 = FACE_OUTER_BOUND ( 'NONE', #214, .T. ) ;
#82 = CARTESIAN_POINT ( 'NONE',  ( -8.000000000000000000, 0.000000000000000000, 0.000000000000000000 ) ) ;
#83 = LINE ( 'NONE', #207, #120 ) ;
#84 = PRODUCT ( '111c', '111c', '', ( #252 ) ) ;
#85 = AXIS2_PLACEMENT_3D ( 'NONE', #35, #115, #57 ) ;
#86 = DIRECTION ( 'NONE',  ( 1.000000000000000000, 0.000000000000000000, -0.000000000000000000 ) ) ;
#87 = PERSON ( 'NEURÈENÝ', 'NEURÈENÝ', 'NEURÈENÝ', ('NEURÈENÝ'), ('NEURÈENÝ'), ('NEURÈENÝ') ) ;
#88 = CARTESIAN_POINT ( 'NONE',  ( 0.000000000000000000, 0.000000000000000000, 5.500000000000005329 ) ) ;
#89 = VERTEX_POINT ( 'NONE', #323 ) ;
#90 = CARTESIAN_POINT ( 'NONE',  ( 8.000000000000000000, 9.797174393178825657E-16, 0.000000000000000000 ) ) ;
#91 = VERTEX_POINT ( 'NONE', #171 ) ;
#92 = PRODUCT_DEFINITION ( 'NEZNÁMÝ', '', #199, #334 ) ;
#93 = DIRECTION ( 'NONE',  ( 1.000000000000000000, 0.000000000000000000, 0.000000000000000000 ) ) ;
#94 = CARTESIAN_POINT ( 'NONE',  ( 0.000000000000000000, 0.000000000000000000, 0.000000000000000000 ) ) ;
#95 = ORIENTED_EDGE ( 'NONE', *, *, #283, .T. ) ;
#96 = CARTESIAN_POINT ( 'NONE',  ( 5.500000000000000000, 0.000000000000000000, 5.000000000000002665 ) ) ;
#97 = CIRCLE ( 'NONE', #192, 5.000000000000000000 ) ;
#98 = CARTESIAN_POINT ( 'NONE',  ( 3.100000000000000089, 3.796405077356794918E-16, 0.000000000000000000 ) ) ;
#99 = PERSON_AND_ORGANIZATION_ROLE ( 'design_supplier' ) ;
#100 = EDGE_LOOP ( 'NONE', ( #293, #329 ) ) ;
#101 = CARTESIAN_POINT ( 'NONE',  ( 0.000000000000000000, 0.000000000000000000, 0.000000000000000000 ) ) ;
#102 = DIRECTION ( 'NONE',  ( 0.000000000000000000, 0.000000000000000000, 1.000000000000000000 ) ) ;
#103 = EDGE_CURVE ( 'NONE', #41, #308, #197, .T. ) ;
#104 = PERSON_AND_ORGANIZATION ( #87, #42 ) ;
#105 = CIRCLE ( 'NONE', #247, 5.500000000000000000 ) ;
#106 = CARTESIAN_POINT ( 'NONE',  ( 0.000000000000000000, 0.000000000000000000, 105.0000000000000142 ) ) ;
#107 = PERSON_AND_ORGANIZATION_ROLE ( 'classification_officer' ) ;
#108 = FACE_OUTER_BOUND ( 'NONE', #18, .T. ) ;
#109 = ADVANCED_FACE ( 'NONE', ( #290, #265 ), #291, .T. ) ;
#110 = TOROIDAL_SURFACE ( 'NONE', #379, 5.500000000000000000, 0.5000000000000000000 ) ;
#111 = DIRECTION ( 'NONE',  ( -0.000000000000000000, -0.000000000000000000, -1.000000000000000000 ) ) ;
#112 = CARTESIAN_POINT ( 'NONE',  ( 0.000000000000000000, 0.000000000000000000, 5.000000000000000000 ) ) ;
#113 = ORIENTED_EDGE ( 'NONE', *, *, #239, .T. ) ;
#114 = EDGE_CURVE ( 'NONE', #333, #41, #297, .T. ) ;
#115 = DIRECTION ( 'NONE',  ( 1.224646799147353207E-16, 1.000000000000000000, -0.000000000000000000 ) ) ;
#116 = AXIS2_PLACEMENT_3D ( 'NONE', #147, #302, #274 ) ;
#117 = DIRECTION ( 'NONE',  ( 0.000000000000000000, 0.000000000000000000, 1.000000000000000000 ) ) ;
#118 = CC_DESIGN_DATE_AND_TIME_ASSIGNMENT ( #128, #187, ( #92 ) ) ;
#119 = CARTESIAN_POINT ( 'NONE',  ( 0.000000000000000000, 0.000000000000000000, 105.0000000000000142 ) ) ;
#120 = VECTOR ( 'NONE', #150, 1000.000000000000000 ) ;
#121 = CYLINDRICAL_SURFACE ( 'NONE', #318, 3.100000000000000089 ) ;
#122 = EDGE_LOOP ( 'NONE', ( #65, #241, #151, #211 ) ) ;
#123 = DIRECTION ( 'NONE',  ( 1.000000000000000000, 0.000000000000000000, 0.000000000000000000 ) ) ;
#124 = ORIENTED_EDGE ( 'NONE', *, *, #103, .F. ) ;
#125 = CARTESIAN_POINT ( 'NONE',  ( 0.000000000000000000, 0.000000000000000000, 105.0000000000000142 ) ) ;
#126 = ORIENTED_EDGE ( 'NONE', *, *, #317, .T. ) ;
#127 = CIRCLE ( 'NONE', #221, 8.000000000000000000 ) ;
#128 = DATE_AND_TIME ( #287, #191 ) ;
#129 = CARTESIAN_POINT ( 'NONE',  ( -3.100000000000000089, 0.000000000000000000, 105.0000000000000142 ) ) ;
#130 = ORIENTED_EDGE ( 'NONE', *, *, #377, .F. ) ;
#131 = PERSON_AND_ORGANIZATION_ROLE ( 'creator' ) ;
#132 = LINE ( 'NONE', #129, #15 ) ;
#133 = APPROVAL_STATUS ( 'not_yet_approved' ) ;
#134 = DIRECTION ( 'NONE',  ( 0.000000000000000000, 0.000000000000000000, -1.000000000000000000 ) ) ;
#135 = CC_DESIGN_SECURITY_CLASSIFICATION ( #236, ( #199 ) ) ;
#136 = CARTESIAN_POINT ( 'NONE',  ( 0.000000000000000000, 0.000000000000000000, 5.500000000000005329 ) ) ;
#137 = FACE_BOUND ( 'NONE', #168, .T. ) ;
#138 = CC_DESIGN_PERSON_AND_ORGANIZATION_ASSIGNMENT ( #256, #99, ( #199 ) ) ;
#139 = DIRECTION ( 'NONE',  ( 1.000000000000000000, 0.000000000000000000, 0.000000000000000000 ) ) ;
#140 = CARTESIAN_POINT ( 'NONE',  ( 0.000000000000000000, 0.000000000000000000, 0.000000000000000000 ) ) ;
#141 = CIRCLE ( 'NONE', #310, 8.000000000000000000 ) ;
#142 = VECTOR ( 'NONE', #201, 1000.000000000000000 ) ;
#143 = EDGE_CURVE ( 'NONE', #89, #341, #127, .T. ) ;
#144 =( NAMED_UNIT ( * ) PLANE_ANGLE_UNIT ( ) SI_UNIT ( $, .RADIAN. ) );
#145 = CARTESIAN_POINT ( 'NONE',  ( 5.500000000000000000, 0.000000000000000000, 5.500000000000005329 ) ) ;
#146 = VERTEX_POINT ( 'NONE', #82 ) ;
#147 = CARTESIAN_POINT ( 'NONE',  ( 0.000000000000000000, 0.000000000000000000, 5.000000000000000000 ) ) ;
#148 = APPROVAL_PERSON_ORGANIZATION ( #75, #295, #20 ) ;
#149 = CIRCLE ( 'NONE', #25, 5.000000000000000000 ) ;
#150 = DIRECTION ( 'NONE',  ( -0.000000000000000000, -0.000000000000000000, -1.000000000000000000 ) ) ;
#151 = ORIENTED_EDGE ( 'NONE', *, *, #272, .F. ) ;
#152 = PRODUCT_RELATED_PRODUCT_CATEGORY ( 'detail', '', ( #84 ) ) ;
#153 = SECURITY_CLASSIFICATION_LEVEL ( 'unclassified' ) ;
#154 = CALENDAR_DATE ( 2022, 10, 7 ) ;
#155 = EDGE_CURVE ( 'NONE', #333, #186, #97, .T. ) ;
#156 = CARTESIAN_POINT ( 'NONE',  ( 3.100000000000000089, 3.796405077356794918E-16, 105.0000000000000142 ) ) ;
#157 = COORDINATED_UNIVERSAL_TIME_OFFSET ( 1, 0, .AHEAD. ) ;
#158 = CYLINDRICAL_SURFACE ( 'NONE', #60, 8.000000000000000000 ) ;
#159 = APPROVAL_STATUS ( 'not_yet_approved' ) ;
#160 = CIRCLE ( 'NONE', #309, 3.100000000000000089 ) ;
#161 = CYLINDRICAL_SURFACE ( 'NONE', #22, 5.000000000000000000 ) ;
#162 = APPLICATION_CONTEXT ( 'configuration controlled 3d designs of mechanical parts and assemblies' ) ;
#163 = AXIS2_PLACEMENT_3D ( 'NONE', #94, #9, #93 ) ;
#164 = ORIENTED_EDGE ( 'NONE', *, *, #6, .F. ) ;
#165 = CYLINDRICAL_SURFACE ( 'NONE', #234, 3.100000000000000089 ) ;
#166 = APPROVAL ( #159, 'NEURÈENÝ' ) ;
#167 = DIRECTION ( 'NONE',  ( 1.000000000000000000, 0.000000000000000000, -0.000000000000000000 ) ) ;
#168 = EDGE_LOOP ( 'NONE', ( #55, #11 ) ) ;
#169 = CARTESIAN_POINT ( 'NONE',  ( 5.000000000000000000, 6.123233995736766282E-16, 5.500000000000005329 ) ) ;
#170 = ORIENTED_EDGE ( 'NONE', *, *, #155, .T. ) ;
#171 = CARTESIAN_POINT ( 'NONE',  ( -5.000000000000000000, 0.000000000000000000, 105.0000000000000142 ) ) ;
#172 =( LENGTH_UNIT ( ) NAMED_UNIT ( * ) SI_UNIT ( .MILLI., .METRE. ) );
#173 = VECTOR ( 'NONE', #179, 1000.000000000000000 ) ;
#174 = DIRECTION ( 'NONE',  ( 0.000000000000000000, 0.000000000000000000, 1.000000000000000000 ) ) ;
#175 = DIRECTION ( 'NONE',  ( 0.000000000000000000, 0.000000000000000000, 1.000000000000000000 ) ) ;
#176 = CC_DESIGN_PERSON_AND_ORGANIZATION_ASSIGNMENT ( #338, #107, ( #236 ) ) ;
#177 = APPROVAL_PERSON_ORGANIZATION ( #224, #225, #70 ) ;
#178 = APPLICATION_CONTEXT ( 'configuration controlled 3d designs of mechanical parts and assemblies' ) ;
#179 = DIRECTION ( 'NONE',  ( -0.000000000000000000, -0.000000000000000000, -1.000000000000000000 ) ) ;
#180 = EDGE_LOOP ( 'NONE', ( #130, #331, #303, #246 ) ) ;
#181 = PERSON_AND_ORGANIZATION ( #87, #42 ) ;
#182 = DATE_AND_TIME ( #154, #381 ) ;
#183 = DIRECTION ( 'NONE',  ( -0.000000000000000000, -0.000000000000000000, -1.000000000000000000 ) ) ;
#184 = ADVANCED_BREP_SHAPE_REPRESENTATION ( '111c', ( #14, #262 ), #215 ) ;
#185 = CIRCLE ( 'NONE', #163, 3.100000000000000089 ) ;
#186 = VERTEX_POINT ( 'NONE', #169 ) ;
#187 = DATE_TIME_ROLE ( 'creation_date' ) ;
#188 = APPROVAL_DATE_TIME ( #313, #225 ) ;
#189 = FACE_OUTER_BOUND ( 'NONE', #34, .T. ) ;
#190 = ADVANCED_FACE ( 'NONE', ( #353, #81 ), #194, .F. ) ;
#191 = LOCAL_TIME ( 11, 5, 39.00000000000000000, #376 ) ;
#192 = AXIS2_PLACEMENT_3D ( 'NONE', #88, #232, #139 ) ;
#193 = ORIENTED_EDGE ( 'NONE', *, *, #352, .T. ) ;
#194 = PLANE ( 'NONE',  #349 ) ;
#195 = CC_DESIGN_DATE_AND_TIME_ASSIGNMENT ( #73, #375, ( #236 ) ) ;
#196 = LINE ( 'NONE', #229, #142 ) ;
#197 = CIRCLE ( 'NONE', #68, 5.500000000000000000 ) ;
#198 = ORIENTED_EDGE ( 'NONE', *, *, #17, .F. ) ;
#199 = PRODUCT_DEFINITION_FORMATION_WITH_SPECIFIED_SOURCE ( 'LIBOVOLNÝ', '', #84, .NOT_KNOWN. ) ;
#200 = DIRECTION ( 'NONE',  ( 0.000000000000000000, 0.000000000000000000, 1.000000000000000000 ) ) ;
#201 = DIRECTION ( 'NONE',  ( 0.000000000000000000, 0.000000000000000000, -1.000000000000000000 ) ) ;
#202 = DIRECTION ( 'NONE',  ( 0.000000000000000000, 0.000000000000000000, 1.000000000000000000 ) ) ;
#203 = ORIENTED_EDGE ( 'NONE', *, *, #322, .T. ) ;
#204 =( NAMED_UNIT ( * ) SI_UNIT ( $, .STERADIAN. ) SOLID_ANGLE_UNIT ( ) );
#205 = CC_DESIGN_APPROVAL ( #166, ( #199 ) ) ;
#206 = ORIENTED_EDGE ( 'NONE', *, *, #30, .T. ) ;
#207 = CARTESIAN_POINT ( 'NONE',  ( 5.000000000000000000, 6.123233995736766282E-16, 105.0000000000000142 ) ) ;
#208 = ORIENTED_EDGE ( 'NONE', *, *, #114, .F. ) ;
#209 = EDGE_CURVE ( 'NONE', #366, #146, #56, .T. ) ;
#210 = CARTESIAN_POINT ( 'NONE',  ( -8.000000000000000000, 0.000000000000000000, 5.000000000000000000 ) ) ;
#211 = ORIENTED_EDGE ( 'NONE', *, *, #289, .F. ) ;
#212 = FACE_OUTER_BOUND ( 'NONE', #180, .T. ) ;
#213 = AXIS2_PLACEMENT_3D ( 'NONE', #119, #175, #235 ) ;
#214 = EDGE_LOOP ( 'NONE', ( #74, #354 ) ) ;
#215 =( GEOMETRIC_REPRESENTATION_CONTEXT ( 3 ) GLOBAL_UNCERTAINTY_ASSIGNED_CONTEXT ( ( #242 ) ) GLOBAL_UNIT_ASSIGNED_CONTEXT ( ( #172, #144, #204 ) ) REPRESENTATION_CONTEXT ( 'NONE', 'WORKASPACE' ) );
#216 = DATE_AND_TIME ( #220, #267 ) ;
#217 = ORIENTED_EDGE ( 'NONE', *, *, #218, .T. ) ;
#218 = EDGE_CURVE ( 'NONE', #8, #305, #196, .T. ) ;
#219 = DIRECTION ( 'NONE',  ( 1.000000000000000000, 0.000000000000000000, 0.000000000000000000 ) ) ;
#220 = CALENDAR_DATE ( 2022, 10, 7 ) ;
#221 = AXIS2_PLACEMENT_3D ( 'NONE', #112, #230, #380 ) ;
#222 = DIRECTION ( 'NONE',  ( 0.000000000000000000, 0.000000000000000000, 1.000000000000000000 ) ) ;
#223 = CARTESIAN_POINT ( 'NONE',  ( 0.000000000000000000, 0.000000000000000000, 5.000000000000000000 ) ) ;
#224 = PERSON_AND_ORGANIZATION ( #87, #42 ) ;
#225 = APPROVAL ( #347, 'NEURÈENÝ' ) ;
#226 = DIRECTION ( 'NONE',  ( -0.000000000000000000, -0.000000000000000000, -1.000000000000000000 ) ) ;
#227 = CARTESIAN_POINT ( 'NONE',  ( 0.000000000000000000, 0.000000000000000000, 5.500000000000005329 ) ) ;
#228 = ADVANCED_FACE ( 'NONE', ( #137, #321 ), #33, .T. ) ;
#229 = CARTESIAN_POINT ( 'NONE',  ( 3.100000000000000089, 3.796405077356794918E-16, 105.0000000000000142 ) ) ;
#230 = DIRECTION ( 'NONE',  ( 0.000000000000000000, 0.000000000000000000, 1.000000000000000000 ) ) ;
#231 = AXIS2_PLACEMENT_3D ( 'NONE', #145, #300, #362 ) ;
#232 = DIRECTION ( 'NONE',  ( 0.000000000000000000, 0.000000000000000000, 1.000000000000000000 ) ) ;
#233 = EDGE_LOOP ( 'NONE', ( #206, #217, #363, #164 ) ) ;
#234 = AXIS2_PLACEMENT_3D ( 'NONE', #296, #134, #58 ) ;
#235 = DIRECTION ( 'NONE',  ( 1.000000000000000000, 0.000000000000000000, 0.000000000000000000 ) ) ;
#236 = SECURITY_CLASSIFICATION ( '', '', #153 ) ;
#237 = ORIENTED_EDGE ( 'NONE', *, *, #239, .F. ) ;
#238 = CIRCLE ( 'NONE', #231, 0.5000000000000004441 ) ;
#239 = EDGE_CURVE ( 'NONE', #3, #186, #83, .T. ) ;
#240 = CARTESIAN_POINT ( 'NONE',  ( -5.000000000000000000, 0.000000000000000000, 105.0000000000000142 ) ) ;
#241 = ORIENTED_EDGE ( 'NONE', *, *, #114, .T. ) ;
#242 = UNCERTAINTY_MEASURE_WITH_UNIT (LENGTH_MEASURE( 1.000000000000000082E-05 ), #172, 'distance_accuracy_value', 'NONE');
#243 = CARTESIAN_POINT ( 'NONE',  ( -3.100000000000000089, 0.000000000000000000, 0.000000000000000000 ) ) ;
#244 = ORIENTED_EDGE ( 'NONE', *, *, #364, .T. ) ;
#245 = DIRECTION ( 'NONE',  ( 1.000000000000000000, 0.000000000000000000, 0.000000000000000000 ) ) ;
#246 = ORIENTED_EDGE ( 'NONE', *, *, #352, .F. ) ;
#247 = AXIS2_PLACEMENT_3D ( 'NONE', #278, #64, #367 ) ;
#248 = PRODUCT_DEFINITION_SHAPE ( 'NONE', 'NONE',  #92 ) ;
#249 = PERSON_AND_ORGANIZATION_ROLE ( 'design_owner' ) ;
#250 = DIRECTION ( 'NONE',  ( -1.000000000000000000, 0.000000000000000000, 0.000000000000000000 ) ) ;
#251 = ORIENTED_EDGE ( 'NONE', *, *, #30, .F. ) ;
#252 = MECHANICAL_CONTEXT ( 'NONE', #162, 'mechanical' ) ;
#253 = DIRECTION ( 'NONE',  ( 0.000000000000000000, 0.000000000000000000, -1.000000000000000000 ) ) ;
#254 = APPROVAL_PERSON_ORGANIZATION ( #181, #166, #72 ) ;
#255 = CC_DESIGN_PERSON_AND_ORGANIZATION_ASSIGNMENT ( #104, #16, ( #199 ) ) ;
#256 = PERSON_AND_ORGANIZATION ( #87, #42 ) ;
#257 = CARTESIAN_POINT ( 'NONE',  ( 8.000000000000000000, 9.797174393178825657E-16, 5.000000000000000000 ) ) ;
#258 = APPROVAL_DATE_TIME ( #216, #166 ) ;
#259 = ORIENTED_EDGE ( 'NONE', *, *, #322, .F. ) ;
#260 = ADVANCED_FACE ( 'NONE', ( #330 ), #121, .F. ) ;
#261 = DIRECTION ( 'NONE',  ( 1.000000000000000000, 0.000000000000000000, 0.000000000000000000 ) ) ;
#262 = AXIS2_PLACEMENT_3D ( 'NONE', #101, #222, #281 ) ;
#263 = DIRECTION ( 'NONE',  ( 0.000000000000000000, 0.000000000000000000, 1.000000000000000000 ) ) ;
#264 = DIRECTION ( 'NONE',  ( 1.000000000000000000, 0.000000000000000000, 0.000000000000000000 ) ) ;
#265 = FACE_OUTER_BOUND ( 'NONE', #44, .T. ) ;
#266 = AXIS2_PLACEMENT_3D ( 'NONE', #320, #200, #1 ) ;
#267 = LOCAL_TIME ( 11, 5, 39.00000000000000000, #26 ) ;
#268 = CARTESIAN_POINT ( 'NONE',  ( 0.000000000000000000, 0.000000000000000000, 5.000000000000000000 ) ) ;
#269 = DIRECTION ( 'NONE',  ( 0.000000000000000000, 0.000000000000000000, 1.000000000000000000 ) ) ;
#270 = EDGE_LOOP ( 'NONE', ( #198, #71, #193, #244 ) ) ;
#271 = CARTESIAN_POINT ( 'NONE',  ( 0.000000000000000000, 0.000000000000000000, 105.0000000000000142 ) ) ;
#272 = EDGE_CURVE ( 'NONE', #308, #41, #105, .T. ) ;
#273 = AXIS2_PLACEMENT_3D ( 'NONE', #227, #31, #28 ) ;
#274 = DIRECTION ( 'NONE',  ( -1.000000000000000000, 0.000000000000000000, 0.000000000000000000 ) ) ;
#275 = EDGE_LOOP ( 'NONE', ( #339, #312, #279, #346 ) ) ;
#276 = DIRECTION ( 'NONE',  ( 0.000000000000000000, 0.000000000000000000, 1.000000000000000000 ) ) ;
#277 = ORIENTED_EDGE ( 'NONE', *, *, #377, .T. ) ;
#278 = CARTESIAN_POINT ( 'NONE',  ( 0.000000000000000000, 0.000000000000000000, 5.000000000000000000 ) ) ;
#279 = ORIENTED_EDGE ( 'NONE', *, *, #6, .T. ) ;
#280 = CARTESIAN_POINT ( 'NONE',  ( 5.000000000000000000, 6.123233995736766282E-16, 105.0000000000000142 ) ) ;
#281 = DIRECTION ( 'NONE',  ( 1.000000000000000000, 0.000000000000000000, 0.000000000000000000 ) ) ;
#282 = FACE_OUTER_BOUND ( 'NONE', #270, .T. ) ;
#283 = EDGE_CURVE ( 'NONE', #91, #333, #13, .T. ) ;
#284 = VERTEX_POINT ( 'NONE', #361 ) ;
#285 = CIRCLE ( 'NONE', #337, 8.000000000000000000 ) ;
#286 = CIRCLE ( 'NONE', #213, 5.000000000000000000 ) ;
#287 = CALENDAR_DATE ( 2022, 10, 7 ) ;
#288 = DIRECTION ( 'NONE',  ( -1.000000000000000000, 0.000000000000000000, 0.000000000000000000 ) ) ;
#289 = EDGE_CURVE ( 'NONE', #186, #308, #238, .T. ) ;
#290 = FACE_BOUND ( 'NONE', #46, .T. ) ;
#291 = PLANE ( 'NONE',  #37 ) ;
#292 = DIRECTION ( 'NONE',  ( 0.000000000000000000, 0.000000000000000000, 1.000000000000000000 ) ) ;
#293 = ORIENTED_EDGE ( 'NONE', *, *, #80, .F. ) ;
#294 = FACE_OUTER_BOUND ( 'NONE', #79, .T. ) ;
#295 = APPROVAL ( #133, 'NEURÈENÝ' ) ;
#296 = CARTESIAN_POINT ( 'NONE',  ( 0.000000000000000000, 0.000000000000000000, 105.0000000000000142 ) ) ;
#297 = CIRCLE ( 'NONE', #85, 0.5000000000000004441 ) ;
#298 = EDGE_CURVE ( 'NONE', #8, #284, #23, .T. ) ;
#299 = DIRECTION ( 'NONE',  ( 1.000000000000000000, 0.000000000000000000, 0.000000000000000000 ) ) ;
#300 = DIRECTION ( 'NONE',  ( 0.000000000000000000, -1.000000000000000000, 0.000000000000000000 ) ) ;
#301 = VECTOR ( 'NONE', #371, 1000.000000000000000 ) ;
#302 = DIRECTION ( 'NONE',  ( -0.000000000000000000, -0.000000000000000000, -1.000000000000000000 ) ) ;
#303 = ORIENTED_EDGE ( 'NONE', *, *, #209, .T. ) ;
#304 = CYLINDRICAL_SURFACE ( 'NONE', #116, 8.000000000000000000 ) ;
#305 = VERTEX_POINT ( 'NONE', #98 ) ;
#306 = EDGE_CURVE ( 'NONE', #305, #336, #185, .T. ) ;
#307 = CALENDAR_DATE ( 2022, 10, 7 ) ;
#308 = VERTEX_POINT ( 'NONE', #96 ) ;
#309 = AXIS2_PLACEMENT_3D ( 'NONE', #106, #102, #219 ) ;
#310 = AXIS2_PLACEMENT_3D ( 'NONE', #45, #269, #69 ) ;
#311 = APPROVAL_DATE_TIME ( #182, #295 ) ;
#312 = ORIENTED_EDGE ( 'NONE', *, *, #298, .T. ) ;
#313 = DATE_AND_TIME ( #307, #360 ) ;
#314 = ORIENTED_EDGE ( 'NONE', *, *, #317, .F. ) ;
#315 = SHAPE_DEFINITION_REPRESENTATION ( #248, #184 ) ;
#316 = AXIS2_PLACEMENT_3D ( 'NONE', #66, #43, #245 ) ;
#317 = EDGE_CURVE ( 'NONE', #3, #91, #286, .T. ) ;
#318 = AXIS2_PLACEMENT_3D ( 'NONE', #62, #38, #39 ) ;
#319 = DIRECTION ( 'NONE',  ( -1.000000000000000000, 0.000000000000000000, 0.000000000000000000 ) ) ;
#320 = CARTESIAN_POINT ( 'NONE',  ( 0.000000000000000000, 0.000000000000000000, 0.000000000000000000 ) ) ;
#321 = FACE_OUTER_BOUND ( 'NONE', #21, .T. ) ;
#322 = EDGE_CURVE ( 'NONE', #91, #3, #149, .T. ) ;
#323 = CARTESIAN_POINT ( 'NONE',  ( -8.000000000000000000, 0.000000000000000000, 5.000000000000000000 ) ) ;
#324 = ORIENTED_EDGE ( 'NONE', *, *, #143, .T. ) ;
#325 = CARTESIAN_POINT ( 'NONE',  ( 0.000000000000000000, 0.000000000000000000, 5.000000000000000000 ) ) ;
#326 = AXIS2_PLACEMENT_3D ( 'NONE', #378, #226, #319 ) ;
#327 = CARTESIAN_POINT ( 'NONE',  ( 0.000000000000000000, 0.000000000000000000, 0.000000000000000000 ) ) ;
#328 = CC_DESIGN_PERSON_AND_ORGANIZATION_ASSIGNMENT ( #19, #131, ( #92 ) ) ;
#329 = ORIENTED_EDGE ( 'NONE', *, *, #306, .F. ) ;
#330 = FACE_OUTER_BOUND ( 'NONE', #233, .T. ) ;
#331 = ORIENTED_EDGE ( 'NONE', *, *, #17, .T. ) ;
#332 = DIRECTION ( 'NONE',  ( -0.000000000000000000, -0.000000000000000000, -1.000000000000000000 ) ) ;
#333 = VERTEX_POINT ( 'NONE', #61 ) ;
#334 = DESIGN_CONTEXT ( 'detailed design', #178, 'design' ) ;
#335 = DIRECTION ( 'NONE',  ( 1.000000000000000000, 0.000000000000000000, 0.000000000000000000 ) ) ;
#336 = VERTEX_POINT ( 'NONE', #243 ) ;
#337 = AXIS2_PLACEMENT_3D ( 'NONE', #327, #276, #335 ) ;
#338 = PERSON_AND_ORGANIZATION ( #87, #42 ) ;
#339 = ORIENTED_EDGE ( 'NONE', *, *, #218, .F. ) ;
#340 = COORDINATED_UNIVERSAL_TIME_OFFSET ( 1, 0, .AHEAD. ) ;
#341 = VERTEX_POINT ( 'NONE', #365 ) ;
#342 = CC_DESIGN_PERSON_AND_ORGANIZATION_ASSIGNMENT ( #47, #249, ( #84 ) ) ;
#343 = CALENDAR_DATE ( 2022, 10, 7 ) ;
#344 = CIRCLE ( 'NONE', #316, 5.000000000000000000 ) ;
#345 = APPLICATION_PROTOCOL_DEFINITION ( 'international standard', 'config_control_design', 1994, #178 ) ;
#346 = ORIENTED_EDGE ( 'NONE', *, *, #80, .T. ) ;
#347 = APPROVAL_STATUS ( 'not_yet_approved' ) ;
#348 = ADVANCED_FACE ( 'NONE', ( #212 ), #304, .T. ) ;
#349 = AXIS2_PLACEMENT_3D ( 'NONE', #355, #263, #86 ) ;
#350 = FACE_OUTER_BOUND ( 'NONE', #122, .T. ) ;
#351 = CARTESIAN_POINT ( 'NONE',  ( 0.000000000000000000, 0.000000000000000000, 105.0000000000000142 ) ) ;
#352 = EDGE_CURVE ( 'NONE', #89, #146, #10, .T. ) ;
#353 = FACE_BOUND ( 'NONE', #100, .T. ) ;
#354 = ORIENTED_EDGE ( 'NONE', *, *, #209, .F. ) ;
#355 = CARTESIAN_POINT ( 'NONE',  ( 0.000000000000000000, 0.000000000000000000, 0.000000000000000000 ) ) ;
#356 = CARTESIAN_POINT ( 'NONE',  ( -5.500000000000000000, 6.735557395310442023E-16, 5.000000000000002665 ) ) ;
#357 = EDGE_CURVE ( 'NONE', #186, #333, #344, .T. ) ;
#358 = TOROIDAL_SURFACE ( 'NONE', #273, 5.500000000000000000, 0.5000000000000000000 ) ;
#359 = ORIENTED_EDGE ( 'NONE', *, *, #357, .T. ) ;
#360 = LOCAL_TIME ( 11, 5, 39.00000000000000000, #78 ) ;
#361 = CARTESIAN_POINT ( 'NONE',  ( -3.100000000000000089, 0.000000000000000000, 105.0000000000000142 ) ) ;
#362 = DIRECTION ( 'NONE',  ( 0.000000000000000000, 0.000000000000000000, -1.000000000000000000 ) ) ;
#363 = ORIENTED_EDGE ( 'NONE', *, *, #306, .T. ) ;
#364 = EDGE_CURVE ( 'NONE', #146, #366, #285, .T. ) ;
#365 = CARTESIAN_POINT ( 'NONE',  ( 8.000000000000000000, 9.797174393178825657E-16, 5.000000000000000000 ) ) ;
#366 = VERTEX_POINT ( 'NONE', #90 ) ;
#367 = DIRECTION ( 'NONE',  ( 1.000000000000000000, 0.000000000000000000, 0.000000000000000000 ) ) ;
#368 = LOCAL_TIME ( 11, 5, 39.00000000000000000, #157 ) ;
#369 = ORIENTED_EDGE ( 'NONE', *, *, #357, .F. ) ;
#370 = APPLICATION_PROTOCOL_DEFINITION ( 'international standard', 'config_control_design', 1994, #162 ) ;
#371 = DIRECTION ( 'NONE',  ( -0.000000000000000000, -0.000000000000000000, -1.000000000000000000 ) ) ;
#372 = CARTESIAN_POINT ( 'NONE',  ( 0.000000000000000000, 0.000000000000000000, 105.0000000000000142 ) ) ;
#373 = CIRCLE ( 'NONE', #29, 3.100000000000000089 ) ;
#374 = CC_DESIGN_APPROVAL ( #295, ( #92 ) ) ;
#375 = DATE_TIME_ROLE ( 'classification_date' ) ;
#376 = COORDINATED_UNIVERSAL_TIME_OFFSET ( 1, 0, .AHEAD. ) ;
#377 = EDGE_CURVE ( 'NONE', #341, #89, #141, .T. ) ;
#378 = CARTESIAN_POINT ( 'NONE',  ( 0.000000000000000000, 0.000000000000000000, 105.0000000000000142 ) ) ;
#379 = AXIS2_PLACEMENT_3D ( 'NONE', #136, #202, #264 ) ;
#380 = DIRECTION ( 'NONE',  ( 1.000000000000000000, 0.000000000000000000, 0.000000000000000000 ) ) ;
#381 = LOCAL_TIME ( 11, 5, 39.00000000000000000, #340 ) ;
ENDSEC;
END-ISO-10303-21;
