ISO-10303-21;
HEADER;
FILE_DESCRIPTION (( 'STEP AP203' ),
    '1' );
FILE_NAME ('aaf4.STEP',
    '2022-07-10T08:59:21',
    ( '' ),
    ( '' ),
    'SwSTEP 2.0',
    'SolidWorks 2019',
    '' );
FILE_SCHEMA (( 'CONFIG_CONTROL_DESIGN' ));
ENDSEC;

DATA;
#1 = LOCAL_TIME ( 10, 59, 21.00000000000000000, #280 ) ;
#2 = CC_DESIGN_PERSON_AND_ORGANIZATION_ASSIGNMENT ( #3, #140, ( #108 ) ) ;
#3 = PERSON_AND_ORGANIZATION ( #103, #15 ) ;
#4 = DIRECTION ( 'NONE',  ( 0.000000000000000000, 0.000000000000000000, 1.000000000000000000 ) ) ;
#5 = EDGE_CURVE ( 'NONE', #353, #98, #208, .T. ) ;
#6 = LINE ( 'NONE', #228, #150 ) ;
#7 = SHAPE_DEFINITION_REPRESENTATION ( #52, #335 ) ;
#8 = VERTEX_POINT ( 'NONE', #45 ) ;
#9 = CIRCLE ( 'NONE', #180, 6.000000000000000888 ) ;
#10 = ORIENTED_EDGE ( 'NONE', *, *, #88, .F. ) ;
#11 = APPROVAL_PERSON_ORGANIZATION ( #309, #169, #283 ) ;
#12 = DIRECTION ( 'NONE',  ( 1.000000000000000000, 0.000000000000000000, 0.000000000000000000 ) ) ;
#13 = DIRECTION ( 'NONE',  ( -0.000000000000000000, -0.000000000000000000, -1.000000000000000000 ) ) ;
#14 = EDGE_LOOP ( 'NONE', ( #32, #66 ) ) ;
#15 = ORGANIZATION ( 'NEURÈENÝ', 'NEURÈENÝ', '' ) ;
#16 = CARTESIAN_POINT ( 'NONE',  ( -6.000000000000000888, 0.000000000000000000, 0.000000000000000000 ) ) ;
#17 = VERTEX_POINT ( 'NONE', #341 ) ;
#18 = EDGE_CURVE ( 'NONE', #113, #353, #355, .T. ) ;
#19 = FACE_BOUND ( 'NONE', #329, .T. ) ;
#20 = ADVANCED_FACE ( 'NONE', ( #72, #281 ), #314, .F. ) ;
#21 = DIRECTION ( 'NONE',  ( 1.000000000000000000, 0.000000000000000000, 0.000000000000000000 ) ) ;
#22 = AXIS2_PLACEMENT_3D ( 'NONE', #346, #165, #139 ) ;
#23 = CARTESIAN_POINT ( 'NONE',  ( -6.000000000000000888, 0.000000000000000000, 257.0000000000000000 ) ) ;
#24 = PERSON_AND_ORGANIZATION ( #103, #15 ) ;
#25 = EDGE_CURVE ( 'NONE', #113, #237, #95, .T. ) ;
#26 = CARTESIAN_POINT ( 'NONE',  ( 0.000000000000000000, 0.000000000000000000, 257.0000000000000000 ) ) ;
#27 = AXIS2_PLACEMENT_3D ( 'NONE', #308, #189, #311 ) ;
#28 = LOCAL_TIME ( 10, 59, 21.00000000000000000, #379 ) ;
#29 = DIRECTION ( 'NONE',  ( 1.000000000000000000, 0.000000000000000000, 0.000000000000000000 ) ) ;
#30 = COORDINATED_UNIVERSAL_TIME_OFFSET ( 1, 0, .AHEAD. ) ;
#31 = CARTESIAN_POINT ( 'NONE',  ( 0.000000000000000000, 0.000000000000000000, 257.0000000000000000 ) ) ;
#32 = ORIENTED_EDGE ( 'NONE', *, *, #359, .T. ) ;
#33 = EDGE_CURVE ( 'NONE', #145, #326, #44, .T. ) ;
#34 = PERSON_AND_ORGANIZATION ( #103, #15 ) ;
#35 = EDGE_LOOP ( 'NONE', ( #243, #115, #262, #94 ) ) ;
#36 = DIRECTION ( 'NONE',  ( 1.000000000000000000, 0.000000000000000000, 0.000000000000000000 ) ) ;
#37 = CIRCLE ( 'NONE', #289, 0.7000000000000000666 ) ;
#38 = EDGE_LOOP ( 'NONE', ( #57, #274 ) ) ;
#39 = CYLINDRICAL_SURFACE ( 'NONE', #344, 6.000000000000000888 ) ;
#40 = ORIENTED_EDGE ( 'NONE', *, *, #219, .F. ) ;
#41 = ADVANCED_FACE ( 'NONE', ( #19, #304 ), #148, .T. ) ;
#42 = AXIS2_PLACEMENT_3D ( 'NONE', #82, #77, #282 ) ;
#43 = CC_DESIGN_APPROVAL ( #169, ( #260 ) ) ;
#44 = LINE ( 'NONE', #176, #118 ) ;
#45 = CARTESIAN_POINT ( 'NONE',  ( 8.699999999999999289, 0.000000000000000000, 7.000000000000006217 ) ) ;
#46 = CARTESIAN_POINT ( 'NONE',  ( 11.00000000000000000, 1.347111479062088405E-15, 7.000000000000000000 ) ) ;
#47 = CIRCLE ( 'NONE', #22, 6.000000000000000888 ) ;
#48 = PERSON_AND_ORGANIZATION_ROLE ( 'design_owner' ) ;
#49 = DIRECTION ( 'NONE',  ( -0.000000000000000000, -0.000000000000000000, -1.000000000000000000 ) ) ;
#50 = CARTESIAN_POINT ( 'NONE',  ( 0.000000000000000000, 0.000000000000000000, 7.000000000000000000 ) ) ;
#51 = DIRECTION ( 'NONE',  ( -0.000000000000000000, -0.000000000000000000, -1.000000000000000000 ) ) ;
#52 = PRODUCT_DEFINITION_SHAPE ( 'NONE', 'NONE',  #260 ) ;
#53 = AXIS2_PLACEMENT_3D ( 'NONE', #129, #246, #374 ) ;
#54 = CC_DESIGN_PERSON_AND_ORGANIZATION_ASSIGNMENT ( #220, #153, ( #260 ) ) ;
#55 = DIRECTION ( 'NONE',  ( 1.000000000000000000, 0.000000000000000000, 0.000000000000000000 ) ) ;
#56 = EDGE_CURVE ( 'NONE', #68, #297, #372, .T. ) ;
#57 = ORIENTED_EDGE ( 'NONE', *, *, #178, .F. ) ;
#58 = CIRCLE ( 'NONE', #272, 8.000000000000000000 ) ;
#59 = CC_DESIGN_SECURITY_CLASSIFICATION ( #273, ( #108 ) ) ;
#60 = ORIENTED_EDGE ( 'NONE', *, *, #178, .T. ) ;
#61 = CC_DESIGN_DATE_AND_TIME_ASSIGNMENT ( #247, #83, ( #260 ) ) ;
#62 = FACE_OUTER_BOUND ( 'NONE', #14, .T. ) ;
#63 = ADVANCED_FACE ( 'NONE', ( #110 ), #131, .T. ) ;
#64 = ORIENTED_EDGE ( 'NONE', *, *, #190, .T. ) ;
#65 = FACE_OUTER_BOUND ( 'NONE', #333, .T. ) ;
#66 = ORIENTED_EDGE ( 'NONE', *, *, #339, .T. ) ;
#67 = AXIS2_PLACEMENT_3D ( 'NONE', #294, #177, #12 ) ;
#68 = VERTEX_POINT ( 'NONE', #231 ) ;
#69 = DIRECTION ( 'NONE',  ( -0.000000000000000000, -0.000000000000000000, -1.000000000000000000 ) ) ;
#70 = APPLICATION_CONTEXT ( 'configuration controlled 3d designs of mechanical parts and assemblies' ) ;
#71 = ADVANCED_FACE ( 'NONE', ( #348 ), #354, .F. ) ;
#72 = FACE_BOUND ( 'NONE', #377, .T. ) ;
#73 = DIRECTION ( 'NONE',  ( 1.000000000000000000, 0.000000000000000000, -0.000000000000000000 ) ) ;
#74 = AXIS2_PLACEMENT_3D ( 'NONE', #26, #194, #327 ) ;
#75 = ORIENTED_EDGE ( 'NONE', *, *, #219, .T. ) ;
#76 = CALENDAR_DATE ( 2022, 10, 7 ) ;
#77 = DIRECTION ( 'NONE',  ( 0.000000000000000000, 0.000000000000000000, 1.000000000000000000 ) ) ;
#78 = CALENDAR_DATE ( 2022, 10, 7 ) ;
#79 = DIRECTION ( 'NONE',  ( 1.000000000000000000, 0.000000000000000000, 0.000000000000000000 ) ) ;
#80 = AXIS2_PLACEMENT_3D ( 'NONE', #50, #369, #55 ) ;
#81 = CC_DESIGN_APPROVAL ( #275, ( #273 ) ) ;
#82 = CARTESIAN_POINT ( 'NONE',  ( 0.000000000000000000, 0.000000000000000000, 7.700000000000012612 ) ) ;
#83 = DATE_TIME_ROLE ( 'creation_date' ) ;
#84 = DIRECTION ( 'NONE',  ( 1.000000000000000000, 0.000000000000000000, 0.000000000000000000 ) ) ;
#85 = ADVANCED_FACE ( 'NONE', ( #222, #62 ), #87, .T. ) ;
#86 = ORIENTED_EDGE ( 'NONE', *, *, #117, .F. ) ;
#87 = PLANE ( 'NONE',  #196 ) ;
#88 = EDGE_CURVE ( 'NONE', #326, #8, #37, .T. ) ;
#89 = DIRECTION ( 'NONE',  ( 0.000000000000000000, 0.000000000000000000, -1.000000000000000000 ) ) ;
#90 = ORIENTED_EDGE ( 'NONE', *, *, #277, .T. ) ;
#91 =( LENGTH_UNIT ( ) NAMED_UNIT ( * ) SI_UNIT ( .MILLI., .METRE. ) );
#92 = ORIENTED_EDGE ( 'NONE', *, *, #105, .F. ) ;
#93 = DIRECTION ( 'NONE',  ( 0.000000000000000000, 0.000000000000000000, 1.000000000000000000 ) ) ;
#94 = ORIENTED_EDGE ( 'NONE', *, *, #299, .F. ) ;
#95 = LINE ( 'NONE', #310, #161 ) ;
#96 = EDGE_LOOP ( 'NONE', ( #40, #151 ) ) ;
#97 = PERSON_AND_ORGANIZATION ( #103, #15 ) ;
#98 = VERTEX_POINT ( 'NONE', #380 ) ;
#99 = AXIS2_PLACEMENT_3D ( 'NONE', #101, #184, #217 ) ;
#100 = LOCAL_TIME ( 10, 59, 21.00000000000000000, #216 ) ;
#101 = CARTESIAN_POINT ( 'NONE',  ( 0.000000000000000000, 0.000000000000000000, 257.0000000000000000 ) ) ;
#102 = ORIENTED_EDGE ( 'NONE', *, *, #25, .F. ) ;
#103 = PERSON ( 'NEURÈENÝ', 'NEURÈENÝ', 'NEURÈENÝ', ('NEURÈENÝ'), ('NEURÈENÝ'), ('NEURÈENÝ') ) ;
#104 = LINE ( 'NONE', #158, #154 ) ;
#105 = EDGE_CURVE ( 'NONE', #370, #356, #47, .T. ) ;
#106 = AXIS2_PLACEMENT_3D ( 'NONE', #343, #49, #79 ) ;
#107 = DIRECTION ( 'NONE',  ( -0.000000000000000000, -0.000000000000000000, -1.000000000000000000 ) ) ;
#108 = PRODUCT_DEFINITION_FORMATION_WITH_SPECIFIED_SOURCE ( 'LIBOVOLNÝ', '', #249, .NOT_KNOWN. ) ;
#109 = COORDINATED_UNIVERSAL_TIME_OFFSET ( 1, 0, .AHEAD. ) ;
#110 = FACE_OUTER_BOUND ( 'NONE', #263, .T. ) ;
#111 = ORIENTED_EDGE ( 'NONE', *, *, #117, .T. ) ;
#112 = EDGE_CURVE ( 'NONE', #297, #370, #104, .T. ) ;
#113 = VERTEX_POINT ( 'NONE', #218 ) ;
#114 = ORIENTED_EDGE ( 'NONE', *, *, #112, .F. ) ;
#115 = ORIENTED_EDGE ( 'NONE', *, *, #277, .F. ) ;
#116 = LINE ( 'NONE', #156, #213 ) ;
#117 = EDGE_CURVE ( 'NONE', #8, #332, #138, .T. ) ;
#118 = VECTOR ( 'NONE', #368, 1000.000000000000000 ) ;
#119 = DIRECTION ( 'NONE',  ( 0.000000000000000000, 0.000000000000000000, -1.000000000000000000 ) ) ;
#120 = DIRECTION ( 'NONE',  ( 0.000000000000000000, 0.000000000000000000, 1.000000000000000000 ) ) ;
#121 = ORIENTED_EDGE ( 'NONE', *, *, #210, .F. ) ;
#122 = CARTESIAN_POINT ( 'NONE',  ( 0.000000000000000000, 0.000000000000000000, 7.700000000000012612 ) ) ;
#123 = APPLICATION_PROTOCOL_DEFINITION ( 'international standard', 'config_control_design', 1994, #70 ) ;
#124 = CIRCLE ( 'NONE', #334, 0.6999999999999992895 ) ;
#125 = ORIENTED_EDGE ( 'NONE', *, *, #375, .T. ) ;
#126 = DIRECTION ( 'NONE',  ( 0.000000000000000000, 0.000000000000000000, -1.000000000000000000 ) ) ;
#127 = APPROVAL_STATUS ( 'not_yet_approved' ) ;
#128 = DIRECTION ( 'NONE',  ( 0.000000000000000000, 0.000000000000000000, -1.000000000000000000 ) ) ;
#129 = CARTESIAN_POINT ( 'NONE',  ( 0.000000000000000000, 0.000000000000000000, 0.000000000000000000 ) ) ;
#130 = MECHANICAL_CONTEXT ( 'NONE', #70, 'mechanical' ) ;
#131 = CYLINDRICAL_SURFACE ( 'NONE', #315, 8.000000000000000000 ) ;
#132 = CIRCLE ( 'NONE', #349, 8.000000000000000000 ) ;
#133 = APPROVAL_PERSON_ORGANIZATION ( #195, #275, #325 ) ;
#134 = CARTESIAN_POINT ( 'NONE',  ( 11.00000000000000000, 1.347111479062088405E-15, 7.000000000000000000 ) ) ;
#135 = DATE_AND_TIME ( #163, #265 ) ;
#136 = FACE_OUTER_BOUND ( 'NONE', #175, .T. ) ;
#137 = ADVANCED_FACE ( 'NONE', ( #284 ), #307, .F. ) ;
#138 = CIRCLE ( 'NONE', #106, 8.699999999999999289 ) ;
#139 = DIRECTION ( 'NONE',  ( 1.000000000000000000, 0.000000000000000000, 0.000000000000000000 ) ) ;
#140 = PERSON_AND_ORGANIZATION_ROLE ( 'design_supplier' ) ;
#141 = ORIENTED_EDGE ( 'NONE', *, *, #342, .F. ) ;
#142 = ORIENTED_EDGE ( 'NONE', *, *, #342, .T. ) ;
#143 = AXIS2_PLACEMENT_3D ( 'NONE', #363, #244, #73 ) ;
#144 =( NAMED_UNIT ( * ) SI_UNIT ( $, .STERADIAN. ) SOLID_ANGLE_UNIT ( ) );
#145 = VERTEX_POINT ( 'NONE', #192 ) ;
#146 = DIRECTION ( 'NONE',  ( -1.000000000000000000, 0.000000000000000000, 0.000000000000000000 ) ) ;
#147 = ADVANCED_FACE ( 'NONE', ( #205 ), #360, .T. ) ;
#148 = PLANE ( 'NONE',  #173 ) ;
#149 = CYLINDRICAL_SURFACE ( 'NONE', #251, 8.000000000000000000 ) ;
#150 = VECTOR ( 'NONE', #107, 1000.000000000000000 ) ;
#151 = ORIENTED_EDGE ( 'NONE', *, *, #56, .F. ) ;
#152 = CARTESIAN_POINT ( 'NONE',  ( -8.000000000000000000, 0.000000000000000000, 7.700000000000012612 ) ) ;
#153 = PERSON_AND_ORGANIZATION_ROLE ( 'creator' ) ;
#154 = VECTOR ( 'NONE', #128, 1000.000000000000000 ) ;
#155 = ORIENTED_EDGE ( 'NONE', *, *, #339, .F. ) ;
#156 = CARTESIAN_POINT ( 'NONE',  ( 6.000000000000000888, 7.347880794884120722E-16, 257.0000000000000000 ) ) ;
#157 = DIRECTION ( 'NONE',  ( 0.000000000000000000, 0.000000000000000000, 1.000000000000000000 ) ) ;
#158 = CARTESIAN_POINT ( 'NONE',  ( -6.000000000000000888, 0.000000000000000000, 257.0000000000000000 ) ) ;
#159 = ADVANCED_FACE ( 'NONE', ( #65 ), #149, .T. ) ;
#160 = DIRECTION ( 'NONE',  ( -1.000000000000000000, 0.000000000000000000, 0.000000000000000000 ) ) ;
#161 = VECTOR ( 'NONE', #69, 1000.000000000000000 ) ;
#162 = CARTESIAN_POINT ( 'NONE',  ( -8.699999999999999289, 1.065442715258197248E-15, 7.000000000000006217 ) ) ;
#163 = CALENDAR_DATE ( 2022, 10, 7 ) ;
#164 = APPROVAL_DATE_TIME ( #135, #275 ) ;
#165 = DIRECTION ( 'NONE',  ( -0.000000000000000000, -0.000000000000000000, -1.000000000000000000 ) ) ;
#166 = EDGE_LOOP ( 'NONE', ( #301, #358, #86, #10 ) ) ;
#167 = CIRCLE ( 'NONE', #53, 11.00000000000000000 ) ;
#168 = EDGE_LOOP ( 'NONE', ( #121, #293, #171, #212 ) ) ;
#169 = APPROVAL ( #276, 'NEURÈENÝ' ) ;
#170 = DIRECTION ( 'NONE',  ( 0.000000000000000000, -1.000000000000000000, 0.000000000000000000 ) ) ;
#171 = ORIENTED_EDGE ( 'NONE', *, *, #112, .T. ) ;
#172 = ORIENTED_EDGE ( 'NONE', *, *, #210, .T. ) ;
#173 = AXIS2_PLACEMENT_3D ( 'NONE', #235, #330, #318 ) ;
#174 = DIRECTION ( 'NONE',  ( -0.000000000000000000, -0.000000000000000000, -1.000000000000000000 ) ) ;
#175 = EDGE_LOOP ( 'NONE', ( #269, #206, #271, #102 ) ) ;
#176 = CARTESIAN_POINT ( 'NONE',  ( 8.000000000000000000, 9.797174393178825657E-16, 257.0000000000000000 ) ) ;
#177 = DIRECTION ( 'NONE',  ( 0.000000000000000000, 0.000000000000000000, 1.000000000000000000 ) ) ;
#178 = EDGE_CURVE ( 'NONE', #237, #98, #188, .T. ) ;
#179 = FACE_OUTER_BOUND ( 'NONE', #166, .T. ) ;
#180 = AXIS2_PLACEMENT_3D ( 'NONE', #209, #174, #36 ) ;
#181 = APPLICATION_PROTOCOL_DEFINITION ( 'international standard', 'config_control_design', 1994, #259 ) ;
#182 = ORIENTED_EDGE ( 'NONE', *, *, #5, .F. ) ;
#183 = APPROVAL ( #127, 'NEURÈENÝ' ) ;
#184 = DIRECTION ( 'NONE',  ( 0.000000000000000000, 0.000000000000000000, 1.000000000000000000 ) ) ;
#185 = APPROVAL_DATE_TIME ( #250, #169 ) ;
#186 = DIRECTION ( 'NONE',  ( 1.000000000000000000, 0.000000000000000000, 0.000000000000000000 ) ) ;
#187 = CARTESIAN_POINT ( 'NONE',  ( -11.00000000000000000, 0.000000000000000000, 0.000000000000000000 ) ) ;
#188 = CIRCLE ( 'NONE', #67, 11.00000000000000000 ) ;
#189 = DIRECTION ( 'NONE',  ( -0.000000000000000000, -0.000000000000000000, -1.000000000000000000 ) ) ;
#190 = EDGE_CURVE ( 'NONE', #356, #370, #9, .T. ) ;
#191 = DATE_AND_TIME ( #345, #28 ) ;
#192 = CARTESIAN_POINT ( 'NONE',  ( 8.000000000000000000, 9.797174393178825657E-16, 257.0000000000000000 ) ) ;
#193 = DIRECTION ( 'NONE',  ( -0.000000000000000000, -0.000000000000000000, -1.000000000000000000 ) ) ;
#194 = DIRECTION ( 'NONE',  ( 0.000000000000000000, 0.000000000000000000, 1.000000000000000000 ) ) ;
#195 = PERSON_AND_ORGANIZATION ( #103, #15 ) ;
#196 = AXIS2_PLACEMENT_3D ( 'NONE', #261, #4, #224 ) ;
#197 = DATE_AND_TIME ( #319, #202 ) ;
#198 = ADVANCED_FACE ( 'NONE', ( #300 ), #39, .F. ) ;
#199 = EDGE_LOOP ( 'NONE', ( #258, #292 ) ) ;
#200 = ORIENTED_EDGE ( 'NONE', *, *, #359, .F. ) ;
#201 = CIRCLE ( 'NONE', #298, 8.000000000000000000 ) ;
#202 = LOCAL_TIME ( 10, 59, 21.00000000000000000, #30 ) ;
#203 = CARTESIAN_POINT ( 'NONE',  ( 8.699999999999999289, 0.000000000000000000, 7.700000000000012612 ) ) ;
#204 = ORIENTED_EDGE ( 'NONE', *, *, #190, .F. ) ;
#205 = FACE_OUTER_BOUND ( 'NONE', #337, .T. ) ;
#206 = ORIENTED_EDGE ( 'NONE', *, *, #5, .T. ) ;
#207 = AXIS2_PLACEMENT_3D ( 'NONE', #234, #193, #160 ) ;
#208 = LINE ( 'NONE', #46, #238 ) ;
#209 = CARTESIAN_POINT ( 'NONE',  ( 0.000000000000000000, 0.000000000000000000, 0.000000000000000000 ) ) ;
#210 = EDGE_CURVE ( 'NONE', #68, #356, #116, .T. ) ;
#211 = PERSON_AND_ORGANIZATION_ROLE ( 'creator' ) ;
#212 = ORIENTED_EDGE ( 'NONE', *, *, #105, .T. ) ;
#213 = VECTOR ( 'NONE', #347, 1000.000000000000000 ) ;
#214 = EDGE_CURVE ( 'NONE', #98, #237, #167, .T. ) ;
#215 = ORIENTED_EDGE ( 'NONE', *, *, #18, .F. ) ;
#216 = COORDINATED_UNIVERSAL_TIME_OFFSET ( 1, 0, .AHEAD. ) ;
#217 = DIRECTION ( 'NONE',  ( 1.000000000000000000, 0.000000000000000000, 0.000000000000000000 ) ) ;
#218 = CARTESIAN_POINT ( 'NONE',  ( -11.00000000000000000, 0.000000000000000000, 7.000000000000000000 ) ) ;
#219 = EDGE_CURVE ( 'NONE', #297, #68, #264, .T. ) ;
#220 = PERSON_AND_ORGANIZATION ( #103, #15 ) ;
#221 = TOROIDAL_SURFACE ( 'NONE', #42, 8.699999999999999289, 0.6999999999999999556 ) ;
#222 = FACE_BOUND ( 'NONE', #96, .T. ) ;
#223 = AXIS2_PLACEMENT_3D ( 'NONE', #286, #157, #21 ) ;
#224 = DIRECTION ( 'NONE',  ( 1.000000000000000000, 0.000000000000000000, -0.000000000000000000 ) ) ;
#225 = UNCERTAINTY_MEASURE_WITH_UNIT (LENGTH_MEASURE( 1.000000000000000082E-05 ), #91, 'distance_accuracy_value', 'NONE');
#226 = DIRECTION ( 'NONE',  ( 0.000000000000000000, 0.000000000000000000, 1.000000000000000000 ) ) ;
#227 = CARTESIAN_POINT ( 'NONE',  ( 8.000000000000000000, 9.797174393178825657E-16, 7.700000000000012612 ) ) ;
#228 = CARTESIAN_POINT ( 'NONE',  ( -8.000000000000000000, 0.000000000000000000, 257.0000000000000000 ) ) ;
#229 = VERTEX_POINT ( 'NONE', #152 ) ;
#230 = CARTESIAN_POINT ( 'NONE',  ( 0.000000000000000000, 0.000000000000000000, 257.0000000000000000 ) ) ;
#231 = CARTESIAN_POINT ( 'NONE',  ( 6.000000000000000888, 7.347880794884120722E-16, 257.0000000000000000 ) ) ;
#232 = PERSON_AND_ORGANIZATION_ROLE ( 'classification_officer' ) ;
#233 = ORIENTED_EDGE ( 'NONE', *, *, #299, .T. ) ;
#234 = CARTESIAN_POINT ( 'NONE',  ( 0.000000000000000000, 0.000000000000000000, 7.000000000000000000 ) ) ;
#235 = CARTESIAN_POINT ( 'NONE',  ( 0.000000000000000000, 0.000000000000000000, 7.000000000000000000 ) ) ;
#236 = CC_DESIGN_DATE_AND_TIME_ASSIGNMENT ( #197, #352, ( #273 ) ) ;
#237 = VERTEX_POINT ( 'NONE', #187 ) ;
#238 = VECTOR ( 'NONE', #365, 1000.000000000000000 ) ;
#239 = CC_DESIGN_APPROVAL ( #183, ( #108 ) ) ;
#240 = ORIENTED_EDGE ( 'NONE', *, *, #25, .T. ) ;
#241 = DIRECTION ( 'NONE',  ( 1.000000000000000000, 0.000000000000000000, 0.000000000000000000 ) ) ;
#242 = AXIS2_PLACEMENT_3D ( 'NONE', #361, #13, #146 ) ;
#243 = ORIENTED_EDGE ( 'NONE', *, *, #366, .F. ) ;
#244 = DIRECTION ( 'NONE',  ( 0.000000000000000000, 0.000000000000000000, 1.000000000000000000 ) ) ;
#245 = AXIS2_PLACEMENT_3D ( 'NONE', #230, #255, #29 ) ;
#246 = DIRECTION ( 'NONE',  ( 0.000000000000000000, 0.000000000000000000, 1.000000000000000000 ) ) ;
#247 = DATE_AND_TIME ( #78, #1 ) ;
#248 = APPROVAL_ROLE ( '' ) ;
#249 = PRODUCT ( 'aaf4', 'aaf4', '', ( #130 ) ) ;
#250 = DATE_AND_TIME ( #76, #100 ) ;
#251 = AXIS2_PLACEMENT_3D ( 'NONE', #268, #270, #266 ) ;
#252 = CARTESIAN_POINT ( 'NONE',  ( 0.000000000000000000, 0.000000000000000000, 257.0000000000000000 ) ) ;
#253 = CARTESIAN_POINT ( 'NONE',  ( 6.000000000000000888, 7.347880794884120722E-16, 0.000000000000000000 ) ) ;
#254 = AXIS2_PLACEMENT_3D ( 'NONE', #31, #89, #320 ) ;
#255 = DIRECTION ( 'NONE',  ( 0.000000000000000000, 0.000000000000000000, 1.000000000000000000 ) ) ;
#256 = SECURITY_CLASSIFICATION_LEVEL ( 'unclassified' ) ;
#257 = ADVANCED_FACE ( 'NONE', ( #179 ), #221, .F. ) ;
#258 = ORIENTED_EDGE ( 'NONE', *, *, #18, .T. ) ;
#259 = APPLICATION_CONTEXT ( 'configuration controlled 3d designs of mechanical parts and assemblies' ) ;
#260 = PRODUCT_DEFINITION ( 'NEZNÁMÝ', '', #108, #291 ) ;
#261 = CARTESIAN_POINT ( 'NONE',  ( 0.000000000000000000, 0.000000000000000000, 257.0000000000000000 ) ) ;
#262 = ORIENTED_EDGE ( 'NONE', *, *, #88, .T. ) ;
#263 = EDGE_LOOP ( 'NONE', ( #155, #267, #90, #141 ) ) ;
#264 = CIRCLE ( 'NONE', #99, 6.000000000000000888 ) ;
#265 = LOCAL_TIME ( 10, 59, 21.00000000000000000, #109 ) ;
#266 = DIRECTION ( 'NONE',  ( -1.000000000000000000, 0.000000000000000000, 0.000000000000000000 ) ) ;
#267 = ORIENTED_EDGE ( 'NONE', *, *, #33, .T. ) ;
#268 = CARTESIAN_POINT ( 'NONE',  ( 0.000000000000000000, 0.000000000000000000, 257.0000000000000000 ) ) ;
#269 = ORIENTED_EDGE ( 'NONE', *, *, #312, .F. ) ;
#270 = DIRECTION ( 'NONE',  ( -0.000000000000000000, -0.000000000000000000, -1.000000000000000000 ) ) ;
#271 = ORIENTED_EDGE ( 'NONE', *, *, #214, .T. ) ;
#272 = AXIS2_PLACEMENT_3D ( 'NONE', #122, #285, #338 ) ;
#273 = SECURITY_CLASSIFICATION ( '', '', #256 ) ;
#274 = ORIENTED_EDGE ( 'NONE', *, *, #214, .F. ) ;
#275 = APPROVAL ( #288, 'NEURÈENÝ' ) ;
#276 = APPROVAL_STATUS ( 'not_yet_approved' ) ;
#277 = EDGE_CURVE ( 'NONE', #326, #229, #58, .T. ) ;
#278 = CIRCLE ( 'NONE', #245, 8.000000000000000000 ) ;
#279 =( GEOMETRIC_REPRESENTATION_CONTEXT ( 3 ) GLOBAL_UNCERTAINTY_ASSIGNED_CONTEXT ( ( #225 ) ) GLOBAL_UNIT_ASSIGNED_CONTEXT ( ( #91, #357, #144 ) ) REPRESENTATION_CONTEXT ( 'NONE', 'WORKASPACE' ) );
#280 = COORDINATED_UNIVERSAL_TIME_OFFSET ( 1, 0, .AHEAD. ) ;
#281 = FACE_OUTER_BOUND ( 'NONE', #38, .T. ) ;
#282 = DIRECTION ( 'NONE',  ( 1.000000000000000000, 0.000000000000000000, 0.000000000000000000 ) ) ;
#283 = APPROVAL_ROLE ( '' ) ;
#284 = FACE_OUTER_BOUND ( 'NONE', #35, .T. ) ;
#285 = DIRECTION ( 'NONE',  ( 0.000000000000000000, 0.000000000000000000, 1.000000000000000000 ) ) ;
#286 = CARTESIAN_POINT ( 'NONE',  ( 0.000000000000000000, 0.000000000000000000, 0.000000000000000000 ) ) ;
#287 = PRODUCT_RELATED_PRODUCT_CATEGORY ( 'detail', '', ( #249 ) ) ;
#288 = APPROVAL_STATUS ( 'not_yet_approved' ) ;
#289 = AXIS2_PLACEMENT_3D ( 'NONE', #203, #170, #126 ) ;
#290 = DIRECTION ( 'NONE',  ( -1.000000000000000000, 1.224646799147353207E-16, 0.000000000000000000 ) ) ;
#291 = DESIGN_CONTEXT ( 'detailed design', #259, 'design' ) ;
#292 = ORIENTED_EDGE ( 'NONE', *, *, #312, .T. ) ;
#293 = ORIENTED_EDGE ( 'NONE', *, *, #56, .T. ) ;
#294 = CARTESIAN_POINT ( 'NONE',  ( 0.000000000000000000, 0.000000000000000000, 0.000000000000000000 ) ) ;
#295 = DIRECTION ( 'NONE',  ( 1.000000000000000000, 0.000000000000000000, 0.000000000000000000 ) ) ;
#296 = ORIENTED_EDGE ( 'NONE', *, *, #33, .F. ) ;
#297 = VERTEX_POINT ( 'NONE', #23 ) ;
#298 = AXIS2_PLACEMENT_3D ( 'NONE', #351, #226, #84 ) ;
#299 = EDGE_CURVE ( 'NONE', #332, #8, #373, .T. ) ;
#300 = FACE_OUTER_BOUND ( 'NONE', #168, .T. ) ;
#301 = ORIENTED_EDGE ( 'NONE', *, *, #375, .F. ) ;
#302 = CARTESIAN_POINT ( 'NONE',  ( 0.000000000000000000, 0.000000000000000000, 7.700000000000012612 ) ) ;
#303 = DIRECTION ( 'NONE',  ( 0.000000000000000000, 0.000000000000000000, 1.000000000000000000 ) ) ;
#304 = FACE_OUTER_BOUND ( 'NONE', #199, .T. ) ;
#305 = CARTESIAN_POINT ( 'NONE',  ( 0.000000000000000000, 0.000000000000000000, 257.0000000000000000 ) ) ;
#306 = CC_DESIGN_PERSON_AND_ORGANIZATION_ASSIGNMENT ( #34, #232, ( #273 ) ) ;
#307 = TOROIDAL_SURFACE ( 'NONE', #364, 8.699999999999999289, 0.6999999999999999556 ) ;
#308 = CARTESIAN_POINT ( 'NONE',  ( 0.000000000000000000, 0.000000000000000000, 7.000000000000000000 ) ) ;
#309 = PERSON_AND_ORGANIZATION ( #103, #15 ) ;
#310 = CARTESIAN_POINT ( 'NONE',  ( -11.00000000000000000, 0.000000000000000000, 7.000000000000000000 ) ) ;
#311 = DIRECTION ( 'NONE',  ( 1.000000000000000000, 0.000000000000000000, 0.000000000000000000 ) ) ;
#312 = EDGE_CURVE ( 'NONE', #353, #113, #328, .T. ) ;
#313 = CC_DESIGN_PERSON_AND_ORGANIZATION_ASSIGNMENT ( #376, #48, ( #249 ) ) ;
#314 = PLANE ( 'NONE',  #143 ) ;
#315 = AXIS2_PLACEMENT_3D ( 'NONE', #252, #51, #378 ) ;
#316 = APPROVAL_PERSON_ORGANIZATION ( #24, #183, #248 ) ;
#317 = APPROVAL_DATE_TIME ( #191, #183 ) ;
#318 = DIRECTION ( 'NONE',  ( 1.000000000000000000, 0.000000000000000000, -0.000000000000000000 ) ) ;
#319 = CALENDAR_DATE ( 2022, 10, 7 ) ;
#320 = DIRECTION ( 'NONE',  ( -1.000000000000000000, 0.000000000000000000, 0.000000000000000000 ) ) ;
#321 = MANIFOLD_SOLID_BREP ( 'Odebrat vysunutím3', #381 ) ;
#322 = CARTESIAN_POINT ( 'NONE',  ( -8.699999999999999289, 1.065442715258197248E-15, 7.700000000000012612 ) ) ;
#323 = AXIS2_PLACEMENT_3D ( 'NONE', #336, #120, #186 ) ;
#324 = DIRECTION ( 'NONE',  ( 1.224646799147353207E-16, 1.000000000000000000, -0.000000000000000000 ) ) ;
#325 = APPROVAL_ROLE ( '' ) ;
#326 = VERTEX_POINT ( 'NONE', #227 ) ;
#327 = DIRECTION ( 'NONE',  ( 1.000000000000000000, 0.000000000000000000, 0.000000000000000000 ) ) ;
#328 = CIRCLE ( 'NONE', #80, 11.00000000000000000 ) ;
#329 = EDGE_LOOP ( 'NONE', ( #111, #233 ) ) ;
#330 = DIRECTION ( 'NONE',  ( 0.000000000000000000, 0.000000000000000000, 1.000000000000000000 ) ) ;
#331 = ADVANCED_FACE ( 'NONE', ( #136 ), #350, .T. ) ;
#332 = VERTEX_POINT ( 'NONE', #162 ) ;
#333 = EDGE_LOOP ( 'NONE', ( #296, #200, #142, #125 ) ) ;
#334 = AXIS2_PLACEMENT_3D ( 'NONE', #322, #324, #290 ) ;
#335 = ADVANCED_BREP_SHAPE_REPRESENTATION ( 'aaf4', ( #321, #223 ), #279 ) ;
#336 = CARTESIAN_POINT ( 'NONE',  ( 0.000000000000000000, 0.000000000000000000, 7.000000000000000000 ) ) ;
#337 = EDGE_LOOP ( 'NONE', ( #182, #215, #240, #60 ) ) ;
#338 = DIRECTION ( 'NONE',  ( 1.000000000000000000, 0.000000000000000000, 0.000000000000000000 ) ) ;
#339 = EDGE_CURVE ( 'NONE', #145, #17, #278, .T. ) ;
#340 = EDGE_LOOP ( 'NONE', ( #75, #172, #64, #114 ) ) ;
#341 = CARTESIAN_POINT ( 'NONE',  ( -8.000000000000000000, 0.000000000000000000, 257.0000000000000000 ) ) ;
#342 = EDGE_CURVE ( 'NONE', #17, #229, #6, .T. ) ;
#343 = CARTESIAN_POINT ( 'NONE',  ( 0.000000000000000000, 0.000000000000000000, 7.000000000000000000 ) ) ;
#344 = AXIS2_PLACEMENT_3D ( 'NONE', #305, #119, #367 ) ;
#345 = CALENDAR_DATE ( 2022, 10, 7 ) ;
#346 = CARTESIAN_POINT ( 'NONE',  ( 0.000000000000000000, 0.000000000000000000, 0.000000000000000000 ) ) ;
#347 = DIRECTION ( 'NONE',  ( 0.000000000000000000, 0.000000000000000000, -1.000000000000000000 ) ) ;
#348 = FACE_OUTER_BOUND ( 'NONE', #340, .T. ) ;
#349 = AXIS2_PLACEMENT_3D ( 'NONE', #362, #303, #295 ) ;
#350 = CYLINDRICAL_SURFACE ( 'NONE', #207, 11.00000000000000000 ) ;
#351 = CARTESIAN_POINT ( 'NONE',  ( 0.000000000000000000, 0.000000000000000000, 257.0000000000000000 ) ) ;
#352 = DATE_TIME_ROLE ( 'classification_date' ) ;
#353 = VERTEX_POINT ( 'NONE', #134 ) ;
#354 = CYLINDRICAL_SURFACE ( 'NONE', #254, 6.000000000000000888 ) ;
#355 = CIRCLE ( 'NONE', #323, 11.00000000000000000 ) ;
#356 = VERTEX_POINT ( 'NONE', #253 ) ;
#357 =( NAMED_UNIT ( * ) PLANE_ANGLE_UNIT ( ) SI_UNIT ( $, .RADIAN. ) );
#358 = ORIENTED_EDGE ( 'NONE', *, *, #366, .T. ) ;
#359 = EDGE_CURVE ( 'NONE', #17, #145, #201, .T. ) ;
#360 = CYLINDRICAL_SURFACE ( 'NONE', #242, 11.00000000000000000 ) ;
#361 = CARTESIAN_POINT ( 'NONE',  ( 0.000000000000000000, 0.000000000000000000, 7.000000000000000000 ) ) ;
#362 = CARTESIAN_POINT ( 'NONE',  ( 0.000000000000000000, 0.000000000000000000, 7.700000000000012612 ) ) ;
#363 = CARTESIAN_POINT ( 'NONE',  ( 0.000000000000000000, 0.000000000000000000, 0.000000000000000000 ) ) ;
#364 = AXIS2_PLACEMENT_3D ( 'NONE', #302, #93, #241 ) ;
#365 = DIRECTION ( 'NONE',  ( -0.000000000000000000, -0.000000000000000000, -1.000000000000000000 ) ) ;
#366 = EDGE_CURVE ( 'NONE', #229, #332, #124, .T. ) ;
#367 = DIRECTION ( 'NONE',  ( -1.000000000000000000, 0.000000000000000000, 0.000000000000000000 ) ) ;
#368 = DIRECTION ( 'NONE',  ( -0.000000000000000000, -0.000000000000000000, -1.000000000000000000 ) ) ;
#369 = DIRECTION ( 'NONE',  ( 0.000000000000000000, 0.000000000000000000, 1.000000000000000000 ) ) ;
#370 = VERTEX_POINT ( 'NONE', #16 ) ;
#371 = CC_DESIGN_PERSON_AND_ORGANIZATION_ASSIGNMENT ( #97, #211, ( #108 ) ) ;
#372 = CIRCLE ( 'NONE', #74, 6.000000000000000888 ) ;
#373 = CIRCLE ( 'NONE', #27, 8.699999999999999289 ) ;
#374 = DIRECTION ( 'NONE',  ( 1.000000000000000000, 0.000000000000000000, 0.000000000000000000 ) ) ;
#375 = EDGE_CURVE ( 'NONE', #229, #326, #132, .T. ) ;
#376 = PERSON_AND_ORGANIZATION ( #103, #15 ) ;
#377 = EDGE_LOOP ( 'NONE', ( #92, #204 ) ) ;
#378 = DIRECTION ( 'NONE',  ( -1.000000000000000000, 0.000000000000000000, 0.000000000000000000 ) ) ;
#379 = COORDINATED_UNIVERSAL_TIME_OFFSET ( 1, 0, .AHEAD. ) ;
#380 = CARTESIAN_POINT ( 'NONE',  ( 11.00000000000000000, 1.347111479062088405E-15, 0.000000000000000000 ) ) ;
#381 = CLOSED_SHELL ( 'NONE', ( #71, #257, #63, #331, #147, #41, #20, #159, #85, #137, #198 ) ) ;
ENDSEC;
END-ISO-10303-21;
