ISO-10303-21;
HEADER;
FILE_DESCRIPTION (( 'STEP AP203' ),
    '1' );
FILE_NAME ('5243.STEP',
    '2022-07-10T09:00:56',
    ( '' ),
    ( '' ),
    'SwSTEP 2.0',
    'SolidWorks 2019',
    '' );
FILE_SCHEMA (( 'CONFIG_CONTROL_DESIGN' ));
ENDSEC;

DATA;
#1 = DATE_AND_TIME ( #327, #367 ) ;
#2 = CARTESIAN_POINT ( 'NONE',  ( 0.000000000000000000, 0.000000000000000000, 7.000000000000000000 ) ) ;
#3 = CIRCLE ( 'NONE', #93, 0.7000000000000000666 ) ;
#4 = CC_DESIGN_PERSON_AND_ORGANIZATION_ASSIGNMENT ( #6, #259, ( #76 ) ) ;
#5 = CARTESIAN_POINT ( 'NONE',  ( 0.000000000000000000, 0.000000000000000000, 182.0000000000000000 ) ) ;
#6 = PERSON_AND_ORGANIZATION ( #357, #83 ) ;
#7 = CC_DESIGN_APPROVAL ( #293, ( #16 ) ) ;
#8 = ORIENTED_EDGE ( 'NONE', *, *, #288, .F. ) ;
#9 = VERTEX_POINT ( 'NONE', #150 ) ;
#10 = CIRCLE ( 'NONE', #233, 7.000000000000000888 ) ;
#11 = DIRECTION ( 'NONE',  ( 1.000000000000000000, 0.000000000000000000, 0.000000000000000000 ) ) ;
#12 = DIRECTION ( 'NONE',  ( -1.000000000000000000, 1.224646799147351975E-16, 0.000000000000000000 ) ) ;
#13 = ORIENTED_EDGE ( 'NONE', *, *, #136, .T. ) ;
#14 = DIRECTION ( 'NONE',  ( 0.000000000000000000, 0.000000000000000000, -1.000000000000000000 ) ) ;
#15 = ORIENTED_EDGE ( 'NONE', *, *, #116, .T. ) ;
#16 = PRODUCT_DEFINITION ( 'NEZNÁMÝ', '', #241, #28 ) ;
#17 = AXIS2_PLACEMENT_3D ( 'NONE', #151, #269, #369 ) ;
#18 = CARTESIAN_POINT ( 'NONE',  ( 0.000000000000000000, 0.000000000000000000, 182.0000000000000000 ) ) ;
#19 = DIRECTION ( 'NONE',  ( -1.000000000000000000, 0.000000000000000000, 0.000000000000000000 ) ) ;
#20 = AXIS2_PLACEMENT_3D ( 'NONE', #106, #223, #254 ) ;
#21 = CC_DESIGN_DATE_AND_TIME_ASSIGNMENT ( #280, #225, ( #16 ) ) ;
#22 = FACE_OUTER_BOUND ( 'NONE', #39, .T. ) ;
#23 = EDGE_CURVE ( 'NONE', #71, #334, #215, .T. ) ;
#24 = DIRECTION ( 'NONE',  ( 1.000000000000000000, 0.000000000000000000, 0.000000000000000000 ) ) ;
#25 = PRODUCT ( '5243', '5243', '', ( #186 ) ) ;
#26 = COORDINATED_UNIVERSAL_TIME_OFFSET ( 1, 0, .AHEAD. ) ;
#27 = LOCAL_TIME ( 11, 0, 56.00000000000000000, #252 ) ;
#28 = DESIGN_CONTEXT ( 'detailed design', #130, 'design' ) ;
#29 = DIRECTION ( 'NONE',  ( 0.000000000000000000, 0.000000000000000000, -1.000000000000000000 ) ) ;
#30 = AXIS2_PLACEMENT_3D ( 'NONE', #308, #313, #47 ) ;
#31 = EDGE_LOOP ( 'NONE', ( #13, #15 ) ) ;
#32 = DATE_AND_TIME ( #203, #180 ) ;
#33 = EDGE_CURVE ( 'NONE', #248, #328, #294, .T. ) ;
#34 = AXIS2_PLACEMENT_3D ( 'NONE', #258, #108, #228 ) ;
#35 = ORIENTED_EDGE ( 'NONE', *, *, #208, .T. ) ;
#36 = DIRECTION ( 'NONE',  ( 1.000000000000000000, 0.000000000000000000, 0.000000000000000000 ) ) ;
#37 = ORIENTED_EDGE ( 'NONE', *, *, #339, .F. ) ;
#38 = CARTESIAN_POINT ( 'NONE',  ( -7.700000000000001066, 9.429780353434621002E-16, 7.700000000000012612 ) ) ;
#39 = EDGE_LOOP ( 'NONE', ( #304, #356 ) ) ;
#40 = EDGE_CURVE ( 'NONE', #143, #49, #117, .T. ) ;
#41 = LINE ( 'NONE', #309, #109 ) ;
#42 =( NAMED_UNIT ( * ) SI_UNIT ( $, .STERADIAN. ) SOLID_ANGLE_UNIT ( ) );
#43 = ORIENTED_EDGE ( 'NONE', *, *, #213, .T. ) ;
#44 = APPROVAL_PERSON_ORGANIZATION ( #170, #121, #261 ) ;
#45 = AXIS2_PLACEMENT_3D ( 'NONE', #285, #345, #135 ) ;
#46 = CALENDAR_DATE ( 2022, 10, 7 ) ;
#47 = DIRECTION ( 'NONE',  ( 1.000000000000000000, 0.000000000000000000, 0.000000000000000000 ) ) ;
#48 = AXIS2_PLACEMENT_3D ( 'NONE', #244, #182, #66 ) ;
#49 = VERTEX_POINT ( 'NONE', #187 ) ;
#50 = CARTESIAN_POINT ( 'NONE',  ( -11.00000000000000000, 0.000000000000000000, 7.000000000000000000 ) ) ;
#51 = AXIS2_PLACEMENT_3D ( 'NONE', #18, #101, #123 ) ;
#52 = APPROVAL_ROLE ( '' ) ;
#53 = DIRECTION ( 'NONE',  ( 0.000000000000000000, 0.000000000000000000, 1.000000000000000000 ) ) ;
#54 = CARTESIAN_POINT ( 'NONE',  ( 7.700000000000001066, 0.000000000000000000, 7.000000000000006217 ) ) ;
#55 = CC_DESIGN_APPROVAL ( #121, ( #76 ) ) ;
#56 = FACE_BOUND ( 'NONE', #354, .T. ) ;
#57 = EDGE_CURVE ( 'NONE', #49, #143, #365, .T. ) ;
#58 = APPLICATION_CONTEXT ( 'configuration controlled 3d designs of mechanical parts and assemblies' ) ;
#59 = CARTESIAN_POINT ( 'NONE',  ( 7.700000000000001066, 0.000000000000000000, 7.700000000000012612 ) ) ;
#60 = SHAPE_DEFINITION_REPRESENTATION ( #350, #87 ) ;
#61 = ORIENTED_EDGE ( 'NONE', *, *, #208, .F. ) ;
#62 = VECTOR ( 'NONE', #29, 1000.000000000000000 ) ;
#63 = VERTEX_POINT ( 'NONE', #221 ) ;
#64 = DIRECTION ( 'NONE',  ( 1.000000000000000000, 0.000000000000000000, 0.000000000000000000 ) ) ;
#65 = ORIENTED_EDGE ( 'NONE', *, *, #40, .F. ) ;
#66 = DIRECTION ( 'NONE',  ( -1.000000000000000000, 0.000000000000000000, 0.000000000000000000 ) ) ;
#67 =( NAMED_UNIT ( * ) PLANE_ANGLE_UNIT ( ) SI_UNIT ( $, .RADIAN. ) );
#68 = CC_DESIGN_PERSON_AND_ORGANIZATION_ASSIGNMENT ( #289, #137, ( #241 ) ) ;
#69 = ORIENTED_EDGE ( 'NONE', *, *, #33, .F. ) ;
#70 = ORIENTED_EDGE ( 'NONE', *, *, #202, .T. ) ;
#71 = VERTEX_POINT ( 'NONE', #191 ) ;
#72 = DIRECTION ( 'NONE',  ( 1.000000000000000000, 0.000000000000000000, 0.000000000000000000 ) ) ;
#73 = EDGE_CURVE ( 'NONE', #295, #9, #245, .T. ) ;
#74 = DIRECTION ( 'NONE',  ( 1.000000000000000000, 0.000000000000000000, 0.000000000000000000 ) ) ;
#75 = CARTESIAN_POINT ( 'NONE',  ( 0.000000000000000000, 0.000000000000000000, 7.700000000000012612 ) ) ;
#76 = SECURITY_CLASSIFICATION ( '', '', #141 ) ;
#77 = DIRECTION ( 'NONE',  ( 0.000000000000000000, 0.000000000000000000, 1.000000000000000000 ) ) ;
#78 = LINE ( 'NONE', #195, #377 ) ;
#79 = PERSON_AND_ORGANIZATION ( #357, #83 ) ;
#80 = DIRECTION ( 'NONE',  ( -0.000000000000000000, -0.000000000000000000, -1.000000000000000000 ) ) ;
#81 = FACE_OUTER_BOUND ( 'NONE', #277, .T. ) ;
#82 = APPROVAL_STATUS ( 'not_yet_approved' ) ;
#83 = ORGANIZATION ( 'NEURÈENÝ', 'NEURÈENÝ', '' ) ;
#84 = EDGE_CURVE ( 'NONE', #49, #114, #317, .T. ) ;
#85 = DIRECTION ( 'NONE',  ( 0.000000000000000000, 0.000000000000000000, 1.000000000000000000 ) ) ;
#86 = PERSON_AND_ORGANIZATION_ROLE ( 'creator' ) ;
#87 = ADVANCED_BREP_SHAPE_REPRESENTATION ( '5243', ( #360, #188 ), #319 ) ;
#88 = ORIENTED_EDGE ( 'NONE', *, *, #213, .F. ) ;
#89 = DIRECTION ( 'NONE',  ( 0.000000000000000000, 0.000000000000000000, 1.000000000000000000 ) ) ;
#90 = CARTESIAN_POINT ( 'NONE',  ( 11.00000000000000000, 1.347111479062088405E-15, 7.000000000000000000 ) ) ;
#91 = ORIENTED_EDGE ( 'NONE', *, *, #73, .F. ) ;
#92 = CC_DESIGN_PERSON_AND_ORGANIZATION_ASSIGNMENT ( #79, #375, ( #25 ) ) ;
#93 = AXIS2_PLACEMENT_3D ( 'NONE', #59, #359, #14 ) ;
#94 = EDGE_LOOP ( 'NONE', ( #88, #37, #364, #273 ) ) ;
#95 = FACE_OUTER_BOUND ( 'NONE', #210, .T. ) ;
#96 = ORIENTED_EDGE ( 'NONE', *, *, #40, .T. ) ;
#97 = ORIENTED_EDGE ( 'NONE', *, *, #84, .T. ) ;
#98 = DIRECTION ( 'NONE',  ( 0.000000000000000000, 0.000000000000000000, 1.000000000000000000 ) ) ;
#99 = AXIS2_PLACEMENT_3D ( 'NONE', #290, #85, #236 ) ;
#100 = PERSON_AND_ORGANIZATION ( #357, #83 ) ;
#101 = DIRECTION ( 'NONE',  ( 0.000000000000000000, 0.000000000000000000, 1.000000000000000000 ) ) ;
#102 = DIRECTION ( 'NONE',  ( -0.000000000000000000, -0.000000000000000000, -1.000000000000000000 ) ) ;
#103 = EDGE_CURVE ( 'NONE', #173, #9, #132, .T. ) ;
#104 = CARTESIAN_POINT ( 'NONE',  ( 0.000000000000000000, 0.000000000000000000, 0.000000000000000000 ) ) ;
#105 = AXIS2_PLACEMENT_3D ( 'NONE', #38, #120, #12 ) ;
#106 = CARTESIAN_POINT ( 'NONE',  ( 0.000000000000000000, 0.000000000000000000, 0.000000000000000000 ) ) ;
#107 = CYLINDRICAL_SURFACE ( 'NONE', #260, 5.000000000000000000 ) ;
#108 = DIRECTION ( 'NONE',  ( 0.000000000000000000, 0.000000000000000000, 1.000000000000000000 ) ) ;
#109 = VECTOR ( 'NONE', #362, 1000.000000000000000 ) ;
#110 = APPROVAL_STATUS ( 'not_yet_approved' ) ;
#111 = ADVANCED_FACE ( 'NONE', ( #320, #343 ), #237, .T. ) ;
#112 = DIRECTION ( 'NONE',  ( 1.000000000000000000, 0.000000000000000000, 0.000000000000000000 ) ) ;
#113 = APPROVAL_PERSON_ORGANIZATION ( #318, #293, #52 ) ;
#114 = VERTEX_POINT ( 'NONE', #128 ) ;
#115 = ORIENTED_EDGE ( 'NONE', *, *, #194, .T. ) ;
#116 = EDGE_CURVE ( 'NONE', #220, #297, #337, .T. ) ;
#117 = CIRCLE ( 'NONE', #139, 11.00000000000000000 ) ;
#118 = APPROVAL_PERSON_ORGANIZATION ( #344, #363, #196 ) ;
#119 = ORIENTED_EDGE ( 'NONE', *, *, #310, .F. ) ;
#120 = DIRECTION ( 'NONE',  ( 1.224646799147353207E-16, 1.000000000000000000, -0.000000000000000000 ) ) ;
#121 = APPROVAL ( #110, 'NEURÈENÝ' ) ;
#122 = FACE_OUTER_BOUND ( 'NONE', #207, .T. ) ;
#123 = DIRECTION ( 'NONE',  ( 1.000000000000000000, 0.000000000000000000, 0.000000000000000000 ) ) ;
#124 = VERTEX_POINT ( 'NONE', #267 ) ;
#125 = EDGE_CURVE ( 'NONE', #71, #328, #378, .T. ) ;
#126 = DIRECTION ( 'NONE',  ( 0.000000000000000000, 0.000000000000000000, -1.000000000000000000 ) ) ;
#127 = EDGE_LOOP ( 'NONE', ( #302, #268, #216, #373 ) ) ;
#128 = CARTESIAN_POINT ( 'NONE',  ( -11.00000000000000000, 0.000000000000000000, 0.000000000000000000 ) ) ;
#129 = AXIS2_PLACEMENT_3D ( 'NONE', #5, #231, #352 ) ;
#130 = APPLICATION_CONTEXT ( 'configuration controlled 3d designs of mechanical parts and assemblies' ) ;
#131 = COORDINATED_UNIVERSAL_TIME_OFFSET ( 1, 0, .AHEAD. ) ;
#132 = LINE ( 'NONE', #331, #62 ) ;
#133 = CARTESIAN_POINT ( 'NONE',  ( 0.000000000000000000, 0.000000000000000000, 0.000000000000000000 ) ) ;
#134 = APPLICATION_PROTOCOL_DEFINITION ( 'international standard', 'config_control_design', 1994, #130 ) ;
#135 = DIRECTION ( 'NONE',  ( 1.000000000000000000, 0.000000000000000000, -0.000000000000000000 ) ) ;
#136 = EDGE_CURVE ( 'NONE', #297, #220, #255, .T. ) ;
#137 = PERSON_AND_ORGANIZATION_ROLE ( 'design_supplier' ) ;
#138 = DIRECTION ( 'NONE',  ( -0.000000000000000000, -0.000000000000000000, -1.000000000000000000 ) ) ;
#139 = AXIS2_PLACEMENT_3D ( 'NONE', #181, #335, #74 ) ;
#140 = DIRECTION ( 'NONE',  ( 1.000000000000000000, 0.000000000000000000, -0.000000000000000000 ) ) ;
#141 = SECURITY_CLASSIFICATION_LEVEL ( 'unclassified' ) ;
#142 = PRODUCT_RELATED_PRODUCT_CATEGORY ( 'detail', '', ( #25 ) ) ;
#143 = VERTEX_POINT ( 'NONE', #90 ) ;
#144 = ORIENTED_EDGE ( 'NONE', *, *, #346, .F. ) ;
#145 =( LENGTH_UNIT ( ) NAMED_UNIT ( * ) SI_UNIT ( .MILLI., .METRE. ) );
#146 = ORIENTED_EDGE ( 'NONE', *, *, #351, .F. ) ;
#147 = CIRCLE ( 'NONE', #305, 5.000000000000000000 ) ;
#148 = ORIENTED_EDGE ( 'NONE', *, *, #380, .T. ) ;
#149 = DIRECTION ( 'NONE',  ( 0.000000000000000000, 0.000000000000000000, 1.000000000000000000 ) ) ;
#150 = CARTESIAN_POINT ( 'NONE',  ( 5.000000000000000000, 6.123233995736766282E-16, 0.000000000000000000 ) ) ;
#151 = CARTESIAN_POINT ( 'NONE',  ( 0.000000000000000000, 0.000000000000000000, 182.0000000000000000 ) ) ;
#152 = AXIS2_PLACEMENT_3D ( 'NONE', #2, #379, #64 ) ;
#153 = EDGE_LOOP ( 'NONE', ( #91, #119 ) ) ;
#154 = CIRCLE ( 'NONE', #105, 0.7000000000000000666 ) ;
#155 = ADVANCED_FACE ( 'NONE', ( #56, #22 ), #227, .T. ) ;
#156 = DIRECTION ( 'NONE',  ( -1.000000000000000000, 0.000000000000000000, 0.000000000000000000 ) ) ;
#157 = CLOSED_SHELL ( 'NONE', ( #229, #326, #242, #276, #176, #111, #164, #185, #155, #321, #217 ) ) ;
#158 = PERSON_AND_ORGANIZATION ( #357, #83 ) ;
#159 = ORIENTED_EDGE ( 'NONE', *, *, #103, .T. ) ;
#160 = CARTESIAN_POINT ( 'NONE',  ( -7.000000000000000888, 0.000000000000000000, 7.700000000000012612 ) ) ;
#161 = PERSON_AND_ORGANIZATION_ROLE ( 'creator' ) ;
#162 = CARTESIAN_POINT ( 'NONE',  ( 0.000000000000000000, 0.000000000000000000, 7.000000000000000000 ) ) ;
#163 = CIRCLE ( 'NONE', #129, 5.000000000000000000 ) ;
#164 = ADVANCED_FACE ( 'NONE', ( #257, #209 ), #174, .F. ) ;
#165 = CARTESIAN_POINT ( 'NONE',  ( 0.000000000000000000, 0.000000000000000000, 7.700000000000012612 ) ) ;
#166 = CARTESIAN_POINT ( 'NONE',  ( -7.000000000000000888, 0.000000000000000000, 182.0000000000000000 ) ) ;
#167 = COORDINATED_UNIVERSAL_TIME_OFFSET ( 1, 0, .AHEAD. ) ;
#168 = EDGE_CURVE ( 'NONE', #334, #71, #10, .T. ) ;
#169 = TOROIDAL_SURFACE ( 'NONE', #99, 7.700000000000001066, 0.6999999999999999556 ) ;
#170 = PERSON_AND_ORGANIZATION ( #357, #83 ) ;
#171 = FACE_OUTER_BOUND ( 'NONE', #232, .T. ) ;
#172 = ORIENTED_EDGE ( 'NONE', *, *, #136, .F. ) ;
#173 = VERTEX_POINT ( 'NONE', #322 ) ;
#174 = PLANE ( 'NONE',  #20 ) ;
#175 = CC_DESIGN_APPROVAL ( #363, ( #241 ) ) ;
#176 = ADVANCED_FACE ( 'NONE', ( #171 ), #234, .T. ) ;
#177 = ORIENTED_EDGE ( 'NONE', *, *, #168, .F. ) ;
#178 = CARTESIAN_POINT ( 'NONE',  ( 0.000000000000000000, 0.000000000000000000, 0.000000000000000000 ) ) ;
#179 = ORIENTED_EDGE ( 'NONE', *, *, #33, .T. ) ;
#180 = LOCAL_TIME ( 11, 0, 56.00000000000000000, #167 ) ;
#181 = CARTESIAN_POINT ( 'NONE',  ( 0.000000000000000000, 0.000000000000000000, 7.000000000000000000 ) ) ;
#182 = DIRECTION ( 'NONE',  ( -0.000000000000000000, -0.000000000000000000, -1.000000000000000000 ) ) ;
#183 = DIRECTION ( 'NONE',  ( -0.000000000000000000, -0.000000000000000000, -1.000000000000000000 ) ) ;
#184 = AXIS2_PLACEMENT_3D ( 'NONE', #104, #340, #342 ) ;
#185 = ADVANCED_FACE ( 'NONE', ( #95 ), #299, .T. ) ;
#186 = MECHANICAL_CONTEXT ( 'NONE', #58, 'mechanical' ) ;
#187 = CARTESIAN_POINT ( 'NONE',  ( -11.00000000000000000, 0.000000000000000000, 7.000000000000000000 ) ) ;
#188 = AXIS2_PLACEMENT_3D ( 'NONE', #193, #77, #250 ) ;
#189 = FACE_OUTER_BOUND ( 'NONE', #270, .T. ) ;
#190 = APPLICATION_PROTOCOL_DEFINITION ( 'international standard', 'config_control_design', 1994, #58 ) ;
#191 = CARTESIAN_POINT ( 'NONE',  ( 7.000000000000000888, 8.572527594031474176E-16, 182.0000000000000000 ) ) ;
#192 = CARTESIAN_POINT ( 'NONE',  ( -5.000000000000000000, 0.000000000000000000, 0.000000000000000000 ) ) ;
#193 = CARTESIAN_POINT ( 'NONE',  ( 0.000000000000000000, 0.000000000000000000, 0.000000000000000000 ) ) ;
#194 = EDGE_CURVE ( 'NONE', #334, #248, #41, .T. ) ;
#195 = CARTESIAN_POINT ( 'NONE',  ( -5.000000000000000000, 0.000000000000000000, 182.0000000000000000 ) ) ;
#196 = APPROVAL_ROLE ( '' ) ;
#197 = DIRECTION ( 'NONE',  ( -0.000000000000000000, -0.000000000000000000, -1.000000000000000000 ) ) ;
#198 = TOROIDAL_SURFACE ( 'NONE', #34, 7.700000000000001066, 0.6999999999999999556 ) ;
#199 = FACE_OUTER_BOUND ( 'NONE', #366, .T. ) ;
#200 = DIRECTION ( 'NONE',  ( 1.000000000000000000, 0.000000000000000000, 0.000000000000000000 ) ) ;
#201 = DATE_TIME_ROLE ( 'classification_date' ) ;
#202 = EDGE_CURVE ( 'NONE', #114, #124, #333, .T. ) ;
#203 = CALENDAR_DATE ( 2022, 10, 7 ) ;
#204 = AXIS2_PLACEMENT_3D ( 'NONE', #165, #355, #24 ) ;
#205 = UNCERTAINTY_MEASURE_WITH_UNIT (LENGTH_MEASURE( 1.000000000000000082E-05 ), #145, 'distance_accuracy_value', 'NONE');
#206 = EDGE_LOOP ( 'NONE', ( #238, #61 ) ) ;
#207 = EDGE_LOOP ( 'NONE', ( #336, #376, #275, #265 ) ) ;
#208 = EDGE_CURVE ( 'NONE', #124, #114, #291, .T. ) ;
#209 = FACE_OUTER_BOUND ( 'NONE', #206, .T. ) ;
#210 = EDGE_LOOP ( 'NONE', ( #214, #177, #115, #179 ) ) ;
#211 = DIRECTION ( 'NONE',  ( 0.000000000000000000, 0.000000000000000000, 1.000000000000000000 ) ) ;
#212 = ORIENTED_EDGE ( 'NONE', *, *, #380, .F. ) ;
#213 = EDGE_CURVE ( 'NONE', #248, #220, #154, .T. ) ;
#214 = ORIENTED_EDGE ( 'NONE', *, *, #125, .F. ) ;
#215 = CIRCLE ( 'NONE', #51, 7.000000000000000888 ) ;
#216 = ORIENTED_EDGE ( 'NONE', *, *, #339, .T. ) ;
#217 = ADVANCED_FACE ( 'NONE', ( #122 ), #274, .F. ) ;
#218 = CARTESIAN_POINT ( 'NONE',  ( -7.700000000000001066, 9.429780353434621002E-16, 7.000000000000006217 ) ) ;
#219 = DATE_AND_TIME ( #287, #348 ) ;
#220 = VERTEX_POINT ( 'NONE', #218 ) ;
#221 = CARTESIAN_POINT ( 'NONE',  ( -5.000000000000000000, 0.000000000000000000, 182.0000000000000000 ) ) ;
#222 = DIRECTION ( 'NONE',  ( 0.000000000000000000, 0.000000000000000000, -1.000000000000000000 ) ) ;
#223 = DIRECTION ( 'NONE',  ( 0.000000000000000000, 0.000000000000000000, 1.000000000000000000 ) ) ;
#224 = VECTOR ( 'NONE', #281, 1000.000000000000000 ) ;
#225 = DATE_TIME_ROLE ( 'creation_date' ) ;
#226 = CARTESIAN_POINT ( 'NONE',  ( 0.000000000000000000, 0.000000000000000000, 7.000000000000000000 ) ) ;
#227 = PLANE ( 'NONE',  #45 ) ;
#228 = DIRECTION ( 'NONE',  ( 1.000000000000000000, 0.000000000000000000, 0.000000000000000000 ) ) ;
#229 = ADVANCED_FACE ( 'NONE', ( #189 ), #107, .F. ) ;
#230 = CARTESIAN_POINT ( 'NONE',  ( 11.00000000000000000, 1.347111479062088405E-15, 7.000000000000000000 ) ) ;
#231 = DIRECTION ( 'NONE',  ( 0.000000000000000000, 0.000000000000000000, 1.000000000000000000 ) ) ;
#232 = EDGE_LOOP ( 'NONE', ( #144, #235, #97, #70 ) ) ;
#233 = AXIS2_PLACEMENT_3D ( 'NONE', #349, #89, #200 ) ;
#234 = CYLINDRICAL_SURFACE ( 'NONE', #272, 11.00000000000000000 ) ;
#235 = ORIENTED_EDGE ( 'NONE', *, *, #57, .F. ) ;
#236 = DIRECTION ( 'NONE',  ( 1.000000000000000000, 0.000000000000000000, 0.000000000000000000 ) ) ;
#237 = PLANE ( 'NONE',  #330 ) ;
#238 = ORIENTED_EDGE ( 'NONE', *, *, #202, .F. ) ;
#239 = AXIS2_PLACEMENT_3D ( 'NONE', #162, #197, #112 ) ;
#240 = ORIENTED_EDGE ( 'NONE', *, *, #57, .T. ) ;
#241 = PRODUCT_DEFINITION_FORMATION_WITH_SPECIFIED_SOURCE ( 'LIBOVOLNÝ', '', #25, .NOT_KNOWN. ) ;
#242 = ADVANCED_FACE ( 'NONE', ( #372 ), #286, .T. ) ;
#243 = EDGE_LOOP ( 'NONE', ( #240, #96 ) ) ;
#244 = CARTESIAN_POINT ( 'NONE',  ( 0.000000000000000000, 0.000000000000000000, 182.0000000000000000 ) ) ;
#245 = CIRCLE ( 'NONE', #184, 5.000000000000000000 ) ;
#246 = ORIENTED_EDGE ( 'NONE', *, *, #310, .T. ) ;
#247 = CIRCLE ( 'NONE', #353, 5.000000000000000000 ) ;
#248 = VERTEX_POINT ( 'NONE', #160 ) ;
#249 = CC_DESIGN_DATE_AND_TIME_ASSIGNMENT ( #32, #201, ( #76 ) ) ;
#250 = DIRECTION ( 'NONE',  ( 1.000000000000000000, 0.000000000000000000, 0.000000000000000000 ) ) ;
#251 = CYLINDRICAL_SURFACE ( 'NONE', #266, 11.00000000000000000 ) ;
#252 = COORDINATED_UNIVERSAL_TIME_OFFSET ( 1, 0, .AHEAD. ) ;
#253 = DATE_AND_TIME ( #283, #27 ) ;
#254 = DIRECTION ( 'NONE',  ( 1.000000000000000000, 0.000000000000000000, -0.000000000000000000 ) ) ;
#255 = CIRCLE ( 'NONE', #239, 7.700000000000001066 ) ;
#256 = APPROVAL_DATE_TIME ( #219, #363 ) ;
#257 = FACE_BOUND ( 'NONE', #153, .T. ) ;
#258 = CARTESIAN_POINT ( 'NONE',  ( 0.000000000000000000, 0.000000000000000000, 7.700000000000012612 ) ) ;
#259 = PERSON_AND_ORGANIZATION_ROLE ( 'classification_officer' ) ;
#260 = AXIS2_PLACEMENT_3D ( 'NONE', #347, #126, #156 ) ;
#261 = APPROVAL_ROLE ( '' ) ;
#262 = AXIS2_PLACEMENT_3D ( 'NONE', #75, #98, #72 ) ;
#263 = FACE_OUTER_BOUND ( 'NONE', #94, .T. ) ;
#264 = CC_DESIGN_PERSON_AND_ORGANIZATION_ASSIGNMENT ( #100, #86, ( #241 ) ) ;
#265 = ORIENTED_EDGE ( 'NONE', *, *, #73, .T. ) ;
#266 = AXIS2_PLACEMENT_3D ( 'NONE', #314, #102, #282 ) ;
#267 = CARTESIAN_POINT ( 'NONE',  ( 11.00000000000000000, 1.347111479062088405E-15, 0.000000000000000000 ) ) ;
#268 = ORIENTED_EDGE ( 'NONE', *, *, #125, .T. ) ;
#269 = DIRECTION ( 'NONE',  ( 0.000000000000000000, 0.000000000000000000, -1.000000000000000000 ) ) ;
#270 = EDGE_LOOP ( 'NONE', ( #148, #159, #246, #8 ) ) ;
#271 = CARTESIAN_POINT ( 'NONE',  ( 0.000000000000000000, 0.000000000000000000, 0.000000000000000000 ) ) ;
#272 = AXIS2_PLACEMENT_3D ( 'NONE', #329, #361, #306 ) ;
#273 = ORIENTED_EDGE ( 'NONE', *, *, #116, .F. ) ;
#274 = CYLINDRICAL_SURFACE ( 'NONE', #17, 5.000000000000000000 ) ;
#275 = ORIENTED_EDGE ( 'NONE', *, *, #288, .T. ) ;
#276 = ADVANCED_FACE ( 'NONE', ( #81 ), #251, .T. ) ;
#277 = EDGE_LOOP ( 'NONE', ( #65, #301, #35, #370 ) ) ;
#278 = COORDINATED_UNIVERSAL_TIME_OFFSET ( 1, 0, .AHEAD. ) ;
#279 = CC_DESIGN_PERSON_AND_ORGANIZATION_ASSIGNMENT ( #158, #161, ( #16 ) ) ;
#280 = DATE_AND_TIME ( #46, #298 ) ;
#281 = DIRECTION ( 'NONE',  ( -0.000000000000000000, -0.000000000000000000, -1.000000000000000000 ) ) ;
#282 = DIRECTION ( 'NONE',  ( -1.000000000000000000, 0.000000000000000000, 0.000000000000000000 ) ) ;
#283 = CALENDAR_DATE ( 2022, 10, 7 ) ;
#284 = CIRCLE ( 'NONE', #204, 7.000000000000000888 ) ;
#285 = CARTESIAN_POINT ( 'NONE',  ( 0.000000000000000000, 0.000000000000000000, 182.0000000000000000 ) ) ;
#286 = CYLINDRICAL_SURFACE ( 'NONE', #325, 7.000000000000000888 ) ;
#287 = CALENDAR_DATE ( 2022, 10, 7 ) ;
#288 = EDGE_CURVE ( 'NONE', #63, #295, #78, .T. ) ;
#289 = PERSON_AND_ORGANIZATION ( #357, #83 ) ;
#290 = CARTESIAN_POINT ( 'NONE',  ( 0.000000000000000000, 0.000000000000000000, 7.700000000000012612 ) ) ;
#291 = CIRCLE ( 'NONE', #368, 11.00000000000000000 ) ;
#292 = APPROVAL_DATE_TIME ( #1, #121 ) ;
#293 = APPROVAL ( #312, 'NEURÈENÝ' ) ;
#294 = CIRCLE ( 'NONE', #262, 7.000000000000000888 ) ;
#295 = VERTEX_POINT ( 'NONE', #192 ) ;
#296 = CC_DESIGN_SECURITY_CLASSIFICATION ( #76, ( #241 ) ) ;
#297 = VERTEX_POINT ( 'NONE', #54 ) ;
#298 = LOCAL_TIME ( 11, 0, 56.00000000000000000, #131 ) ;
#299 = CYLINDRICAL_SURFACE ( 'NONE', #48, 7.000000000000000888 ) ;
#300 = DIRECTION ( 'NONE',  ( 0.000000000000000000, 0.000000000000000000, 1.000000000000000000 ) ) ;
#301 = ORIENTED_EDGE ( 'NONE', *, *, #346, .T. ) ;
#302 = ORIENTED_EDGE ( 'NONE', *, *, #23, .F. ) ;
#303 = DIRECTION ( 'NONE',  ( 1.000000000000000000, 0.000000000000000000, 0.000000000000000000 ) ) ;
#304 = ORIENTED_EDGE ( 'NONE', *, *, #168, .T. ) ;
#305 = AXIS2_PLACEMENT_3D ( 'NONE', #133, #183, #311 ) ;
#306 = DIRECTION ( 'NONE',  ( -1.000000000000000000, 0.000000000000000000, 0.000000000000000000 ) ) ;
#307 = CARTESIAN_POINT ( 'NONE',  ( 0.000000000000000000, 0.000000000000000000, 182.0000000000000000 ) ) ;
#308 = CARTESIAN_POINT ( 'NONE',  ( 0.000000000000000000, 0.000000000000000000, 7.000000000000000000 ) ) ;
#309 = CARTESIAN_POINT ( 'NONE',  ( -7.000000000000000888, 0.000000000000000000, 182.0000000000000000 ) ) ;
#310 = EDGE_CURVE ( 'NONE', #9, #295, #147, .T. ) ;
#311 = DIRECTION ( 'NONE',  ( 1.000000000000000000, 0.000000000000000000, 0.000000000000000000 ) ) ;
#312 = APPROVAL_STATUS ( 'not_yet_approved' ) ;
#313 = DIRECTION ( 'NONE',  ( 0.000000000000000000, 0.000000000000000000, 1.000000000000000000 ) ) ;
#314 = CARTESIAN_POINT ( 'NONE',  ( 0.000000000000000000, 0.000000000000000000, 7.000000000000000000 ) ) ;
#315 = VECTOR ( 'NONE', #138, 1000.000000000000000 ) ;
#316 = APPROVAL_DATE_TIME ( #253, #293 ) ;
#317 = LINE ( 'NONE', #50, #224 ) ;
#318 = PERSON_AND_ORGANIZATION ( #357, #83 ) ;
#319 =( GEOMETRIC_REPRESENTATION_CONTEXT ( 3 ) GLOBAL_UNCERTAINTY_ASSIGNED_CONTEXT ( ( #205 ) ) GLOBAL_UNIT_ASSIGNED_CONTEXT ( ( #145, #67, #42 ) ) REPRESENTATION_CONTEXT ( 'NONE', 'WORKASPACE' ) );
#320 = FACE_BOUND ( 'NONE', #31, .T. ) ;
#321 = ADVANCED_FACE ( 'NONE', ( #263 ), #169, .F. ) ;
#322 = CARTESIAN_POINT ( 'NONE',  ( 5.000000000000000000, 6.123233995736766282E-16, 182.0000000000000000 ) ) ;
#323 = CARTESIAN_POINT ( 'NONE',  ( 7.000000000000000888, 8.572527594031474176E-16, 7.700000000000012612 ) ) ;
#324 = LINE ( 'NONE', #230, #315 ) ;
#325 = AXIS2_PLACEMENT_3D ( 'NONE', #338, #374, #19 ) ;
#326 = ADVANCED_FACE ( 'NONE', ( #199 ), #198, .F. ) ;
#327 = CALENDAR_DATE ( 2022, 10, 7 ) ;
#328 = VERTEX_POINT ( 'NONE', #323 ) ;
#329 = CARTESIAN_POINT ( 'NONE',  ( 0.000000000000000000, 0.000000000000000000, 7.000000000000000000 ) ) ;
#330 = AXIS2_PLACEMENT_3D ( 'NONE', #226, #53, #140 ) ;
#331 = CARTESIAN_POINT ( 'NONE',  ( 5.000000000000000000, 6.123233995736766282E-16, 182.0000000000000000 ) ) ;
#332 = ORIENTED_EDGE ( 'NONE', *, *, #371, .F. ) ;
#333 = CIRCLE ( 'NONE', #341, 11.00000000000000000 ) ;
#334 = VERTEX_POINT ( 'NONE', #166 ) ;
#335 = DIRECTION ( 'NONE',  ( 0.000000000000000000, 0.000000000000000000, 1.000000000000000000 ) ) ;
#336 = ORIENTED_EDGE ( 'NONE', *, *, #103, .F. ) ;
#337 = CIRCLE ( 'NONE', #152, 7.700000000000001066 ) ;
#338 = CARTESIAN_POINT ( 'NONE',  ( 0.000000000000000000, 0.000000000000000000, 182.0000000000000000 ) ) ;
#339 = EDGE_CURVE ( 'NONE', #328, #248, #284, .T. ) ;
#340 = DIRECTION ( 'NONE',  ( -0.000000000000000000, -0.000000000000000000, -1.000000000000000000 ) ) ;
#341 = AXIS2_PLACEMENT_3D ( 'NONE', #178, #211, #303 ) ;
#342 = DIRECTION ( 'NONE',  ( 1.000000000000000000, 0.000000000000000000, 0.000000000000000000 ) ) ;
#343 = FACE_OUTER_BOUND ( 'NONE', #243, .T. ) ;
#344 = PERSON_AND_ORGANIZATION ( #357, #83 ) ;
#345 = DIRECTION ( 'NONE',  ( 0.000000000000000000, 0.000000000000000000, 1.000000000000000000 ) ) ;
#346 = EDGE_CURVE ( 'NONE', #143, #124, #324, .T. ) ;
#347 = CARTESIAN_POINT ( 'NONE',  ( 0.000000000000000000, 0.000000000000000000, 182.0000000000000000 ) ) ;
#348 = LOCAL_TIME ( 11, 0, 56.00000000000000000, #278 ) ;
#349 = CARTESIAN_POINT ( 'NONE',  ( 0.000000000000000000, 0.000000000000000000, 182.0000000000000000 ) ) ;
#350 = PRODUCT_DEFINITION_SHAPE ( 'NONE', 'NONE',  #16 ) ;
#351 = EDGE_CURVE ( 'NONE', #173, #63, #163, .T. ) ;
#352 = DIRECTION ( 'NONE',  ( 1.000000000000000000, 0.000000000000000000, 0.000000000000000000 ) ) ;
#353 = AXIS2_PLACEMENT_3D ( 'NONE', #307, #300, #36 ) ;
#354 = EDGE_LOOP ( 'NONE', ( #212, #146 ) ) ;
#355 = DIRECTION ( 'NONE',  ( 0.000000000000000000, 0.000000000000000000, 1.000000000000000000 ) ) ;
#356 = ORIENTED_EDGE ( 'NONE', *, *, #23, .T. ) ;
#357 = PERSON ( 'NEURÈENÝ', 'NEURÈENÝ', 'NEURÈENÝ', ('NEURÈENÝ'), ('NEURÈENÝ'), ('NEURÈENÝ') ) ;
#358 = CARTESIAN_POINT ( 'NONE',  ( 7.000000000000000888, 8.572527594031474176E-16, 182.0000000000000000 ) ) ;
#359 = DIRECTION ( 'NONE',  ( 0.000000000000000000, -1.000000000000000000, 0.000000000000000000 ) ) ;
#360 = MANIFOLD_SOLID_BREP ( 'Odebrat vysunutím3', #157 ) ;
#361 = DIRECTION ( 'NONE',  ( -0.000000000000000000, -0.000000000000000000, -1.000000000000000000 ) ) ;
#362 = DIRECTION ( 'NONE',  ( -0.000000000000000000, -0.000000000000000000, -1.000000000000000000 ) ) ;
#363 = APPROVAL ( #82, 'NEURÈENÝ' ) ;
#364 = ORIENTED_EDGE ( 'NONE', *, *, #371, .T. ) ;
#365 = CIRCLE ( 'NONE', #30, 11.00000000000000000 ) ;
#366 = EDGE_LOOP ( 'NONE', ( #69, #43, #172, #332 ) ) ;
#367 = LOCAL_TIME ( 11, 0, 56.00000000000000000, #26 ) ;
#368 = AXIS2_PLACEMENT_3D ( 'NONE', #271, #149, #11 ) ;
#369 = DIRECTION ( 'NONE',  ( -1.000000000000000000, 0.000000000000000000, 0.000000000000000000 ) ) ;
#370 = ORIENTED_EDGE ( 'NONE', *, *, #84, .F. ) ;
#371 = EDGE_CURVE ( 'NONE', #328, #297, #3, .T. ) ;
#372 = FACE_OUTER_BOUND ( 'NONE', #127, .T. ) ;
#373 = ORIENTED_EDGE ( 'NONE', *, *, #194, .F. ) ;
#374 = DIRECTION ( 'NONE',  ( -0.000000000000000000, -0.000000000000000000, -1.000000000000000000 ) ) ;
#375 = PERSON_AND_ORGANIZATION_ROLE ( 'design_owner' ) ;
#376 = ORIENTED_EDGE ( 'NONE', *, *, #351, .T. ) ;
#377 = VECTOR ( 'NONE', #222, 1000.000000000000000 ) ;
#378 = LINE ( 'NONE', #358, #381 ) ;
#379 = DIRECTION ( 'NONE',  ( -0.000000000000000000, -0.000000000000000000, -1.000000000000000000 ) ) ;
#380 = EDGE_CURVE ( 'NONE', #63, #173, #247, .T. ) ;
#381 = VECTOR ( 'NONE', #80, 1000.000000000000000 ) ;
ENDSEC;
END-ISO-10303-21;
