ISO-10303-21;
HEADER;
FILE_DESCRIPTION (( 'STEP AP203' ),
    '1' );
FILE_NAME ('6b04.STEP',
    '2022-07-10T09:11:08',
    ( '' ),
    ( '' ),
    'SwSTEP 2.0',
    'SolidWorks 2019',
    '' );
FILE_SCHEMA (( 'CONFIG_CONTROL_DESIGN' ));
ENDSEC;

DATA;
#1 = APPROVAL_ROLE ( '' ) ;
#2 = APPROVAL_DATE_TIME ( #276, #183 ) ;
#3 = CIRCLE ( 'NONE', #311, 4.000000000000000000 ) ;
#4 = EDGE_CURVE ( 'NONE', #348, #82, #271, .T. ) ;
#5 = DIRECTION ( 'NONE',  ( -0.000000000000000000, -0.000000000000000000, -1.000000000000000000 ) ) ;
#6 = LOCAL_TIME ( 11, 11, 8.000000000000000000, #48 ) ;
#7 = ORIENTED_EDGE ( 'NONE', *, *, #24, .T. ) ;
#8 = CC_DESIGN_PERSON_AND_ORGANIZATION_ASSIGNMENT ( #324, #356, ( #237 ) ) ;
#9 = DIRECTION ( 'NONE',  ( 1.000000000000000000, 0.000000000000000000, 0.000000000000000000 ) ) ;
#10 = DIRECTION ( 'NONE',  ( 0.000000000000000000, 0.000000000000000000, 1.000000000000000000 ) ) ;
#11 = CYLINDRICAL_SURFACE ( 'NONE', #186, 2.250000000000000000 ) ;
#12 = ORIENTED_EDGE ( 'NONE', *, *, #211, .F. ) ;
#13 = DIRECTION ( 'NONE',  ( 0.000000000000000000, 0.000000000000000000, -1.000000000000000000 ) ) ;
#14 = PERSON_AND_ORGANIZATION_ROLE ( 'classification_officer' ) ;
#15 = VERTEX_POINT ( 'NONE', #242 ) ;
#16 = DIRECTION ( 'NONE',  ( 0.000000000000000000, 0.000000000000000000, 1.000000000000000000 ) ) ;
#17 = ORIENTED_EDGE ( 'NONE', *, *, #305, .T. ) ;
#18 = DIRECTION ( 'NONE',  ( 0.000000000000000000, 0.000000000000000000, 1.000000000000000000 ) ) ;
#19 = EDGE_CURVE ( 'NONE', #348, #175, #88, .T. ) ;
#20 = AXIS2_PLACEMENT_3D ( 'NONE', #107, #341, #333 ) ;
#21 = CYLINDRICAL_SURFACE ( 'NONE', #155, 4.000000000000000000 ) ;
#22 = DIRECTION ( 'NONE',  ( 0.000000000000000000, 0.000000000000000000, 1.000000000000000000 ) ) ;
#23 = CIRCLE ( 'NONE', #57, 4.500000000000000888 ) ;
#24 = EDGE_CURVE ( 'NONE', #204, #15, #163, .T. ) ;
#25 = PERSON_AND_ORGANIZATION ( #142, #64 ) ;
#26 = ORIENTED_EDGE ( 'NONE', *, *, #137, .T. ) ;
#27 = APPROVAL_ROLE ( '' ) ;
#28 = AXIS2_PLACEMENT_3D ( 'NONE', #322, #18, #266 ) ;
#29 = ORIENTED_EDGE ( 'NONE', *, *, #264, .F. ) ;
#30 = EDGE_CURVE ( 'NONE', #175, #348, #347, .T. ) ;
#31 = DIRECTION ( 'NONE',  ( 0.000000000000000000, 0.000000000000000000, 1.000000000000000000 ) ) ;
#32 = FACE_BOUND ( 'NONE', #336, .T. ) ;
#33 = APPROVAL ( #97, 'NEURÈENÝ' ) ;
#34 = CIRCLE ( 'NONE', #205, 2.250000000000000000 ) ;
#35 = DIRECTION ( 'NONE',  ( 0.000000000000000000, -1.000000000000000000, 0.000000000000000000 ) ) ;
#36 = PLANE ( 'NONE',  #248 ) ;
#37 =( NAMED_UNIT ( * ) SI_UNIT ( $, .STERADIAN. ) SOLID_ANGLE_UNIT ( ) );
#38 =( LENGTH_UNIT ( ) NAMED_UNIT ( * ) SI_UNIT ( .MILLI., .METRE. ) );
#39 = AXIS2_PLACEMENT_3D ( 'NONE', #145, #109, #171 ) ;
#40 = PERSON_AND_ORGANIZATION ( #142, #64 ) ;
#41 = DIRECTION ( 'NONE',  ( -1.000000000000000000, 0.000000000000000000, 0.000000000000000000 ) ) ;
#42 = PERSON_AND_ORGANIZATION ( #142, #64 ) ;
#43 = CLOSED_SHELL ( 'NONE', ( #331, #230, #159, #203, #381, #252, #218, #221, #147, #100, #77 ) ) ;
#44 = DIRECTION ( 'NONE',  ( 1.000000000000000000, 0.000000000000000000, 0.000000000000000000 ) ) ;
#45 = UNCERTAINTY_MEASURE_WITH_UNIT (LENGTH_MEASURE( 1.000000000000000082E-05 ), #38, 'distance_accuracy_value', 'NONE');
#46 = ORIENTED_EDGE ( 'NONE', *, *, #30, .T. ) ;
#47 = DIRECTION ( 'NONE',  ( 0.000000000000000000, 0.000000000000000000, 1.000000000000000000 ) ) ;
#48 = COORDINATED_UNIVERSAL_TIME_OFFSET ( 1, 0, .AHEAD. ) ;
#49 = CARTESIAN_POINT ( 'NONE',  ( 0.000000000000000000, 0.000000000000000000, 165.0000000000000000 ) ) ;
#50 = AXIS2_PLACEMENT_3D ( 'NONE', #307, #16, #9 ) ;
#51 = DESIGN_CONTEXT ( 'detailed design', #111, 'design' ) ;
#52 = DIRECTION ( 'NONE',  ( -1.000000000000000000, 0.000000000000000000, 0.000000000000000000 ) ) ;
#53 = ORIENTED_EDGE ( 'NONE', *, *, #178, .F. ) ;
#54 = CIRCLE ( 'NONE', #146, 7.000000000000000000 ) ;
#55 = APPROVAL_DATE_TIME ( #346, #65 ) ;
#56 = EDGE_CURVE ( 'NONE', #283, #204, #168, .T. ) ;
#57 = AXIS2_PLACEMENT_3D ( 'NONE', #200, #234, #344 ) ;
#58 = MANIFOLD_SOLID_BREP ( 'Odebrat vysunutím3', #43 ) ;
#59 = DIRECTION ( 'NONE',  ( 1.000000000000000000, 0.000000000000000000, 0.000000000000000000 ) ) ;
#60 = PERSON_AND_ORGANIZATION ( #142, #64 ) ;
#61 = LOCAL_TIME ( 11, 11, 8.000000000000000000, #102 ) ;
#62 = DIRECTION ( 'NONE',  ( 0.000000000000000000, 0.000000000000000000, 1.000000000000000000 ) ) ;
#63 = ORIENTED_EDGE ( 'NONE', *, *, #152, .T. ) ;
#64 = ORGANIZATION ( 'NEURÈENÝ', 'NEURÈENÝ', '' ) ;
#65 = APPROVAL ( #377, 'NEURÈENÝ' ) ;
#66 = FACE_OUTER_BOUND ( 'NONE', #199, .T. ) ;
#67 = CIRCLE ( 'NONE', #85, 0.5000000000000004441 ) ;
#68 = FACE_BOUND ( 'NONE', #133, .T. ) ;
#69 = DIRECTION ( 'NONE',  ( 0.000000000000000000, 0.000000000000000000, -1.000000000000000000 ) ) ;
#70 = EDGE_LOOP ( 'NONE', ( #78, #167, #26, #321 ) ) ;
#71 = CARTESIAN_POINT ( 'NONE',  ( 0.000000000000000000, 0.000000000000000000, 0.000000000000000000 ) ) ;
#72 = CC_DESIGN_APPROVAL ( #33, ( #338 ) ) ;
#73 = DIRECTION ( 'NONE',  ( -0.000000000000000000, -0.000000000000000000, -1.000000000000000000 ) ) ;
#74 = CARTESIAN_POINT ( 'NONE',  ( 7.000000000000000000, 8.572527594031473190E-16, 0.000000000000000000 ) ) ;
#75 = ORIENTED_EDGE ( 'NONE', *, *, #152, .F. ) ;
#76 = LINE ( 'NONE', #376, #177 ) ;
#77 = ADVANCED_FACE ( 'NONE', ( #66 ), #194, .F. ) ;
#78 = ORIENTED_EDGE ( 'NONE', *, *, #375, .F. ) ;
#79 = CIRCLE ( 'NONE', #39, 0.5000000000000004441 ) ;
#80 = CARTESIAN_POINT ( 'NONE',  ( 4.000000000000000000, 4.898587196589412829E-16, 165.0000000000000000 ) ) ;
#81 = EDGE_CURVE ( 'NONE', #318, #129, #54, .T. ) ;
#82 = VERTEX_POINT ( 'NONE', #258 ) ;
#83 = ORIENTED_EDGE ( 'NONE', *, *, #86, .T. ) ;
#84 = PERSON_AND_ORGANIZATION ( #142, #64 ) ;
#85 = AXIS2_PLACEMENT_3D ( 'NONE', #247, #35, #123 ) ;
#86 = EDGE_CURVE ( 'NONE', #358, #231, #362, .T. ) ;
#87 = PRODUCT ( '6b04', '6b04', '', ( #244 ) ) ;
#88 = CIRCLE ( 'NONE', #315, 4.000000000000000000 ) ;
#89 = FACE_OUTER_BOUND ( 'NONE', #138, .T. ) ;
#90 = APPLICATION_CONTEXT ( 'configuration controlled 3d designs of mechanical parts and assemblies' ) ;
#91 = APPROVAL_PERSON_ORGANIZATION ( #84, #183, #1 ) ;
#92 = CC_DESIGN_PERSON_AND_ORGANIZATION_ASSIGNMENT ( #42, #14, ( #338 ) ) ;
#93 = DIRECTION ( 'NONE',  ( -0.000000000000000000, -0.000000000000000000, -1.000000000000000000 ) ) ;
#94 = ORIENTED_EDGE ( 'NONE', *, *, #325, .F. ) ;
#95 = SHAPE_DEFINITION_REPRESENTATION ( #284, #256 ) ;
#96 = ORIENTED_EDGE ( 'NONE', *, *, #305, .F. ) ;
#97 = APPROVAL_STATUS ( 'not_yet_approved' ) ;
#98 = CYLINDRICAL_SURFACE ( 'NONE', #281, 7.000000000000000000 ) ;
#99 = LOCAL_TIME ( 11, 11, 8.000000000000000000, #144 ) ;
#100 = ADVANCED_FACE ( 'NONE', ( #372 ), #355, .F. ) ;
#101 = CARTESIAN_POINT ( 'NONE',  ( 0.000000000000000000, 0.000000000000000000, 165.0000000000000000 ) ) ;
#102 = COORDINATED_UNIVERSAL_TIME_OFFSET ( 1, 0, .AHEAD. ) ;
#103 = DIRECTION ( 'NONE',  ( -0.000000000000000000, -0.000000000000000000, -1.000000000000000000 ) ) ;
#104 = AXIS2_PLACEMENT_3D ( 'NONE', #135, #22, #224 ) ;
#105 = FACE_BOUND ( 'NONE', #289, .T. ) ;
#106 = DIRECTION ( 'NONE',  ( 0.000000000000000000, 0.000000000000000000, 1.000000000000000000 ) ) ;
#107 = CARTESIAN_POINT ( 'NONE',  ( 0.000000000000000000, 0.000000000000000000, 5.500000000000005329 ) ) ;
#108 = DIRECTION ( 'NONE',  ( 0.000000000000000000, 0.000000000000000000, 1.000000000000000000 ) ) ;
#109 = DIRECTION ( 'NONE',  ( 1.224646799147353207E-16, 1.000000000000000000, -0.000000000000000000 ) ) ;
#110 = ORIENTED_EDGE ( 'NONE', *, *, #174, .F. ) ;
#111 = APPLICATION_CONTEXT ( 'configuration controlled 3d designs of mechanical parts and assemblies' ) ;
#112 = AXIS2_PLACEMENT_3D ( 'NONE', #71, #106, #197 ) ;
#113 = ORIENTED_EDGE ( 'NONE', *, *, #174, .T. ) ;
#114 = CARTESIAN_POINT ( 'NONE',  ( 4.000000000000000000, 4.898587196589412829E-16, 165.0000000000000000 ) ) ;
#115 = CARTESIAN_POINT ( 'NONE',  ( -4.000000000000000000, 0.000000000000000000, 165.0000000000000000 ) ) ;
#116 = ORIENTED_EDGE ( 'NONE', *, *, #308, .F. ) ;
#117 = DATE_AND_TIME ( #156, #99 ) ;
#118 = AXIS2_PLACEMENT_3D ( 'NONE', #329, #310, #223 ) ;
#119 = EDGE_LOOP ( 'NONE', ( #240, #7, #332, #222 ) ) ;
#120 = FACE_OUTER_BOUND ( 'NONE', #366, .T. ) ;
#121 = DATE_AND_TIME ( #249, #269 ) ;
#122 = CARTESIAN_POINT ( 'NONE',  ( 0.000000000000000000, 0.000000000000000000, 0.000000000000000000 ) ) ;
#123 = DIRECTION ( 'NONE',  ( 0.000000000000000000, 0.000000000000000000, -1.000000000000000000 ) ) ;
#124 = DATE_TIME_ROLE ( 'classification_date' ) ;
#125 = CC_DESIGN_PERSON_AND_ORGANIZATION_ASSIGNMENT ( #60, #354, ( #87 ) ) ;
#126 = PERSON_AND_ORGANIZATION_ROLE ( 'design_supplier' ) ;
#127 = TOROIDAL_SURFACE ( 'NONE', #140, 4.500000000000000888, 0.5000000000000000000 ) ;
#128 = DIRECTION ( 'NONE',  ( 1.000000000000000000, 0.000000000000000000, 0.000000000000000000 ) ) ;
#129 = VERTEX_POINT ( 'NONE', #74 ) ;
#130 = AXIS2_PLACEMENT_3D ( 'NONE', #101, #198, #262 ) ;
#131 = VERTEX_POINT ( 'NONE', #132 ) ;
#132 = CARTESIAN_POINT ( 'NONE',  ( 4.000000000000000000, 4.898587196589412829E-16, 5.500000000000005329 ) ) ;
#133 = EDGE_LOOP ( 'NONE', ( #280, #110 ) ) ;
#134 = CIRCLE ( 'NONE', #359, 7.000000000000000000 ) ;
#135 = CARTESIAN_POINT ( 'NONE',  ( 0.000000000000000000, 0.000000000000000000, 165.0000000000000000 ) ) ;
#136 = ORIENTED_EDGE ( 'NONE', *, *, #375, .T. ) ;
#137 = EDGE_CURVE ( 'NONE', #343, #318, #143, .T. ) ;
#138 = EDGE_LOOP ( 'NONE', ( #328, #245, #161, #287 ) ) ;
#139 = CARTESIAN_POINT ( 'NONE',  ( -4.500000000000000888, 5.510910596163088569E-16, 5.000000000000002665 ) ) ;
#140 = AXIS2_PLACEMENT_3D ( 'NONE', #374, #108, #342 ) ;
#141 = CIRCLE ( 'NONE', #350, 2.250000000000000000 ) ;
#142 = PERSON ( 'NEURÈENÝ', 'NEURÈENÝ', 'NEURÈENÝ', ('NEURÈENÝ'), ('NEURÈENÝ'), ('NEURÈENÝ') ) ;
#143 = LINE ( 'NONE', #368, #299 ) ;
#144 = COORDINATED_UNIVERSAL_TIME_OFFSET ( 1, 0, .AHEAD. ) ;
#145 = CARTESIAN_POINT ( 'NONE',  ( -4.500000000000000888, 5.510910596163089556E-16, 5.500000000000005329 ) ) ;
#146 = AXIS2_PLACEMENT_3D ( 'NONE', #288, #335, #44 ) ;
#147 = ADVANCED_FACE ( 'NONE', ( #68, #120 ), #36, .T. ) ;
#148 = CARTESIAN_POINT ( 'NONE',  ( 0.000000000000000000, 0.000000000000000000, 165.0000000000000000 ) ) ;
#149 = ORIENTED_EDGE ( 'NONE', *, *, #19, .T. ) ;
#150 = EDGE_LOOP ( 'NONE', ( #96, #53, #63, #12 ) ) ;
#151 = AXIS2_PLACEMENT_3D ( 'NONE', #229, #13, #41 ) ;
#152 = EDGE_CURVE ( 'NONE', #131, #358, #67, .T. ) ;
#153 = DIRECTION ( 'NONE',  ( 1.000000000000000000, 0.000000000000000000, 0.000000000000000000 ) ) ;
#154 = FACE_OUTER_BOUND ( 'NONE', #220, .T. ) ;
#155 = AXIS2_PLACEMENT_3D ( 'NONE', #340, #73, #313 ) ;
#156 = CALENDAR_DATE ( 2022, 10, 7 ) ;
#157 = DIRECTION ( 'NONE',  ( 0.000000000000000000, 0.000000000000000000, 1.000000000000000000 ) ) ;
#158 = DIRECTION ( 'NONE',  ( 0.000000000000000000, 0.000000000000000000, 1.000000000000000000 ) ) ;
#159 = ADVANCED_FACE ( 'NONE', ( #89 ), #214, .T. ) ;
#160 = CARTESIAN_POINT ( 'NONE',  ( 0.000000000000000000, 0.000000000000000000, 5.000000000000000000 ) ) ;
#161 = ORIENTED_EDGE ( 'NONE', *, *, #178, .T. ) ;
#162 = COORDINATED_UNIVERSAL_TIME_OFFSET ( 1, 0, .AHEAD. ) ;
#163 = LINE ( 'NONE', #295, #285 ) ;
#164 = VECTOR ( 'NONE', #190, 1000.000000000000000 ) ;
#165 = ORIENTED_EDGE ( 'NONE', *, *, #371, .F. ) ;
#166 = APPROVAL_DATE_TIME ( #121, #33 ) ;
#167 = ORIENTED_EDGE ( 'NONE', *, *, #320, .F. ) ;
#168 = CIRCLE ( 'NONE', #130, 2.250000000000000000 ) ;
#169 = DIRECTION ( 'NONE',  ( -0.000000000000000000, -0.000000000000000000, -1.000000000000000000 ) ) ;
#170 = CARTESIAN_POINT ( 'NONE',  ( 4.500000000000000888, 0.000000000000000000, 5.000000000000002665 ) ) ;
#171 = DIRECTION ( 'NONE',  ( -1.000000000000000000, 1.224646799147351482E-16, 0.000000000000000000 ) ) ;
#172 = CIRCLE ( 'NONE', #255, 7.000000000000000000 ) ;
#173 = DIRECTION ( 'NONE',  ( -1.000000000000000000, 0.000000000000000000, 0.000000000000000000 ) ) ;
#174 = EDGE_CURVE ( 'NONE', #204, #283, #141, .T. ) ;
#175 = VERTEX_POINT ( 'NONE', #80 ) ;
#176 = FACE_OUTER_BOUND ( 'NONE', #226, .T. ) ;
#177 = VECTOR ( 'NONE', #290, 1000.000000000000000 ) ;
#178 = EDGE_CURVE ( 'NONE', #131, #82, #306, .T. ) ;
#179 = PLANE ( 'NONE',  #112 ) ;
#180 = CARTESIAN_POINT ( 'NONE',  ( 0.000000000000000000, 0.000000000000000000, 5.500000000000005329 ) ) ;
#181 = DATE_TIME_ROLE ( 'creation_date' ) ;
#182 = DIRECTION ( 'NONE',  ( 1.000000000000000000, 0.000000000000000000, 0.000000000000000000 ) ) ;
#183 = APPROVAL ( #208, 'NEURÈENÝ' ) ;
#184 = CARTESIAN_POINT ( 'NONE',  ( -2.250000000000000000, 0.000000000000000000, 0.000000000000000000 ) ) ;
#185 = DIRECTION ( 'NONE',  ( 1.000000000000000000, 0.000000000000000000, -0.000000000000000000 ) ) ;
#186 = AXIS2_PLACEMENT_3D ( 'NONE', #254, #69, #52 ) ;
#187 = CC_DESIGN_PERSON_AND_ORGANIZATION_ASSIGNMENT ( #25, #235, ( #239 ) ) ;
#188 = ORIENTED_EDGE ( 'NONE', *, *, #371, .T. ) ;
#189 = DIRECTION ( 'NONE',  ( 1.000000000000000000, 0.000000000000000000, -0.000000000000000000 ) ) ;
#190 = DIRECTION ( 'NONE',  ( -0.000000000000000000, -0.000000000000000000, -1.000000000000000000 ) ) ;
#191 = ORIENTED_EDGE ( 'NONE', *, *, #246, .T. ) ;
#192 = ORIENTED_EDGE ( 'NONE', *, *, #320, .T. ) ;
#193 = DIRECTION ( 'NONE',  ( -1.000000000000000000, 0.000000000000000000, 0.000000000000000000 ) ) ;
#194 = CYLINDRICAL_SURFACE ( 'NONE', #151, 2.250000000000000000 ) ;
#195 = CC_DESIGN_PERSON_AND_ORGANIZATION_ASSIGNMENT ( #212, #126, ( #237 ) ) ;
#196 = LOCAL_TIME ( 11, 11, 8.000000000000000000, #297 ) ;
#197 = DIRECTION ( 'NONE',  ( 1.000000000000000000, 0.000000000000000000, -0.000000000000000000 ) ) ;
#198 = DIRECTION ( 'NONE',  ( 0.000000000000000000, 0.000000000000000000, 1.000000000000000000 ) ) ;
#199 = EDGE_LOOP ( 'NONE', ( #213, #113, #369, #191 ) ) ;
#200 = CARTESIAN_POINT ( 'NONE',  ( 0.000000000000000000, 0.000000000000000000, 5.000000000000000000 ) ) ;
#201 = AXIS2_PLACEMENT_3D ( 'NONE', #316, #169, #337 ) ;
#202 = CARTESIAN_POINT ( 'NONE',  ( 0.000000000000000000, 0.000000000000000000, 5.000000000000000000 ) ) ;
#203 = ADVANCED_FACE ( 'NONE', ( #260 ), #228, .T. ) ;
#204 = VERTEX_POINT ( 'NONE', #370 ) ;
#205 = AXIS2_PLACEMENT_3D ( 'NONE', #304, #279, #128 ) ;
#206 = EDGE_CURVE ( 'NONE', #283, #238, #76, .T. ) ;
#207 = DIRECTION ( 'NONE',  ( -0.000000000000000000, -0.000000000000000000, -1.000000000000000000 ) ) ;
#208 = APPROVAL_STATUS ( 'not_yet_approved' ) ;
#209 = DIRECTION ( 'NONE',  ( 0.000000000000000000, 0.000000000000000000, 1.000000000000000000 ) ) ;
#210 = LINE ( 'NONE', #114, #164 ) ;
#211 = EDGE_CURVE ( 'NONE', #231, #358, #23, .T. ) ;
#212 = PERSON_AND_ORGANIZATION ( #142, #64 ) ;
#213 = ORIENTED_EDGE ( 'NONE', *, *, #24, .F. ) ;
#214 = CYLINDRICAL_SURFACE ( 'NONE', #118, 4.000000000000000000 ) ;
#215 = AXIS2_PLACEMENT_3D ( 'NONE', #202, #261, #173 ) ;
#216 = APPLICATION_PROTOCOL_DEFINITION ( 'international standard', 'config_control_design', 1994, #90 ) ;
#217 = ORIENTED_EDGE ( 'NONE', *, *, #308, .T. ) ;
#218 = ADVANCED_FACE ( 'NONE', ( #105, #232 ), #179, .F. ) ;
#219 = AXIS2_PLACEMENT_3D ( 'NONE', #298, #31, #153 ) ;
#220 = EDGE_LOOP ( 'NONE', ( #192, #217 ) ) ;
#221 = ADVANCED_FACE ( 'NONE', ( #312 ), #21, .T. ) ;
#222 = ORIENTED_EDGE ( 'NONE', *, *, #206, .F. ) ;
#223 = DIRECTION ( 'NONE',  ( -1.000000000000000000, 0.000000000000000000, 0.000000000000000000 ) ) ;
#224 = DIRECTION ( 'NONE',  ( 1.000000000000000000, 0.000000000000000000, 0.000000000000000000 ) ) ;
#225 = CARTESIAN_POINT ( 'NONE',  ( -7.000000000000000000, 0.000000000000000000, 5.000000000000000000 ) ) ;
#226 = EDGE_LOOP ( 'NONE', ( #294, #17, #268, #75 ) ) ;
#227 = APPROVAL_PERSON_ORGANIZATION ( #40, #33, #357 ) ;
#228 = CYLINDRICAL_SURFACE ( 'NONE', #215, 7.000000000000000000 ) ;
#229 = CARTESIAN_POINT ( 'NONE',  ( 0.000000000000000000, 0.000000000000000000, 165.0000000000000000 ) ) ;
#230 = ADVANCED_FACE ( 'NONE', ( #176 ), #127, .F. ) ;
#231 = VERTEX_POINT ( 'NONE', #139 ) ;
#232 = FACE_OUTER_BOUND ( 'NONE', #361, .T. ) ;
#233 = ORIENTED_EDGE ( 'NONE', *, *, #137, .F. ) ;
#234 = DIRECTION ( 'NONE',  ( -0.000000000000000000, -0.000000000000000000, -1.000000000000000000 ) ) ;
#235 = PERSON_AND_ORGANIZATION_ROLE ( 'creator' ) ;
#236 = ORIENTED_EDGE ( 'NONE', *, *, #211, .T. ) ;
#237 = PRODUCT_DEFINITION_FORMATION_WITH_SPECIFIED_SOURCE ( 'LIBOVOLNÝ', '', #87, .NOT_KNOWN. ) ;
#238 = VERTEX_POINT ( 'NONE', #184 ) ;
#239 = PRODUCT_DEFINITION ( 'NEZNÁMÝ', '', #237, #51 ) ;
#240 = ORIENTED_EDGE ( 'NONE', *, *, #56, .T. ) ;
#241 = CARTESIAN_POINT ( 'NONE',  ( 0.000000000000000000, 0.000000000000000000, 5.000000000000000000 ) ) ;
#242 = CARTESIAN_POINT ( 'NONE',  ( 2.250000000000000000, 2.755455298081544285E-16, 0.000000000000000000 ) ) ;
#243 = AXIS2_PLACEMENT_3D ( 'NONE', #122, #301, #327 ) ;
#244 = MECHANICAL_CONTEXT ( 'NONE', #90, 'mechanical' ) ;
#245 = ORIENTED_EDGE ( 'NONE', *, *, #325, .T. ) ;
#246 = EDGE_CURVE ( 'NONE', #238, #15, #367, .T. ) ;
#247 = CARTESIAN_POINT ( 'NONE',  ( 4.500000000000000888, 0.000000000000000000, 5.500000000000005329 ) ) ;
#248 = AXIS2_PLACEMENT_3D ( 'NONE', #148, #158, #185 ) ;
#249 = CALENDAR_DATE ( 2022, 10, 7 ) ;
#250 = ORIENTED_EDGE ( 'NONE', *, *, #246, .F. ) ;
#251 = CARTESIAN_POINT ( 'NONE',  ( -2.250000000000000000, 0.000000000000000000, 165.0000000000000000 ) ) ;
#252 = ADVANCED_FACE ( 'NONE', ( #32, #154 ), #274, .T. ) ;
#253 = FACE_OUTER_BOUND ( 'NONE', #119, .T. ) ;
#254 = CARTESIAN_POINT ( 'NONE',  ( 0.000000000000000000, 0.000000000000000000, 165.0000000000000000 ) ) ;
#255 = AXIS2_PLACEMENT_3D ( 'NONE', #241, #157, #272 ) ;
#256 = ADVANCED_BREP_SHAPE_REPRESENTATION ( '6b04', ( #58, #219 ), #263 ) ;
#257 = EDGE_LOOP ( 'NONE', ( #94, #277, #326, #339 ) ) ;
#258 = CARTESIAN_POINT ( 'NONE',  ( -4.000000000000000000, 0.000000000000000000, 5.500000000000005329 ) ) ;
#259 = CARTESIAN_POINT ( 'NONE',  ( -4.000000000000000000, 0.000000000000000000, 165.0000000000000000 ) ) ;
#260 = FACE_OUTER_BOUND ( 'NONE', #300, .T. ) ;
#261 = DIRECTION ( 'NONE',  ( -0.000000000000000000, -0.000000000000000000, -1.000000000000000000 ) ) ;
#262 = DIRECTION ( 'NONE',  ( 1.000000000000000000, 0.000000000000000000, 0.000000000000000000 ) ) ;
#263 =( GEOMETRIC_REPRESENTATION_CONTEXT ( 3 ) GLOBAL_UNCERTAINTY_ASSIGNED_CONTEXT ( ( #45 ) ) GLOBAL_UNIT_ASSIGNED_CONTEXT ( ( #38, #334, #37 ) ) REPRESENTATION_CONTEXT ( 'NONE', 'WORKASPACE' ) );
#264 = EDGE_CURVE ( 'NONE', #15, #238, #34, .T. ) ;
#265 = CALENDAR_DATE ( 2022, 10, 7 ) ;
#266 = DIRECTION ( 'NONE',  ( 1.000000000000000000, 0.000000000000000000, 0.000000000000000000 ) ) ;
#267 = CALENDAR_DATE ( 2022, 10, 7 ) ;
#268 = ORIENTED_EDGE ( 'NONE', *, *, #86, .F. ) ;
#269 = LOCAL_TIME ( 11, 11, 8.000000000000000000, #162 ) ;
#270 = CC_DESIGN_DATE_AND_TIME_ASSIGNMENT ( #117, #181, ( #239 ) ) ;
#271 = LINE ( 'NONE', #115, #380 ) ;
#272 = DIRECTION ( 'NONE',  ( 1.000000000000000000, 0.000000000000000000, 0.000000000000000000 ) ) ;
#273 = CARTESIAN_POINT ( 'NONE',  ( -7.000000000000000000, 0.000000000000000000, 0.000000000000000000 ) ) ;
#274 = PLANE ( 'NONE',  #330 ) ;
#275 = CC_DESIGN_APPROVAL ( #65, ( #239 ) ) ;
#276 = DATE_AND_TIME ( #302, #6 ) ;
#277 = ORIENTED_EDGE ( 'NONE', *, *, #19, .F. ) ;
#278 = LINE ( 'NONE', #309, #378 ) ;
#279 = DIRECTION ( 'NONE',  ( -0.000000000000000000, -0.000000000000000000, -1.000000000000000000 ) ) ;
#280 = ORIENTED_EDGE ( 'NONE', *, *, #56, .F. ) ;
#281 = AXIS2_PLACEMENT_3D ( 'NONE', #360, #93, #193 ) ;
#282 = FACE_OUTER_BOUND ( 'NONE', #70, .T. ) ;
#283 = VERTEX_POINT ( 'NONE', #251 ) ;
#284 = PRODUCT_DEFINITION_SHAPE ( 'NONE', 'NONE',  #239 ) ;
#285 = VECTOR ( 'NONE', #291, 1000.000000000000000 ) ;
#286 = CC_DESIGN_SECURITY_CLASSIFICATION ( #338, ( #237 ) ) ;
#287 = ORIENTED_EDGE ( 'NONE', *, *, #4, .F. ) ;
#288 = CARTESIAN_POINT ( 'NONE',  ( 0.000000000000000000, 0.000000000000000000, 0.000000000000000000 ) ) ;
#289 = EDGE_LOOP ( 'NONE', ( #250, #29 ) ) ;
#290 = DIRECTION ( 'NONE',  ( 0.000000000000000000, 0.000000000000000000, -1.000000000000000000 ) ) ;
#291 = DIRECTION ( 'NONE',  ( 0.000000000000000000, 0.000000000000000000, -1.000000000000000000 ) ) ;
#292 = APPROVAL_PERSON_ORGANIZATION ( #296, #65, #27 ) ;
#293 = APPLICATION_PROTOCOL_DEFINITION ( 'international standard', 'config_control_design', 1994, #111 ) ;
#294 = ORIENTED_EDGE ( 'NONE', *, *, #314, .F. ) ;
#295 = CARTESIAN_POINT ( 'NONE',  ( 2.250000000000000000, 2.755455298081544285E-16, 165.0000000000000000 ) ) ;
#296 = PERSON_AND_ORGANIZATION ( #142, #64 ) ;
#297 = COORDINATED_UNIVERSAL_TIME_OFFSET ( 1, 0, .AHEAD. ) ;
#298 = CARTESIAN_POINT ( 'NONE',  ( 0.000000000000000000, 0.000000000000000000, 0.000000000000000000 ) ) ;
#299 = VECTOR ( 'NONE', #103, 1000.000000000000000 ) ;
#300 = EDGE_LOOP ( 'NONE', ( #116, #136, #188, #233 ) ) ;
#301 = DIRECTION ( 'NONE',  ( -0.000000000000000000, -0.000000000000000000, -1.000000000000000000 ) ) ;
#302 = CALENDAR_DATE ( 2022, 10, 7 ) ;
#303 = DATE_AND_TIME ( #265, #61 ) ;
#304 = CARTESIAN_POINT ( 'NONE',  ( 0.000000000000000000, 0.000000000000000000, 0.000000000000000000 ) ) ;
#305 = EDGE_CURVE ( 'NONE', #82, #231, #79, .T. ) ;
#306 = CIRCLE ( 'NONE', #28, 4.000000000000000000 ) ;
#307 = CARTESIAN_POINT ( 'NONE',  ( 0.000000000000000000, 0.000000000000000000, 0.000000000000000000 ) ) ;
#308 = EDGE_CURVE ( 'NONE', #353, #343, #172, .T. ) ;
#309 = CARTESIAN_POINT ( 'NONE',  ( 7.000000000000000000, 8.572527594031473190E-16, 5.000000000000000000 ) ) ;
#310 = DIRECTION ( 'NONE',  ( -0.000000000000000000, -0.000000000000000000, -1.000000000000000000 ) ) ;
#311 = AXIS2_PLACEMENT_3D ( 'NONE', #180, #62, #182 ) ;
#312 = FACE_OUTER_BOUND ( 'NONE', #257, .T. ) ;
#313 = DIRECTION ( 'NONE',  ( -1.000000000000000000, 0.000000000000000000, 0.000000000000000000 ) ) ;
#314 = EDGE_CURVE ( 'NONE', #82, #131, #3, .T. ) ;
#315 = AXIS2_PLACEMENT_3D ( 'NONE', #349, #209, #59 ) ;
#316 = CARTESIAN_POINT ( 'NONE',  ( 0.000000000000000000, 0.000000000000000000, 5.000000000000000000 ) ) ;
#317 = CC_DESIGN_APPROVAL ( #183, ( #237 ) ) ;
#318 = VERTEX_POINT ( 'NONE', #273 ) ;
#319 = DIRECTION ( 'NONE',  ( 1.000000000000000000, 0.000000000000000000, 0.000000000000000000 ) ) ;
#320 = EDGE_CURVE ( 'NONE', #343, #353, #134, .T. ) ;
#321 = ORIENTED_EDGE ( 'NONE', *, *, #81, .T. ) ;
#322 = CARTESIAN_POINT ( 'NONE',  ( 0.000000000000000000, 0.000000000000000000, 5.500000000000005329 ) ) ;
#323 = ORIENTED_EDGE ( 'NONE', *, *, #81, .F. ) ;
#324 = PERSON_AND_ORGANIZATION ( #142, #64 ) ;
#325 = EDGE_CURVE ( 'NONE', #175, #131, #210, .T. ) ;
#326 = ORIENTED_EDGE ( 'NONE', *, *, #4, .T. ) ;
#327 = DIRECTION ( 'NONE',  ( 1.000000000000000000, 0.000000000000000000, 0.000000000000000000 ) ) ;
#328 = ORIENTED_EDGE ( 'NONE', *, *, #30, .F. ) ;
#329 = CARTESIAN_POINT ( 'NONE',  ( 0.000000000000000000, 0.000000000000000000, 165.0000000000000000 ) ) ;
#330 = AXIS2_PLACEMENT_3D ( 'NONE', #364, #10, #189 ) ;
#331 = ADVANCED_FACE ( 'NONE', ( #253 ), #11, .F. ) ;
#332 = ORIENTED_EDGE ( 'NONE', *, *, #264, .T. ) ;
#333 = DIRECTION ( 'NONE',  ( 1.000000000000000000, 0.000000000000000000, 0.000000000000000000 ) ) ;
#334 =( NAMED_UNIT ( * ) PLANE_ANGLE_UNIT ( ) SI_UNIT ( $, .RADIAN. ) );
#335 = DIRECTION ( 'NONE',  ( 0.000000000000000000, 0.000000000000000000, 1.000000000000000000 ) ) ;
#336 = EDGE_LOOP ( 'NONE', ( #83, #236 ) ) ;
#337 = DIRECTION ( 'NONE',  ( 1.000000000000000000, 0.000000000000000000, 0.000000000000000000 ) ) ;
#338 = SECURITY_CLASSIFICATION ( '', '', #365 ) ;
#339 = ORIENTED_EDGE ( 'NONE', *, *, #314, .T. ) ;
#340 = CARTESIAN_POINT ( 'NONE',  ( 0.000000000000000000, 0.000000000000000000, 165.0000000000000000 ) ) ;
#341 = DIRECTION ( 'NONE',  ( 0.000000000000000000, 0.000000000000000000, 1.000000000000000000 ) ) ;
#342 = DIRECTION ( 'NONE',  ( 1.000000000000000000, 0.000000000000000000, 0.000000000000000000 ) ) ;
#343 = VERTEX_POINT ( 'NONE', #225 ) ;
#344 = DIRECTION ( 'NONE',  ( 1.000000000000000000, 0.000000000000000000, 0.000000000000000000 ) ) ;
#345 = PRODUCT_RELATED_PRODUCT_CATEGORY ( 'detail', '', ( #87 ) ) ;
#346 = DATE_AND_TIME ( #267, #196 ) ;
#347 = CIRCLE ( 'NONE', #104, 4.000000000000000000 ) ;
#348 = VERTEX_POINT ( 'NONE', #259 ) ;
#349 = CARTESIAN_POINT ( 'NONE',  ( 0.000000000000000000, 0.000000000000000000, 165.0000000000000000 ) ) ;
#350 = AXIS2_PLACEMENT_3D ( 'NONE', #49, #47, #319 ) ;
#351 = DIRECTION ( 'NONE',  ( 1.000000000000000000, 0.000000000000000000, 0.000000000000000000 ) ) ;
#352 = CIRCLE ( 'NONE', #50, 7.000000000000000000 ) ;
#353 = VERTEX_POINT ( 'NONE', #373 ) ;
#354 = PERSON_AND_ORGANIZATION_ROLE ( 'design_owner' ) ;
#355 = TOROIDAL_SURFACE ( 'NONE', #20, 4.500000000000000888, 0.5000000000000000000 ) ;
#356 = PERSON_AND_ORGANIZATION_ROLE ( 'creator' ) ;
#357 = APPROVAL_ROLE ( '' ) ;
#358 = VERTEX_POINT ( 'NONE', #170 ) ;
#359 = AXIS2_PLACEMENT_3D ( 'NONE', #160, #379, #351 ) ;
#360 = CARTESIAN_POINT ( 'NONE',  ( 0.000000000000000000, 0.000000000000000000, 5.000000000000000000 ) ) ;
#361 = EDGE_LOOP ( 'NONE', ( #323, #165 ) ) ;
#362 = CIRCLE ( 'NONE', #201, 4.500000000000000888 ) ;
#363 = CC_DESIGN_DATE_AND_TIME_ASSIGNMENT ( #303, #124, ( #338 ) ) ;
#364 = CARTESIAN_POINT ( 'NONE',  ( 0.000000000000000000, 0.000000000000000000, 5.000000000000000000 ) ) ;
#365 = SECURITY_CLASSIFICATION_LEVEL ( 'unclassified' ) ;
#366 = EDGE_LOOP ( 'NONE', ( #149, #46 ) ) ;
#367 = CIRCLE ( 'NONE', #243, 2.250000000000000000 ) ;
#368 = CARTESIAN_POINT ( 'NONE',  ( -7.000000000000000000, 0.000000000000000000, 5.000000000000000000 ) ) ;
#369 = ORIENTED_EDGE ( 'NONE', *, *, #206, .T. ) ;
#370 = CARTESIAN_POINT ( 'NONE',  ( 2.250000000000000000, 2.755455298081544285E-16, 165.0000000000000000 ) ) ;
#371 = EDGE_CURVE ( 'NONE', #129, #318, #352, .T. ) ;
#372 = FACE_OUTER_BOUND ( 'NONE', #150, .T. ) ;
#373 = CARTESIAN_POINT ( 'NONE',  ( 7.000000000000000000, 8.572527594031473190E-16, 5.000000000000000000 ) ) ;
#374 = CARTESIAN_POINT ( 'NONE',  ( 0.000000000000000000, 0.000000000000000000, 5.500000000000005329 ) ) ;
#375 = EDGE_CURVE ( 'NONE', #353, #129, #278, .T. ) ;
#376 = CARTESIAN_POINT ( 'NONE',  ( -2.250000000000000000, 0.000000000000000000, 165.0000000000000000 ) ) ;
#377 = APPROVAL_STATUS ( 'not_yet_approved' ) ;
#378 = VECTOR ( 'NONE', #5, 1000.000000000000000 ) ;
#379 = DIRECTION ( 'NONE',  ( 0.000000000000000000, 0.000000000000000000, 1.000000000000000000 ) ) ;
#380 = VECTOR ( 'NONE', #207, 1000.000000000000000 ) ;
#381 = ADVANCED_FACE ( 'NONE', ( #282 ), #98, .T. ) ;
ENDSEC;
END-ISO-10303-21;
