ISO-10303-21;
HEADER;
FILE_DESCRIPTION (( 'STEP AP203' ),
    '1' );
FILE_NAME ('3a58.STEP',
    '2022-07-10T09:19:31',
    ( '' ),
    ( '' ),
    'SwSTEP 2.0',
    'SolidWorks 2019',
    '' );
FILE_SCHEMA (( 'CONFIG_CONTROL_DESIGN' ));
ENDSEC;

DATA;
#1 = DATE_AND_TIME ( #376, #119 ) ;
#2 = DIRECTION ( 'NONE',  ( 1.000000000000000000, 0.000000000000000000, 0.000000000000000000 ) ) ;
#3 = CARTESIAN_POINT ( 'NONE',  ( 1.100000000000000089, 1.347111479062088503E-16, 78.00000000000000000 ) ) ;
#4 = EDGE_CURVE ( 'NONE', #343, #88, #6, .T. ) ;
#5 = CYLINDRICAL_SURFACE ( 'NONE', #132, 2.000000000000000000 ) ;
#6 = CIRCLE ( 'NONE', #218, 4.000000000000000000 ) ;
#7 = CIRCLE ( 'NONE', #375, 2.000000000000000000 ) ;
#8 = DIRECTION ( 'NONE',  ( 0.000000000000000000, 0.000000000000000000, 1.000000000000000000 ) ) ;
#9 = CARTESIAN_POINT ( 'NONE',  ( 0.000000000000000000, 0.000000000000000000, 3.000000000000000000 ) ) ;
#10 = ORIENTED_EDGE ( 'NONE', *, *, #228, .T. ) ;
#11 = FACE_OUTER_BOUND ( 'NONE', #141, .T. ) ;
#12 = AXIS2_PLACEMENT_3D ( 'NONE', #328, #335, #78 ) ;
#13 = DIRECTION ( 'NONE',  ( 1.000000000000000000, 0.000000000000000000, 0.000000000000000000 ) ) ;
#14 = ORIENTED_EDGE ( 'NONE', *, *, #86, .F. ) ;
#15 = ADVANCED_FACE ( 'NONE', ( #147 ), #268, .F. ) ;
#16 = CARTESIAN_POINT ( 'NONE',  ( 0.000000000000000000, 0.000000000000000000, 78.00000000000000000 ) ) ;
#17 = DIRECTION ( 'NONE',  ( 1.000000000000000000, 0.000000000000000000, 0.000000000000000000 ) ) ;
#18 = CLOSED_SHELL ( 'NONE', ( #296, #303, #62, #236, #365, #348, #96, #216, #115, #15, #124 ) ) ;
#19 = AXIS2_PLACEMENT_3D ( 'NONE', #143, #36, #358 ) ;
#20 = CARTESIAN_POINT ( 'NONE',  ( 4.000000000000000000, 4.898587196589412829E-16, 0.000000000000000000 ) ) ;
#21 = EDGE_LOOP ( 'NONE', ( #277, #112 ) ) ;
#22 = DIRECTION ( 'NONE',  ( 1.000000000000000000, 0.000000000000000000, 0.000000000000000000 ) ) ;
#23 = PERSON_AND_ORGANIZATION ( #311, #288 ) ;
#24 = ORIENTED_EDGE ( 'NONE', *, *, #228, .F. ) ;
#25 = MANIFOLD_SOLID_BREP ( 'Odebrat vysunutím3', #18 ) ;
#26 = DIRECTION ( 'NONE',  ( 1.000000000000000000, 0.000000000000000000, 0.000000000000000000 ) ) ;
#27 = CIRCLE ( 'NONE', #224, 1.100000000000000089 ) ;
#28 = VERTEX_POINT ( 'NONE', #58 ) ;
#29 = EDGE_CURVE ( 'NONE', #160, #44, #298, .T. ) ;
#30 = PERSON_AND_ORGANIZATION ( #311, #288 ) ;
#31 = ORIENTED_EDGE ( 'NONE', *, *, #144, .T. ) ;
#32 = CARTESIAN_POINT ( 'NONE',  ( 0.000000000000000000, 0.000000000000000000, 3.299999999999997158 ) ) ;
#33 = COORDINATED_UNIVERSAL_TIME_OFFSET ( 1, 0, .AHEAD. ) ;
#34 = AXIS2_PLACEMENT_3D ( 'NONE', #9, #213, #42 ) ;
#35 = ORIENTED_EDGE ( 'NONE', *, *, #168, .T. ) ;
#36 = DIRECTION ( 'NONE',  ( 0.000000000000000000, 0.000000000000000000, 1.000000000000000000 ) ) ;
#37 = DIRECTION ( 'NONE',  ( -1.000000000000000000, 0.000000000000000000, 0.000000000000000000 ) ) ;
#38 = PERSON_AND_ORGANIZATION ( #311, #288 ) ;
#39 = AXIS2_PLACEMENT_3D ( 'NONE', #313, #337, #371 ) ;
#40 = EDGE_CURVE ( 'NONE', #363, #338, #346, .T. ) ;
#41 = LINE ( 'NONE', #185, #341 ) ;
#42 = DIRECTION ( 'NONE',  ( 1.000000000000000000, 0.000000000000000000, 0.000000000000000000 ) ) ;
#43 = LINE ( 'NONE', #217, #176 ) ;
#44 = VERTEX_POINT ( 'NONE', #95 ) ;
#45 = EDGE_CURVE ( 'NONE', #319, #165, #7, .T. ) ;
#46 = CIRCLE ( 'NONE', #34, 2.299999999999999822 ) ;
#47 = APPLICATION_CONTEXT ( 'configuration controlled 3d designs of mechanical parts and assemblies' ) ;
#48 = DIRECTION ( 'NONE',  ( 0.000000000000000000, 0.000000000000000000, 1.000000000000000000 ) ) ;
#49 = EDGE_LOOP ( 'NONE', ( #14, #174 ) ) ;
#50 = CARTESIAN_POINT ( 'NONE',  ( -1.100000000000000089, 0.000000000000000000, 78.00000000000000000 ) ) ;
#51 = VERTEX_POINT ( 'NONE', #351 ) ;
#52 = ORIENTED_EDGE ( 'NONE', *, *, #75, .F. ) ;
#53 = EDGE_CURVE ( 'NONE', #44, #107, #367, .T. ) ;
#54 = FACE_OUTER_BOUND ( 'NONE', #156, .T. ) ;
#55 = CIRCLE ( 'NONE', #151, 1.100000000000000089 ) ;
#56 = PERSON_AND_ORGANIZATION_ROLE ( 'design_supplier' ) ;
#57 = CARTESIAN_POINT ( 'NONE',  ( 0.000000000000000000, 0.000000000000000000, 3.000000000000000000 ) ) ;
#58 = CARTESIAN_POINT ( 'NONE',  ( 1.100000000000000089, 1.347111479062088503E-16, 0.000000000000000000 ) ) ;
#59 = PERSON_AND_ORGANIZATION_ROLE ( 'classification_officer' ) ;
#60 = AXIS2_PLACEMENT_3D ( 'NONE', #273, #245, #247 ) ;
#61 = FACE_OUTER_BOUND ( 'NONE', #251, .T. ) ;
#62 = ADVANCED_FACE ( 'NONE', ( #262 ), #5, .T. ) ;
#63 = CC_DESIGN_SECURITY_CLASSIFICATION ( #368, ( #187 ) ) ;
#64 = FACE_BOUND ( 'NONE', #170, .T. ) ;
#65 = DATE_TIME_ROLE ( 'classification_date' ) ;
#66 = DIRECTION ( 'NONE',  ( 0.000000000000000000, 0.000000000000000000, -1.000000000000000000 ) ) ;
#67 = CC_DESIGN_PERSON_AND_ORGANIZATION_ASSIGNMENT ( #113, #59, ( #368 ) ) ;
#68 = DIRECTION ( 'NONE',  ( 1.000000000000000000, 0.000000000000000000, 0.000000000000000000 ) ) ;
#69 = AXIS2_PLACEMENT_3D ( 'NONE', #98, #121, #278 ) ;
#70 = CARTESIAN_POINT ( 'NONE',  ( -2.000000000000000000, 0.000000000000000000, 3.299999999999997158 ) ) ;
#71 = ORIENTED_EDGE ( 'NONE', *, *, #326, .F. ) ;
#72 = DIRECTION ( 'NONE',  ( 0.000000000000000000, 0.000000000000000000, 1.000000000000000000 ) ) ;
#73 = ORIENTED_EDGE ( 'NONE', *, *, #130, .F. ) ;
#74 = CARTESIAN_POINT ( 'NONE',  ( 2.000000000000000000, 2.449293598294706414E-16, 78.00000000000000000 ) ) ;
#75 = EDGE_CURVE ( 'NONE', #51, #28, #266, .T. ) ;
#76 = UNCERTAINTY_MEASURE_WITH_UNIT (LENGTH_MEASURE( 1.000000000000000082E-05 ), #166, 'distance_accuracy_value', 'NONE');
#77 = CIRCLE ( 'NONE', #93, 1.100000000000000089 ) ;
#78 = DIRECTION ( 'NONE',  ( -1.000000000000000000, 0.000000000000000000, 0.000000000000000000 ) ) ;
#79 = FACE_OUTER_BOUND ( 'NONE', #314, .T. ) ;
#80 = EDGE_CURVE ( 'NONE', #289, #160, #347, .T. ) ;
#81 = DIRECTION ( 'NONE',  ( -1.000000000000000000, 0.000000000000000000, 0.000000000000000000 ) ) ;
#82 = DATE_TIME_ROLE ( 'creation_date' ) ;
#83 = ORIENTED_EDGE ( 'NONE', *, *, #161, .T. ) ;
#84 = DIRECTION ( 'NONE',  ( -0.000000000000000000, -0.000000000000000000, -1.000000000000000000 ) ) ;
#85 = ORIENTED_EDGE ( 'NONE', *, *, #53, .T. ) ;
#86 = EDGE_CURVE ( 'NONE', #88, #343, #249, .T. ) ;
#87 = LINE ( 'NONE', #133, #282 ) ;
#88 = VERTEX_POINT ( 'NONE', #353 ) ;
#89 = SHAPE_DEFINITION_REPRESENTATION ( #349, #211 ) ;
#90 = AXIS2_PLACEMENT_3D ( 'NONE', #377, #134, #81 ) ;
#91 = DIRECTION ( 'NONE',  ( 1.000000000000000000, 0.000000000000000000, 0.000000000000000000 ) ) ;
#92 = FACE_OUTER_BOUND ( 'NONE', #49, .T. ) ;
#93 = AXIS2_PLACEMENT_3D ( 'NONE', #162, #127, #17 ) ;
#94 = CYLINDRICAL_SURFACE ( 'NONE', #219, 1.100000000000000089 ) ;
#95 = CARTESIAN_POINT ( 'NONE',  ( 2.299999999999999822, 0.000000000000000000, 2.999999999999998668 ) ) ;
#96 = ADVANCED_FACE ( 'NONE', ( #208, #92 ), #204, .F. ) ;
#97 = DIRECTION ( 'NONE',  ( 1.000000000000000000, 0.000000000000000000, 0.000000000000000000 ) ) ;
#98 = CARTESIAN_POINT ( 'NONE',  ( 0.000000000000000000, 0.000000000000000000, 3.000000000000000000 ) ) ;
#99 = FACE_OUTER_BOUND ( 'NONE', #340, .T. ) ;
#100 = CC_DESIGN_PERSON_AND_ORGANIZATION_ASSIGNMENT ( #294, #318, ( #187 ) ) ;
#101 = DIRECTION ( 'NONE',  ( 0.000000000000000000, 0.000000000000000000, -1.000000000000000000 ) ) ;
#102 = ORIENTED_EDGE ( 'NONE', *, *, #200, .T. ) ;
#103 = DIRECTION ( 'NONE',  ( -0.000000000000000000, -0.000000000000000000, -1.000000000000000000 ) ) ;
#104 = DIRECTION ( 'NONE',  ( 1.000000000000000000, 0.000000000000000000, 0.000000000000000000 ) ) ;
#105 =( NAMED_UNIT ( * ) SI_UNIT ( $, .STERADIAN. ) SOLID_ANGLE_UNIT ( ) );
#106 = ORIENTED_EDGE ( 'NONE', *, *, #4, .T. ) ;
#107 = VERTEX_POINT ( 'NONE', #290 ) ;
#108 = AXIS2_PLACEMENT_3D ( 'NONE', #330, #72, #68 ) ;
#109 = APPROVAL_STATUS ( 'not_yet_approved' ) ;
#110 = ORIENTED_EDGE ( 'NONE', *, *, #209, .F. ) ;
#111 = FACE_BOUND ( 'NONE', #366, .T. ) ;
#112 = ORIENTED_EDGE ( 'NONE', *, *, #161, .F. ) ;
#113 = PERSON_AND_ORGANIZATION ( #311, #288 ) ;
#114 = CARTESIAN_POINT ( 'NONE',  ( 0.000000000000000000, 0.000000000000000000, 0.000000000000000000 ) ) ;
#115 = ADVANCED_FACE ( 'NONE', ( #64, #61 ), #325, .T. ) ;
#116 = DIRECTION ( 'NONE',  ( -0.000000000000000000, -0.000000000000000000, -1.000000000000000000 ) ) ;
#117 = DIRECTION ( 'NONE',  ( 1.000000000000000000, 0.000000000000000000, 0.000000000000000000 ) ) ;
#118 = APPROVAL ( #175, 'NEURÈENÝ' ) ;
#119 = LOCAL_TIME ( 11, 19, 31.00000000000000000, #258 ) ;
#120 = DIRECTION ( 'NONE',  ( -0.000000000000000000, -0.000000000000000000, -1.000000000000000000 ) ) ;
#121 = DIRECTION ( 'NONE',  ( 0.000000000000000000, 0.000000000000000000, 1.000000000000000000 ) ) ;
#122 = DIRECTION ( 'NONE',  ( -0.000000000000000000, -0.000000000000000000, -1.000000000000000000 ) ) ;
#123 = VECTOR ( 'NONE', #103, 1000.000000000000000 ) ;
#124 = ADVANCED_FACE ( 'NONE', ( #292 ), #94, .F. ) ;
#125 = DIRECTION ( 'NONE',  ( 1.000000000000000000, 0.000000000000000000, 0.000000000000000000 ) ) ;
#126 = ORIENTED_EDGE ( 'NONE', *, *, #144, .F. ) ;
#127 = DIRECTION ( 'NONE',  ( -0.000000000000000000, -0.000000000000000000, -1.000000000000000000 ) ) ;
#128 = EDGE_LOOP ( 'NONE', ( #285, #10, #106, #73 ) ) ;
#129 = DIRECTION ( 'NONE',  ( -0.000000000000000000, -0.000000000000000000, -1.000000000000000000 ) ) ;
#130 = EDGE_CURVE ( 'NONE', #338, #88, #41, .T. ) ;
#131 = AXIS2_PLACEMENT_3D ( 'NONE', #180, #321, #66 ) ;
#132 = AXIS2_PLACEMENT_3D ( 'NONE', #146, #120, #265 ) ;
#133 = CARTESIAN_POINT ( 'NONE',  ( -2.000000000000000000, 0.000000000000000000, 78.00000000000000000 ) ) ;
#134 = DIRECTION ( 'NONE',  ( -0.000000000000000000, -0.000000000000000000, -1.000000000000000000 ) ) ;
#135 = VERTEX_POINT ( 'NONE', #153 ) ;
#136 = APPROVAL_ROLE ( '' ) ;
#137 = ORIENTED_EDGE ( 'NONE', *, *, #336, .T. ) ;
#138 = LOCAL_TIME ( 11, 19, 31.00000000000000000, #254 ) ;
#139 = PRODUCT_DEFINITION ( 'NEZNÁMÝ', '', #187, #306 ) ;
#140 = PERSON_AND_ORGANIZATION_ROLE ( 'design_owner' ) ;
#141 = EDGE_LOOP ( 'NONE', ( #370, #203, #83, #71 ) ) ;
#142 = APPLICATION_PROTOCOL_DEFINITION ( 'international standard', 'config_control_design', 1994, #47 ) ;
#143 = CARTESIAN_POINT ( 'NONE',  ( 0.000000000000000000, 0.000000000000000000, 0.000000000000000000 ) ) ;
#144 = EDGE_CURVE ( 'NONE', #107, #44, #46, .T. ) ;
#145 = AXIS2_PLACEMENT_3D ( 'NONE', #271, #116, #293 ) ;
#146 = CARTESIAN_POINT ( 'NONE',  ( 0.000000000000000000, 0.000000000000000000, 78.00000000000000000 ) ) ;
#147 = FACE_OUTER_BOUND ( 'NONE', #274, .T. ) ;
#148 = EDGE_CURVE ( 'NONE', #338, #363, #269, .T. ) ;
#149 = DIRECTION ( 'NONE',  ( 0.000000000000000000, 0.000000000000000000, 1.000000000000000000 ) ) ;
#150 = DATE_AND_TIME ( #350, #264 ) ;
#151 = AXIS2_PLACEMENT_3D ( 'NONE', #186, #280, #369 ) ;
#152 = CARTESIAN_POINT ( 'NONE',  ( 0.000000000000000000, 0.000000000000000000, 78.00000000000000000 ) ) ;
#153 = CARTESIAN_POINT ( 'NONE',  ( -1.100000000000000089, 0.000000000000000000, 0.000000000000000000 ) ) ;
#154 = DIRECTION ( 'NONE',  ( -0.000000000000000000, -0.000000000000000000, -1.000000000000000000 ) ) ;
#155 = CC_DESIGN_DATE_AND_TIME_ASSIGNMENT ( #150, #65, ( #368 ) ) ;
#156 = EDGE_LOOP ( 'NONE', ( #322, #378 ) ) ;
#157 = CARTESIAN_POINT ( 'NONE',  ( 2.000000000000000000, 2.449293598294706414E-16, 3.299999999999997158 ) ) ;
#158 = CIRCLE ( 'NONE', #256, 2.000000000000000000 ) ;
#159 = CYLINDRICAL_SURFACE ( 'NONE', #182, 4.000000000000000000 ) ;
#160 = VERTEX_POINT ( 'NONE', #157 ) ;
#161 = EDGE_CURVE ( 'NONE', #28, #135, #77, .T. ) ;
#162 = CARTESIAN_POINT ( 'NONE',  ( 0.000000000000000000, 0.000000000000000000, 0.000000000000000000 ) ) ;
#163 = AXIS2_PLACEMENT_3D ( 'NONE', #16, #154, #359 ) ;
#164 = PERSON_AND_ORGANIZATION ( #311, #288 ) ;
#165 = VERTEX_POINT ( 'NONE', #74 ) ;
#166 =( LENGTH_UNIT ( ) NAMED_UNIT ( * ) SI_UNIT ( .MILLI., .METRE. ) );
#167 = ORIENTED_EDGE ( 'NONE', *, *, #209, .T. ) ;
#168 = EDGE_CURVE ( 'NONE', #135, #28, #27, .T. ) ;
#169 =( NAMED_UNIT ( * ) PLANE_ANGLE_UNIT ( ) SI_UNIT ( $, .RADIAN. ) );
#170 = EDGE_LOOP ( 'NONE', ( #229, #110 ) ) ;
#171 = AXIS2_PLACEMENT_3D ( 'NONE', #234, #177, #238 ) ;
#172 = DIRECTION ( 'NONE',  ( 0.000000000000000000, 0.000000000000000000, 1.000000000000000000 ) ) ;
#173 = ORIENTED_EDGE ( 'NONE', *, *, #200, .F. ) ;
#174 = ORIENTED_EDGE ( 'NONE', *, *, #4, .F. ) ;
#175 = APPROVAL_STATUS ( 'not_yet_approved' ) ;
#176 = VECTOR ( 'NONE', #129, 1000.000000000000000 ) ;
#177 = DIRECTION ( 'NONE',  ( 0.000000000000000000, 0.000000000000000000, 1.000000000000000000 ) ) ;
#178 = CARTESIAN_POINT ( 'NONE',  ( 0.000000000000000000, 0.000000000000000000, 78.00000000000000000 ) ) ;
#179 = CALENDAR_DATE ( 2022, 10, 7 ) ;
#180 = CARTESIAN_POINT ( 'NONE',  ( 2.299999999999999822, 0.000000000000000000, 3.299999999999997158 ) ) ;
#181 = AXIS2_PLACEMENT_3D ( 'NONE', #57, #355, #2 ) ;
#182 = AXIS2_PLACEMENT_3D ( 'NONE', #275, #364, #301 ) ;
#183 = CARTESIAN_POINT ( 'NONE',  ( -2.000000000000000000, 0.000000000000000000, 78.00000000000000000 ) ) ;
#184 = CYLINDRICAL_SURFACE ( 'NONE', #163, 2.000000000000000000 ) ;
#185 = CARTESIAN_POINT ( 'NONE',  ( -4.000000000000000000, 0.000000000000000000, 3.000000000000000000 ) ) ;
#186 = CARTESIAN_POINT ( 'NONE',  ( 0.000000000000000000, 0.000000000000000000, 78.00000000000000000 ) ) ;
#187 = PRODUCT_DEFINITION_FORMATION_WITH_SPECIFIED_SOURCE ( 'LIBOVOLNÝ', '', #250, .NOT_KNOWN. ) ;
#188 = CC_DESIGN_PERSON_AND_ORGANIZATION_ASSIGNMENT ( #164, #286, ( #139 ) ) ;
#189 = CARTESIAN_POINT ( 'NONE',  ( 0.000000000000000000, 0.000000000000000000, 78.00000000000000000 ) ) ;
#190 = ORIENTED_EDGE ( 'NONE', *, *, #80, .F. ) ;
#191 = APPLICATION_PROTOCOL_DEFINITION ( 'international standard', 'config_control_design', 1994, #272 ) ;
#192 = CYLINDRICAL_SURFACE ( 'NONE', #90, 4.000000000000000000 ) ;
#193 = ORIENTED_EDGE ( 'NONE', *, *, #148, .F. ) ;
#194 = AXIS2_PLACEMENT_3D ( 'NONE', #240, #8, #91 ) ;
#195 = CC_DESIGN_APPROVAL ( #118, ( #368 ) ) ;
#196 = PLANE ( 'NONE',  #39 ) ;
#197 = EDGE_CURVE ( 'NONE', #165, #160, #332, .T. ) ;
#198 = ORIENTED_EDGE ( 'NONE', *, *, #45, .T. ) ;
#199 = ORIENTED_EDGE ( 'NONE', *, *, #29, .F. ) ;
#200 = EDGE_CURVE ( 'NONE', #289, #107, #232, .T. ) ;
#201 = VECTOR ( 'NONE', #101, 1000.000000000000000 ) ;
#202 = APPROVAL_PERSON_ORGANIZATION ( #237, #118, #352 ) ;
#203 = ORIENTED_EDGE ( 'NONE', *, *, #75, .T. ) ;
#204 = PLANE ( 'NONE',  #19 ) ;
#205 = DATE_AND_TIME ( #179, #225 ) ;
#206 = EDGE_LOOP ( 'NONE', ( #52, #167, #227, #35 ) ) ;
#207 = AXIS2_PLACEMENT_3D ( 'NONE', #189, #214, #13 ) ;
#208 = FACE_BOUND ( 'NONE', #21, .T. ) ;
#209 = EDGE_CURVE ( 'NONE', #51, #261, #55, .T. ) ;
#210 = CARTESIAN_POINT ( 'NONE',  ( 0.000000000000000000, 0.000000000000000000, 0.000000000000000000 ) ) ;
#211 = ADVANCED_BREP_SHAPE_REPRESENTATION ( '3a58', ( #25, #380 ), #304 ) ;
#212 = APPROVAL_PERSON_ORGANIZATION ( #23, #354, #136 ) ;
#213 = DIRECTION ( 'NONE',  ( -0.000000000000000000, -0.000000000000000000, -1.000000000000000000 ) ) ;
#214 = DIRECTION ( 'NONE',  ( 0.000000000000000000, 0.000000000000000000, 1.000000000000000000 ) ) ;
#215 = CARTESIAN_POINT ( 'NONE',  ( 0.000000000000000000, 0.000000000000000000, 78.00000000000000000 ) ) ;
#216 = ADVANCED_FACE ( 'NONE', ( #302 ), #184, .T. ) ;
#217 = CARTESIAN_POINT ( 'NONE',  ( 4.000000000000000000, 4.898587196589412829E-16, 3.000000000000000000 ) ) ;
#218 = AXIS2_PLACEMENT_3D ( 'NONE', #210, #149, #267 ) ;
#219 = AXIS2_PLACEMENT_3D ( 'NONE', #178, #295, #37 ) ;
#220 = CARTESIAN_POINT ( 'NONE',  ( -4.000000000000000000, 0.000000000000000000, 3.000000000000000000 ) ) ;
#221 = DATE_AND_TIME ( #281, #138 ) ;
#222 = ORIENTED_EDGE ( 'NONE', *, *, #29, .T. ) ;
#223 = DATE_AND_TIME ( #252, #356 ) ;
#224 = AXIS2_PLACEMENT_3D ( 'NONE', #242, #244, #104 ) ;
#225 = LOCAL_TIME ( 11, 19, 31.00000000000000000, #33 ) ;
#226 = APPROVAL_ROLE ( '' ) ;
#227 = ORIENTED_EDGE ( 'NONE', *, *, #326, .T. ) ;
#228 = EDGE_CURVE ( 'NONE', #363, #343, #43, .T. ) ;
#229 = ORIENTED_EDGE ( 'NONE', *, *, #316, .F. ) ;
#230 = AXIS2_PLACEMENT_3D ( 'NONE', #32, #327, #297 ) ;
#231 = AXIS2_PLACEMENT_3D ( 'NONE', #307, #305, #125 ) ;
#232 = CIRCLE ( 'NONE', #60, 0.2999999999999999334 ) ;
#233 = APPROVAL_DATE_TIME ( #205, #118 ) ;
#234 = CARTESIAN_POINT ( 'NONE',  ( 0.000000000000000000, 0.000000000000000000, 78.00000000000000000 ) ) ;
#235 = DIRECTION ( 'NONE',  ( 0.000000000000000000, 0.000000000000000000, 1.000000000000000000 ) ) ;
#236 = ADVANCED_FACE ( 'NONE', ( #329 ), #159, .T. ) ;
#237 = PERSON_AND_ORGANIZATION ( #311, #288 ) ;
#238 = DIRECTION ( 'NONE',  ( 1.000000000000000000, 0.000000000000000000, -0.000000000000000000 ) ) ;
#239 = APPROVAL_PERSON_ORGANIZATION ( #374, #379, #226 ) ;
#240 = CARTESIAN_POINT ( 'NONE',  ( 0.000000000000000000, 0.000000000000000000, 3.299999999999997158 ) ) ;
#241 = CC_DESIGN_PERSON_AND_ORGANIZATION_ASSIGNMENT ( #38, #56, ( #187 ) ) ;
#242 = CARTESIAN_POINT ( 'NONE',  ( 0.000000000000000000, 0.000000000000000000, 0.000000000000000000 ) ) ;
#243 = ORIENTED_EDGE ( 'NONE', *, *, #53, .F. ) ;
#244 = DIRECTION ( 'NONE',  ( -0.000000000000000000, -0.000000000000000000, -1.000000000000000000 ) ) ;
#245 = DIRECTION ( 'NONE',  ( 1.224646799147353207E-16, 1.000000000000000000, -0.000000000000000000 ) ) ;
#246 = ORIENTED_EDGE ( 'NONE', *, *, #45, .F. ) ;
#247 = DIRECTION ( 'NONE',  ( -1.000000000000000000, 1.224646799147353207E-16, 0.000000000000000000 ) ) ;
#248 = CARTESIAN_POINT ( 'NONE',  ( -1.100000000000000089, 0.000000000000000000, 78.00000000000000000 ) ) ;
#249 = CIRCLE ( 'NONE', #360, 4.000000000000000000 ) ;
#250 = PRODUCT ( '3a58', '3a58', '', ( #317 ) ) ;
#251 = EDGE_LOOP ( 'NONE', ( #198, #137 ) ) ;
#252 = CALENDAR_DATE ( 2022, 10, 7 ) ;
#253 = ORIENTED_EDGE ( 'NONE', *, *, #320, .F. ) ;
#254 = COORDINATED_UNIVERSAL_TIME_OFFSET ( 1, 0, .AHEAD. ) ;
#255 = ORIENTED_EDGE ( 'NONE', *, *, #130, .T. ) ;
#256 = AXIS2_PLACEMENT_3D ( 'NONE', #215, #48, #22 ) ;
#257 = CC_DESIGN_PERSON_AND_ORGANIZATION_ASSIGNMENT ( #30, #140, ( #250 ) ) ;
#258 = COORDINATED_UNIVERSAL_TIME_OFFSET ( 1, 0, .AHEAD. ) ;
#259 = EDGE_LOOP ( 'NONE', ( #283, #333, #331, #308 ) ) ;
#260 = APPROVAL_STATUS ( 'not_yet_approved' ) ;
#261 = VERTEX_POINT ( 'NONE', #248 ) ;
#262 = FACE_OUTER_BOUND ( 'NONE', #259, .T. ) ;
#263 = CC_DESIGN_APPROVAL ( #354, ( #139 ) ) ;
#264 = LOCAL_TIME ( 11, 19, 31.00000000000000000, #291 ) ;
#265 = DIRECTION ( 'NONE',  ( -1.000000000000000000, 0.000000000000000000, 0.000000000000000000 ) ) ;
#266 = LINE ( 'NONE', #3, #312 ) ;
#267 = DIRECTION ( 'NONE',  ( 1.000000000000000000, 0.000000000000000000, 0.000000000000000000 ) ) ;
#268 = TOROIDAL_SURFACE ( 'NONE', #230, 2.299999999999999822, 0.2999999999999999889 ) ;
#269 = CIRCLE ( 'NONE', #69, 4.000000000000000000 ) ;
#270 = CC_DESIGN_DATE_AND_TIME_ASSIGNMENT ( #223, #82, ( #139 ) ) ;
#271 = CARTESIAN_POINT ( 'NONE',  ( 0.000000000000000000, 0.000000000000000000, 3.000000000000000000 ) ) ;
#272 = APPLICATION_CONTEXT ( 'configuration controlled 3d designs of mechanical parts and assemblies' ) ;
#273 = CARTESIAN_POINT ( 'NONE',  ( -2.299999999999999822, 2.816687638038912056E-16, 3.299999999999997158 ) ) ;
#274 = EDGE_LOOP ( 'NONE', ( #173, #253, #222, #126 ) ) ;
#275 = CARTESIAN_POINT ( 'NONE',  ( 0.000000000000000000, 0.000000000000000000, 3.000000000000000000 ) ) ;
#276 = TOROIDAL_SURFACE ( 'NONE', #108, 2.299999999999999822, 0.2999999999999999889 ) ;
#277 = ORIENTED_EDGE ( 'NONE', *, *, #168, .F. ) ;
#278 = DIRECTION ( 'NONE',  ( 1.000000000000000000, 0.000000000000000000, 0.000000000000000000 ) ) ;
#279 = ORIENTED_EDGE ( 'NONE', *, *, #80, .T. ) ;
#280 = DIRECTION ( 'NONE',  ( 0.000000000000000000, 0.000000000000000000, 1.000000000000000000 ) ) ;
#281 = CALENDAR_DATE ( 2022, 10, 7 ) ;
#282 = VECTOR ( 'NONE', #84, 1000.000000000000000 ) ;
#283 = ORIENTED_EDGE ( 'NONE', *, *, #336, .F. ) ;
#284 = COORDINATED_UNIVERSAL_TIME_OFFSET ( 1, 0, .AHEAD. ) ;
#285 = ORIENTED_EDGE ( 'NONE', *, *, #40, .F. ) ;
#286 = PERSON_AND_ORGANIZATION_ROLE ( 'creator' ) ;
#287 = ORIENTED_EDGE ( 'NONE', *, *, #86, .T. ) ;
#288 = ORGANIZATION ( 'NEURÈENÝ', 'NEURÈENÝ', '' ) ;
#289 = VERTEX_POINT ( 'NONE', #70 ) ;
#290 = CARTESIAN_POINT ( 'NONE',  ( -2.299999999999999822, 2.816687638038912056E-16, 2.999999999999998668 ) ) ;
#291 = COORDINATED_UNIVERSAL_TIME_OFFSET ( 1, 0, .AHEAD. ) ;
#292 = FACE_OUTER_BOUND ( 'NONE', #206, .T. ) ;
#293 = DIRECTION ( 'NONE',  ( 1.000000000000000000, 0.000000000000000000, 0.000000000000000000 ) ) ;
#294 = PERSON_AND_ORGANIZATION ( #311, #288 ) ;
#295 = DIRECTION ( 'NONE',  ( 0.000000000000000000, 0.000000000000000000, -1.000000000000000000 ) ) ;
#296 = ADVANCED_FACE ( 'NONE', ( #11 ), #361, .F. ) ;
#297 = DIRECTION ( 'NONE',  ( 1.000000000000000000, 0.000000000000000000, 0.000000000000000000 ) ) ;
#298 = CIRCLE ( 'NONE', #131, 0.2999999999999999334 ) ;
#299 = CIRCLE ( 'NONE', #207, 1.100000000000000089 ) ;
#300 = CARTESIAN_POINT ( 'NONE',  ( 2.000000000000000000, 2.449293598294706414E-16, 78.00000000000000000 ) ) ;
#301 = DIRECTION ( 'NONE',  ( -1.000000000000000000, 0.000000000000000000, 0.000000000000000000 ) ) ;
#302 = FACE_OUTER_BOUND ( 'NONE', #310, .T. ) ;
#303 = ADVANCED_FACE ( 'NONE', ( #99 ), #276, .F. ) ;
#304 =( GEOMETRIC_REPRESENTATION_CONTEXT ( 3 ) GLOBAL_UNCERTAINTY_ASSIGNED_CONTEXT ( ( #76 ) ) GLOBAL_UNIT_ASSIGNED_CONTEXT ( ( #166, #169, #105 ) ) REPRESENTATION_CONTEXT ( 'NONE', 'WORKASPACE' ) );
#305 = DIRECTION ( 'NONE',  ( 0.000000000000000000, 0.000000000000000000, 1.000000000000000000 ) ) ;
#306 = DESIGN_CONTEXT ( 'detailed design', #47, 'design' ) ;
#307 = CARTESIAN_POINT ( 'NONE',  ( 0.000000000000000000, 0.000000000000000000, 3.299999999999997158 ) ) ;
#308 = ORIENTED_EDGE ( 'NONE', *, *, #373, .F. ) ;
#309 = PRODUCT_RELATED_PRODUCT_CATEGORY ( 'detail', '', ( #250 ) ) ;
#310 = EDGE_LOOP ( 'NONE', ( #372, #246, #315, #279 ) ) ;
#311 = PERSON ( 'NEURÈENÝ', 'NEURÈENÝ', 'NEURÈENÝ', ('NEURÈENÝ'), ('NEURÈENÝ'), ('NEURÈENÝ') ) ;
#312 = VECTOR ( 'NONE', #381, 1000.000000000000000 ) ;
#313 = CARTESIAN_POINT ( 'NONE',  ( 0.000000000000000000, 0.000000000000000000, 3.000000000000000000 ) ) ;
#314 = EDGE_LOOP ( 'NONE', ( #24, #193, #255, #287 ) ) ;
#315 = ORIENTED_EDGE ( 'NONE', *, *, #373, .T. ) ;
#316 = EDGE_CURVE ( 'NONE', #261, #51, #299, .T. ) ;
#317 = MECHANICAL_CONTEXT ( 'NONE', #272, 'mechanical' ) ;
#318 = PERSON_AND_ORGANIZATION_ROLE ( 'creator' ) ;
#319 = VERTEX_POINT ( 'NONE', #183 ) ;
#320 = EDGE_CURVE ( 'NONE', #160, #289, #323, .T. ) ;
#321 = DIRECTION ( 'NONE',  ( 0.000000000000000000, -1.000000000000000000, 0.000000000000000000 ) ) ;
#322 = ORIENTED_EDGE ( 'NONE', *, *, #148, .T. ) ;
#323 = CIRCLE ( 'NONE', #231, 2.000000000000000000 ) ;
#324 = SECURITY_CLASSIFICATION_LEVEL ( 'unclassified' ) ;
#325 = PLANE ( 'NONE',  #171 ) ;
#326 = EDGE_CURVE ( 'NONE', #261, #135, #362, .T. ) ;
#327 = DIRECTION ( 'NONE',  ( 0.000000000000000000, 0.000000000000000000, 1.000000000000000000 ) ) ;
#328 = CARTESIAN_POINT ( 'NONE',  ( 0.000000000000000000, 0.000000000000000000, 78.00000000000000000 ) ) ;
#329 = FACE_OUTER_BOUND ( 'NONE', #128, .T. ) ;
#330 = CARTESIAN_POINT ( 'NONE',  ( 0.000000000000000000, 0.000000000000000000, 3.299999999999997158 ) ) ;
#331 = ORIENTED_EDGE ( 'NONE', *, *, #320, .T. ) ;
#332 = LINE ( 'NONE', #300, #123 ) ;
#333 = ORIENTED_EDGE ( 'NONE', *, *, #197, .T. ) ;
#334 = CC_DESIGN_APPROVAL ( #379, ( #187 ) ) ;
#335 = DIRECTION ( 'NONE',  ( 0.000000000000000000, 0.000000000000000000, -1.000000000000000000 ) ) ;
#336 = EDGE_CURVE ( 'NONE', #165, #319, #158, .T. ) ;
#337 = DIRECTION ( 'NONE',  ( 0.000000000000000000, 0.000000000000000000, 1.000000000000000000 ) ) ;
#338 = VERTEX_POINT ( 'NONE', #220 ) ;
#339 = APPROVAL_DATE_TIME ( #221, #354 ) ;
#340 = EDGE_LOOP ( 'NONE', ( #190, #102, #243, #199 ) ) ;
#341 = VECTOR ( 'NONE', #122, 1000.000000000000000 ) ;
#342 = CARTESIAN_POINT ( 'NONE',  ( 0.000000000000000000, 0.000000000000000000, 0.000000000000000000 ) ) ;
#343 = VERTEX_POINT ( 'NONE', #20 ) ;
#344 = CARTESIAN_POINT ( 'NONE',  ( 4.000000000000000000, 4.898587196589412829E-16, 3.000000000000000000 ) ) ;
#345 = APPROVAL_DATE_TIME ( #1, #379 ) ;
#346 = CIRCLE ( 'NONE', #181, 4.000000000000000000 ) ;
#347 = CIRCLE ( 'NONE', #194, 2.000000000000000000 ) ;
#348 = ADVANCED_FACE ( 'NONE', ( #111, #54 ), #196, .T. ) ;
#349 = PRODUCT_DEFINITION_SHAPE ( 'NONE', 'NONE',  #139 ) ;
#350 = CALENDAR_DATE ( 2022, 10, 7 ) ;
#351 = CARTESIAN_POINT ( 'NONE',  ( 1.100000000000000089, 1.347111479062088503E-16, 78.00000000000000000 ) ) ;
#352 = APPROVAL_ROLE ( '' ) ;
#353 = CARTESIAN_POINT ( 'NONE',  ( -4.000000000000000000, 0.000000000000000000, 0.000000000000000000 ) ) ;
#354 = APPROVAL ( #260, 'NEURÈENÝ' ) ;
#355 = DIRECTION ( 'NONE',  ( 0.000000000000000000, 0.000000000000000000, 1.000000000000000000 ) ) ;
#356 = LOCAL_TIME ( 11, 19, 31.00000000000000000, #284 ) ;
#357 = DIRECTION ( 'NONE',  ( 0.000000000000000000, 0.000000000000000000, 1.000000000000000000 ) ) ;
#358 = DIRECTION ( 'NONE',  ( 1.000000000000000000, 0.000000000000000000, -0.000000000000000000 ) ) ;
#359 = DIRECTION ( 'NONE',  ( -1.000000000000000000, 0.000000000000000000, 0.000000000000000000 ) ) ;
#360 = AXIS2_PLACEMENT_3D ( 'NONE', #114, #235, #117 ) ;
#361 = CYLINDRICAL_SURFACE ( 'NONE', #12, 1.100000000000000089 ) ;
#362 = LINE ( 'NONE', #50, #201 ) ;
#363 = VERTEX_POINT ( 'NONE', #344 ) ;
#364 = DIRECTION ( 'NONE',  ( -0.000000000000000000, -0.000000000000000000, -1.000000000000000000 ) ) ;
#365 = ADVANCED_FACE ( 'NONE', ( #79 ), #192, .T. ) ;
#366 = EDGE_LOOP ( 'NONE', ( #85, #31 ) ) ;
#367 = CIRCLE ( 'NONE', #145, 2.299999999999999822 ) ;
#368 = SECURITY_CLASSIFICATION ( '', '', #324 ) ;
#369 = DIRECTION ( 'NONE',  ( 1.000000000000000000, 0.000000000000000000, 0.000000000000000000 ) ) ;
#370 = ORIENTED_EDGE ( 'NONE', *, *, #316, .T. ) ;
#371 = DIRECTION ( 'NONE',  ( 1.000000000000000000, 0.000000000000000000, -0.000000000000000000 ) ) ;
#372 = ORIENTED_EDGE ( 'NONE', *, *, #197, .F. ) ;
#373 = EDGE_CURVE ( 'NONE', #319, #289, #87, .T. ) ;
#374 = PERSON_AND_ORGANIZATION ( #311, #288 ) ;
#375 = AXIS2_PLACEMENT_3D ( 'NONE', #152, #357, #97 ) ;
#376 = CALENDAR_DATE ( 2022, 10, 7 ) ;
#377 = CARTESIAN_POINT ( 'NONE',  ( 0.000000000000000000, 0.000000000000000000, 3.000000000000000000 ) ) ;
#378 = ORIENTED_EDGE ( 'NONE', *, *, #40, .T. ) ;
#379 = APPROVAL ( #109, 'NEURÈENÝ' ) ;
#380 = AXIS2_PLACEMENT_3D ( 'NONE', #342, #172, #26 ) ;
#381 = DIRECTION ( 'NONE',  ( 0.000000000000000000, 0.000000000000000000, -1.000000000000000000 ) ) ;
ENDSEC;
END-ISO-10303-21;
