ISO-10303-21;
HEADER;
FILE_DESCRIPTION (( 'STEP AP203' ),
    '1' );
FILE_NAME ('49b0.STEP',
    '2022-07-10T09:15:26',
    ( '' ),
    ( '' ),
    'SwSTEP 2.0',
    'SolidWorks 2019',
    '' );
FILE_SCHEMA (( 'CONFIG_CONTROL_DESIGN' ));
ENDSEC;

DATA;
#1 = PERSON_AND_ORGANIZATION ( #180, #162 ) ;
#2 = ORIENTED_EDGE ( 'NONE', *, *, #253, .F. ) ;
#3 = CLOSED_SHELL ( 'NONE', ( #25, #116, #183, #301, #172, #262, #284, #381, #82, #7, #256 ) ) ;
#4 = CC_DESIGN_SECURITY_CLASSIFICATION ( #197, ( #347 ) ) ;
#5 = ORIENTED_EDGE ( 'NONE', *, *, #319, .F. ) ;
#6 = VERTEX_POINT ( 'NONE', #102 ) ;
#7 = ADVANCED_FACE ( 'NONE', ( #28 ), #161, .F. ) ;
#8 = DIRECTION ( 'NONE',  ( 0.000000000000000000, 0.000000000000000000, 1.000000000000000000 ) ) ;
#9 = ORIENTED_EDGE ( 'NONE', *, *, #244, .F. ) ;
#10 = AXIS2_PLACEMENT_3D ( 'NONE', #153, #91, #291 ) ;
#11 = APPROVAL_ROLE ( '' ) ;
#12 = VERTEX_POINT ( 'NONE', #300 ) ;
#13 = EDGE_CURVE ( 'NONE', #265, #329, #49, .T. ) ;
#14 = PERSON_AND_ORGANIZATION ( #180, #162 ) ;
#15 = FACE_OUTER_BOUND ( 'NONE', #239, .T. ) ;
#16 = CC_DESIGN_PERSON_AND_ORGANIZATION_ASSIGNMENT ( #328, #302, ( #270 ) ) ;
#17 = DIRECTION ( 'NONE',  ( 1.000000000000000000, 0.000000000000000000, 0.000000000000000000 ) ) ;
#18 = FACE_OUTER_BOUND ( 'NONE', #68, .T. ) ;
#19 = FACE_OUTER_BOUND ( 'NONE', #123, .T. ) ;
#20 = CIRCLE ( 'NONE', #64, 0.2999999999999999334 ) ;
#21 = PRODUCT_RELATED_PRODUCT_CATEGORY ( 'detail', '', ( #120 ) ) ;
#22 = DIRECTION ( 'NONE',  ( 1.000000000000000000, 0.000000000000000000, 0.000000000000000000 ) ) ;
#23 = UNCERTAINTY_MEASURE_WITH_UNIT (LENGTH_MEASURE( 1.000000000000000082E-05 ), #32, 'distance_accuracy_value', 'NONE');
#24 = CARTESIAN_POINT ( 'NONE',  ( 0.000000000000000000, 0.000000000000000000, 5.000000000000000000 ) ) ;
#25 = ADVANCED_FACE ( 'NONE', ( #351 ), #56, .F. ) ;
#26 = CIRCLE ( 'NONE', #202, 3.000000000000000444 ) ;
#27 = ORIENTED_EDGE ( 'NONE', *, *, #99, .T. ) ;
#28 = FACE_OUTER_BOUND ( 'NONE', #122, .T. ) ;
#29 = AXIS2_PLACEMENT_3D ( 'NONE', #181, #354, #186 ) ;
#30 = CC_DESIGN_APPROVAL ( #205, ( #270 ) ) ;
#31 = ORIENTED_EDGE ( 'NONE', *, *, #341, .T. ) ;
#32 =( LENGTH_UNIT ( ) NAMED_UNIT ( * ) SI_UNIT ( .MILLI., .METRE. ) );
#33 = DIRECTION ( 'NONE',  ( 0.000000000000000000, 0.000000000000000000, 1.000000000000000000 ) ) ;
#34 = ORIENTED_EDGE ( 'NONE', *, *, #201, .F. ) ;
#35 = COORDINATED_UNIVERSAL_TIME_OFFSET ( 1, 0, .AHEAD. ) ;
#36 = ORIENTED_EDGE ( 'NONE', *, *, #244, .T. ) ;
#37 = DATE_AND_TIME ( #166, #373 ) ;
#38 = DIRECTION ( 'NONE',  ( 0.000000000000000000, 0.000000000000000000, -1.000000000000000000 ) ) ;
#39 = CIRCLE ( 'NONE', #297, 3.000000000000000444 ) ;
#40 = APPROVAL_STATUS ( 'not_yet_approved' ) ;
#41 = CARTESIAN_POINT ( 'NONE',  ( 1.750000000000000000, 2.143131898507868297E-16, 130.0000000000000000 ) ) ;
#42 = DIRECTION ( 'NONE',  ( 1.000000000000000000, 0.000000000000000000, 0.000000000000000000 ) ) ;
#43 = ORIENTED_EDGE ( 'NONE', *, *, #99, .F. ) ;
#44 = CARTESIAN_POINT ( 'NONE',  ( 0.000000000000000000, 0.000000000000000000, 5.299999999999998934 ) ) ;
#45 = DIRECTION ( 'NONE',  ( -0.000000000000000000, -0.000000000000000000, -1.000000000000000000 ) ) ;
#46 = CARTESIAN_POINT ( 'NONE',  ( 0.000000000000000000, 0.000000000000000000, 130.0000000000000000 ) ) ;
#47 = CC_DESIGN_DATE_AND_TIME_ASSIGNMENT ( #251, #339, ( #270 ) ) ;
#48 = ORIENTED_EDGE ( 'NONE', *, *, #375, .T. ) ;
#49 = CIRCLE ( 'NONE', #342, 3.300000000000000266 ) ;
#50 = CYLINDRICAL_SURFACE ( 'NONE', #352, 6.000000000000000888 ) ;
#51 = DIRECTION ( 'NONE',  ( 0.000000000000000000, 0.000000000000000000, 1.000000000000000000 ) ) ;
#52 = EDGE_CURVE ( 'NONE', #6, #216, #235, .T. ) ;
#53 = CARTESIAN_POINT ( 'NONE',  ( -3.000000000000000444, 0.000000000000000000, 5.299999999999998934 ) ) ;
#54 = DIRECTION ( 'NONE',  ( 0.000000000000000000, 0.000000000000000000, 1.000000000000000000 ) ) ;
#55 = CIRCLE ( 'NONE', #371, 1.750000000000000000 ) ;
#56 = CYLINDRICAL_SURFACE ( 'NONE', #232, 1.750000000000000000 ) ;
#57 =( NAMED_UNIT ( * ) SI_UNIT ( $, .STERADIAN. ) SOLID_ANGLE_UNIT ( ) );
#58 = CARTESIAN_POINT ( 'NONE',  ( 0.000000000000000000, 0.000000000000000000, 130.0000000000000000 ) ) ;
#59 = EDGE_CURVE ( 'NONE', #149, #261, #169, .T. ) ;
#60 = EDGE_LOOP ( 'NONE', ( #220, #355 ) ) ;
#61 = PERSON_AND_ORGANIZATION_ROLE ( 'design_owner' ) ;
#62 = ORIENTED_EDGE ( 'NONE', *, *, #187, .T. ) ;
#63 = AXIS2_PLACEMENT_3D ( 'NONE', #320, #33, #148 ) ;
#64 = AXIS2_PLACEMENT_3D ( 'NONE', #317, #113, #376 ) ;
#65 = ORIENTED_EDGE ( 'NONE', *, *, #130, .F. ) ;
#66 = DIRECTION ( 'NONE',  ( -1.000000000000000000, 0.000000000000000000, 0.000000000000000000 ) ) ;
#67 = EDGE_LOOP ( 'NONE', ( #207, #75 ) ) ;
#68 = EDGE_LOOP ( 'NONE', ( #9, #97, #182, #65 ) ) ;
#69 = CC_DESIGN_PERSON_AND_ORGANIZATION_ASSIGNMENT ( #194, #133, ( #347 ) ) ;
#70 = APPLICATION_CONTEXT ( 'configuration controlled 3d designs of mechanical parts and assemblies' ) ;
#71 = APPLICATION_PROTOCOL_DEFINITION ( 'international standard', 'config_control_design', 1994, #70 ) ;
#72 = CARTESIAN_POINT ( 'NONE',  ( 0.000000000000000000, 0.000000000000000000, 5.000000000000000000 ) ) ;
#73 = CALENDAR_DATE ( 2022, 10, 7 ) ;
#74 = DIRECTION ( 'NONE',  ( 1.000000000000000000, 0.000000000000000000, 0.000000000000000000 ) ) ;
#75 = ORIENTED_EDGE ( 'NONE', *, *, #13, .T. ) ;
#76 = PERSON_AND_ORGANIZATION_ROLE ( 'creator' ) ;
#77 = CARTESIAN_POINT ( 'NONE',  ( 3.000000000000000444, 3.673940397442060361E-16, 130.0000000000000000 ) ) ;
#78 = DIRECTION ( 'NONE',  ( 0.000000000000000000, -1.000000000000000000, 0.000000000000000000 ) ) ;
#79 = CARTESIAN_POINT ( 'NONE',  ( -1.750000000000000000, 0.000000000000000000, 0.000000000000000000 ) ) ;
#80 = AXIS2_PLACEMENT_3D ( 'NONE', #175, #51, #231 ) ;
#81 = DIRECTION ( 'NONE',  ( 0.000000000000000000, 0.000000000000000000, 1.000000000000000000 ) ) ;
#82 = ADVANCED_FACE ( 'NONE', ( #323, #238 ), #267, .T. ) ;
#83 = LINE ( 'NONE', #254, #348 ) ;
#84 = CARTESIAN_POINT ( 'NONE',  ( 0.000000000000000000, 0.000000000000000000, 5.000000000000000000 ) ) ;
#85 = CIRCLE ( 'NONE', #152, 6.000000000000000888 ) ;
#86 = EDGE_CURVE ( 'NONE', #211, #268, #90, .T. ) ;
#87 = DIRECTION ( 'NONE',  ( -0.000000000000000000, -0.000000000000000000, -1.000000000000000000 ) ) ;
#88 = DIRECTION ( 'NONE',  ( 0.000000000000000000, 0.000000000000000000, 1.000000000000000000 ) ) ;
#89 = EDGE_LOOP ( 'NONE', ( #160, #27, #31, #5 ) ) ;
#90 = CIRCLE ( 'NONE', #222, 6.000000000000000888 ) ;
#91 = DIRECTION ( 'NONE',  ( 0.000000000000000000, 0.000000000000000000, 1.000000000000000000 ) ) ;
#92 = ADVANCED_BREP_SHAPE_REPRESENTATION ( '49b0', ( #259, #274 ), #107 ) ;
#93 = APPROVAL_ROLE ( '' ) ;
#94 = ORIENTED_EDGE ( 'NONE', *, *, #223, .F. ) ;
#95 = APPLICATION_PROTOCOL_DEFINITION ( 'international standard', 'config_control_design', 1994, #135 ) ;
#96 = CARTESIAN_POINT ( 'NONE',  ( 0.000000000000000000, 0.000000000000000000, 130.0000000000000000 ) ) ;
#97 = ORIENTED_EDGE ( 'NONE', *, *, #253, .T. ) ;
#98 = LOCAL_TIME ( 11, 15, 26.00000000000000000, #35 ) ;
#99 = EDGE_CURVE ( 'NONE', #176, #121, #225, .T. ) ;
#100 = VERTEX_POINT ( 'NONE', #79 ) ;
#101 = CARTESIAN_POINT ( 'NONE',  ( 6.000000000000000888, 7.347880794884120722E-16, 5.000000000000000000 ) ) ;
#102 = CARTESIAN_POINT ( 'NONE',  ( 6.000000000000000888, 7.347880794884120722E-16, 5.000000000000000000 ) ) ;
#103 = CARTESIAN_POINT ( 'NONE',  ( 0.000000000000000000, 0.000000000000000000, 130.0000000000000000 ) ) ;
#104 = PERSON_AND_ORGANIZATION_ROLE ( 'classification_officer' ) ;
#105 = CARTESIAN_POINT ( 'NONE',  ( 0.000000000000000000, 0.000000000000000000, 130.0000000000000000 ) ) ;
#106 = DIRECTION ( 'NONE',  ( 1.000000000000000000, 0.000000000000000000, 0.000000000000000000 ) ) ;
#107 =( GEOMETRIC_REPRESENTATION_CONTEXT ( 3 ) GLOBAL_UNCERTAINTY_ASSIGNED_CONTEXT ( ( #23 ) ) GLOBAL_UNIT_ASSIGNED_CONTEXT ( ( #32, #264, #57 ) ) REPRESENTATION_CONTEXT ( 'NONE', 'WORKASPACE' ) );
#108 = PLANE ( 'NONE',  #327 ) ;
#109 = CARTESIAN_POINT ( 'NONE',  ( 0.000000000000000000, 0.000000000000000000, 0.000000000000000000 ) ) ;
#110 = CARTESIAN_POINT ( 'NONE',  ( 0.000000000000000000, 0.000000000000000000, 5.000000000000000000 ) ) ;
#111 = CARTESIAN_POINT ( 'NONE',  ( 0.000000000000000000, 0.000000000000000000, 0.000000000000000000 ) ) ;
#112 = APPROVAL ( #164, 'NEURÈENÝ' ) ;
#113 = DIRECTION ( 'NONE',  ( 1.224646799147353207E-16, 1.000000000000000000, -0.000000000000000000 ) ) ;
#114 = EDGE_LOOP ( 'NONE', ( #330, #326 ) ) ;
#115 = ORIENTED_EDGE ( 'NONE', *, *, #375, .F. ) ;
#116 = ADVANCED_FACE ( 'NONE', ( #18 ), #378, .F. ) ;
#117 = MECHANICAL_CONTEXT ( 'NONE', #135, 'mechanical' ) ;
#118 = CIRCLE ( 'NONE', #179, 1.750000000000000000 ) ;
#119 = ORIENTED_EDGE ( 'NONE', *, *, #130, .T. ) ;
#120 = PRODUCT ( '49b0', '49b0', '', ( #117 ) ) ;
#121 = VERTEX_POINT ( 'NONE', #163 ) ;
#122 = EDGE_LOOP ( 'NONE', ( #2, #34, #119, #185 ) ) ;
#123 = EDGE_LOOP ( 'NONE', ( #321, #357, #234, #154 ) ) ;
#124 = ORIENTED_EDGE ( 'NONE', *, *, #315, .F. ) ;
#125 = LINE ( 'NONE', #101, #257 ) ;
#126 = LOCAL_TIME ( 11, 15, 26.00000000000000000, #325 ) ;
#127 = ORIENTED_EDGE ( 'NONE', *, *, #363, .F. ) ;
#128 = COORDINATED_UNIVERSAL_TIME_OFFSET ( 1, 0, .AHEAD. ) ;
#129 = CARTESIAN_POINT ( 'NONE',  ( 1.750000000000000000, 2.143131898507868297E-16, 130.0000000000000000 ) ) ;
#130 = EDGE_CURVE ( 'NONE', #12, #329, #196, .T. ) ;
#131 = DIRECTION ( 'NONE',  ( -0.000000000000000000, -0.000000000000000000, -1.000000000000000000 ) ) ;
#132 = VECTOR ( 'NONE', #344, 1000.000000000000000 ) ;
#133 = PERSON_AND_ORGANIZATION_ROLE ( 'design_supplier' ) ;
#134 = DIRECTION ( 'NONE',  ( 0.000000000000000000, 0.000000000000000000, 1.000000000000000000 ) ) ;
#135 = APPLICATION_CONTEXT ( 'configuration controlled 3d designs of mechanical parts and assemblies' ) ;
#136 = APPROVAL_DATE_TIME ( #370, #112 ) ;
#137 = APPROVAL ( #40, 'NEURÈENÝ' ) ;
#138 = CARTESIAN_POINT ( 'NONE',  ( -1.750000000000000000, 0.000000000000000000, 130.0000000000000000 ) ) ;
#139 = CC_DESIGN_APPROVAL ( #112, ( #197 ) ) ;
#140 = FACE_OUTER_BOUND ( 'NONE', #359, .T. ) ;
#141 = FACE_OUTER_BOUND ( 'NONE', #114, .T. ) ;
#142 = CC_DESIGN_PERSON_AND_ORGANIZATION_ASSIGNMENT ( #331, #61, ( #120 ) ) ;
#143 = AXIS2_PLACEMENT_3D ( 'NONE', #58, #8, #353 ) ;
#144 = LOCAL_TIME ( 11, 15, 26.00000000000000000, #337 ) ;
#145 = CARTESIAN_POINT ( 'NONE',  ( 3.000000000000000444, 3.673940397442060361E-16, 130.0000000000000000 ) ) ;
#146 = EDGE_CURVE ( 'NONE', #261, #12, #221, .T. ) ;
#147 = ORIENTED_EDGE ( 'NONE', *, *, #369, .T. ) ;
#148 = DIRECTION ( 'NONE',  ( 1.000000000000000000, 0.000000000000000000, 0.000000000000000000 ) ) ;
#149 = VERTEX_POINT ( 'NONE', #198 ) ;
#150 = DIRECTION ( 'NONE',  ( -0.000000000000000000, -0.000000000000000000, -1.000000000000000000 ) ) ;
#151 = VECTOR ( 'NONE', #131, 1000.000000000000000 ) ;
#152 = AXIS2_PLACEMENT_3D ( 'NONE', #24, #346, #350 ) ;
#153 = CARTESIAN_POINT ( 'NONE',  ( 0.000000000000000000, 0.000000000000000000, 5.000000000000000000 ) ) ;
#154 = ORIENTED_EDGE ( 'NONE', *, *, #369, .F. ) ;
#155 = EDGE_CURVE ( 'NONE', #329, #265, #189, .T. ) ;
#156 = APPROVAL_STATUS ( 'not_yet_approved' ) ;
#157 = ORIENTED_EDGE ( 'NONE', *, *, #315, .T. ) ;
#158 = ORIENTED_EDGE ( 'NONE', *, *, #59, .T. ) ;
#159 = ORIENTED_EDGE ( 'NONE', *, *, #292, .F. ) ;
#160 = ORIENTED_EDGE ( 'NONE', *, *, #279, .T. ) ;
#161 = TOROIDAL_SURFACE ( 'NONE', #29, 3.300000000000000266, 0.2999999999999999889 ) ;
#162 = ORGANIZATION ( 'NEURÈENÝ', 'NEURÈENÝ', '' ) ;
#163 = CARTESIAN_POINT ( 'NONE',  ( 1.750000000000000000, 2.143131898507868297E-16, 0.000000000000000000 ) ) ;
#164 = APPROVAL_STATUS ( 'not_yet_approved' ) ;
#165 = DIRECTION ( 'NONE',  ( 0.000000000000000000, 0.000000000000000000, 1.000000000000000000 ) ) ;
#166 = CALENDAR_DATE ( 2022, 10, 7 ) ;
#167 = DIRECTION ( 'NONE',  ( 0.000000000000000000, 0.000000000000000000, 1.000000000000000000 ) ) ;
#168 = CARTESIAN_POINT ( 'NONE',  ( 0.000000000000000000, 0.000000000000000000, 0.000000000000000000 ) ) ;
#169 = CIRCLE ( 'NONE', #63, 3.000000000000000444 ) ;
#170 = APPROVAL_PERSON_ORGANIZATION ( #1, #205, #93 ) ;
#171 = DIRECTION ( 'NONE',  ( 0.000000000000000000, 0.000000000000000000, 1.000000000000000000 ) ) ;
#172 = ADVANCED_FACE ( 'NONE', ( #15 ), #312, .T. ) ;
#173 = CARTESIAN_POINT ( 'NONE',  ( -1.750000000000000000, 0.000000000000000000, 130.0000000000000000 ) ) ;
#174 = FACE_BOUND ( 'NONE', #60, .T. ) ;
#175 = CARTESIAN_POINT ( 'NONE',  ( 0.000000000000000000, 0.000000000000000000, 130.0000000000000000 ) ) ;
#176 = VERTEX_POINT ( 'NONE', #129 ) ;
#177 = CYLINDRICAL_SURFACE ( 'NONE', #227, 3.000000000000000444 ) ;
#178 = CALENDAR_DATE ( 2022, 10, 7 ) ;
#179 = AXIS2_PLACEMENT_3D ( 'NONE', #111, #87, #204 ) ;
#180 = PERSON ( 'NEURÈENÝ', 'NEURÈENÝ', 'NEURÈENÝ', ('NEURÈENÝ'), ('NEURÈENÝ'), ('NEURÈENÝ') ) ;
#181 = CARTESIAN_POINT ( 'NONE',  ( 0.000000000000000000, 0.000000000000000000, 5.299999999999998934 ) ) ;
#182 = ORIENTED_EDGE ( 'NONE', *, *, #155, .F. ) ;
#183 = ADVANCED_FACE ( 'NONE', ( #19 ), #362, .T. ) ;
#184 = DIRECTION ( 'NONE',  ( 0.000000000000000000, 0.000000000000000000, 1.000000000000000000 ) ) ;
#185 = ORIENTED_EDGE ( 'NONE', *, *, #13, .F. ) ;
#186 = DIRECTION ( 'NONE',  ( 1.000000000000000000, 0.000000000000000000, 0.000000000000000000 ) ) ;
#187 = EDGE_CURVE ( 'NONE', #100, #121, #55, .T. ) ;
#188 = CARTESIAN_POINT ( 'NONE',  ( 0.000000000000000000, 0.000000000000000000, 5.299999999999998934 ) ) ;
#189 = CIRCLE ( 'NONE', #248, 3.300000000000000266 ) ;
#190 = COORDINATED_UNIVERSAL_TIME_OFFSET ( 1, 0, .AHEAD. ) ;
#191 = DIRECTION ( 'NONE',  ( -1.000000000000000000, 0.000000000000000000, 0.000000000000000000 ) ) ;
#192 = DIRECTION ( 'NONE',  ( -0.000000000000000000, -0.000000000000000000, -1.000000000000000000 ) ) ;
#193 = CC_DESIGN_PERSON_AND_ORGANIZATION_ASSIGNMENT ( #366, #76, ( #347 ) ) ;
#194 = PERSON_AND_ORGANIZATION ( #180, #162 ) ;
#195 = CARTESIAN_POINT ( 'NONE',  ( 3.300000000000000266, 0.000000000000000000, 5.299999999999998934 ) ) ;
#196 = CIRCLE ( 'NONE', #263, 0.2999999999999999334 ) ;
#197 = SECURITY_CLASSIFICATION ( '', '', #276 ) ;
#198 = CARTESIAN_POINT ( 'NONE',  ( -3.000000000000000444, 0.000000000000000000, 130.0000000000000000 ) ) ;
#199 = DESIGN_CONTEXT ( 'detailed design', #70, 'design' ) ;
#200 = CARTESIAN_POINT ( 'NONE',  ( 6.000000000000000888, 7.347880794884120722E-16, 0.000000000000000000 ) ) ;
#201 = EDGE_CURVE ( 'NONE', #12, #250, #214, .T. ) ;
#202 = AXIS2_PLACEMENT_3D ( 'NONE', #188, #306, #22 ) ;
#203 = DIRECTION ( 'NONE',  ( 0.000000000000000000, 0.000000000000000000, -1.000000000000000000 ) ) ;
#204 = DIRECTION ( 'NONE',  ( 1.000000000000000000, 0.000000000000000000, 0.000000000000000000 ) ) ;
#205 = APPROVAL ( #156, 'NEURÈENÝ' ) ;
#206 = DIRECTION ( 'NONE',  ( 1.000000000000000000, 0.000000000000000000, 0.000000000000000000 ) ) ;
#207 = ORIENTED_EDGE ( 'NONE', *, *, #155, .T. ) ;
#208 = AXIS2_PLACEMENT_3D ( 'NONE', #44, #167, #42 ) ;
#209 = LOCAL_TIME ( 11, 15, 26.00000000000000000, #190 ) ;
#210 = DIRECTION ( 'NONE',  ( -0.000000000000000000, -0.000000000000000000, -1.000000000000000000 ) ) ;
#211 = VERTEX_POINT ( 'NONE', #219 ) ;
#212 = ORIENTED_EDGE ( 'NONE', *, *, #86, .F. ) ;
#213 = DIRECTION ( 'NONE',  ( -1.000000000000000000, 0.000000000000000000, 0.000000000000000000 ) ) ;
#214 = CIRCLE ( 'NONE', #208, 3.000000000000000444 ) ;
#215 = ORIENTED_EDGE ( 'NONE', *, *, #363, .T. ) ;
#216 = VERTEX_POINT ( 'NONE', #334 ) ;
#217 = CARTESIAN_POINT ( 'NONE',  ( 0.000000000000000000, 0.000000000000000000, 0.000000000000000000 ) ) ;
#218 = EDGE_CURVE ( 'NONE', #261, #149, #39, .T. ) ;
#219 = CARTESIAN_POINT ( 'NONE',  ( -6.000000000000000888, 0.000000000000000000, 0.000000000000000000 ) ) ;
#220 = ORIENTED_EDGE ( 'NONE', *, *, #187, .F. ) ;
#221 = LINE ( 'NONE', #77, #151 ) ;
#222 = AXIS2_PLACEMENT_3D ( 'NONE', #168, #278, #224 ) ;
#223 = EDGE_CURVE ( 'NONE', #268, #211, #295, .T. ) ;
#224 = DIRECTION ( 'NONE',  ( 1.000000000000000000, 0.000000000000000000, 0.000000000000000000 ) ) ;
#225 = LINE ( 'NONE', #41, #358 ) ;
#226 = AXIS2_PLACEMENT_3D ( 'NONE', #103, #367, #338 ) ;
#227 = AXIS2_PLACEMENT_3D ( 'NONE', #243, #293, #66 ) ;
#228 = CARTESIAN_POINT ( 'NONE',  ( -6.000000000000000888, 0.000000000000000000, 5.000000000000000000 ) ) ;
#229 = CC_DESIGN_DATE_AND_TIME_ASSIGNMENT ( #308, #252, ( #197 ) ) ;
#230 = DIRECTION ( 'NONE',  ( 1.000000000000000000, 0.000000000000000000, -0.000000000000000000 ) ) ;
#231 = DIRECTION ( 'NONE',  ( 1.000000000000000000, 0.000000000000000000, 0.000000000000000000 ) ) ;
#232 = AXIS2_PLACEMENT_3D ( 'NONE', #96, #38, #213 ) ;
#233 = CARTESIAN_POINT ( 'NONE',  ( -3.300000000000000266, 4.041334437186266003E-16, 4.999999999999999112 ) ) ;
#234 = ORIENTED_EDGE ( 'NONE', *, *, #201, .T. ) ;
#235 = CIRCLE ( 'NONE', #10, 6.000000000000000888 ) ;
#236 = APPROVAL_PERSON_ORGANIZATION ( #368, #112, #277 ) ;
#237 = DIRECTION ( 'NONE',  ( 1.000000000000000000, 0.000000000000000000, 0.000000000000000000 ) ) ;
#238 = FACE_OUTER_BOUND ( 'NONE', #241, .T. ) ;
#239 = EDGE_LOOP ( 'NONE', ( #115, #159, #215, #240 ) ) ;
#240 = ORIENTED_EDGE ( 'NONE', *, *, #86, .T. ) ;
#241 = EDGE_LOOP ( 'NONE', ( #158, #272 ) ) ;
#242 = AXIS2_PLACEMENT_3D ( 'NONE', #247, #45, #191 ) ;
#243 = CARTESIAN_POINT ( 'NONE',  ( 0.000000000000000000, 0.000000000000000000, 130.0000000000000000 ) ) ;
#244 = EDGE_CURVE ( 'NONE', #250, #12, #26, .T. ) ;
#245 = DIRECTION ( 'NONE',  ( -0.000000000000000000, -0.000000000000000000, -1.000000000000000000 ) ) ;
#246 = CARTESIAN_POINT ( 'NONE',  ( 0.000000000000000000, 0.000000000000000000, 0.000000000000000000 ) ) ;
#247 = CARTESIAN_POINT ( 'NONE',  ( 0.000000000000000000, 0.000000000000000000, 5.000000000000000000 ) ) ;
#248 = AXIS2_PLACEMENT_3D ( 'NONE', #364, #245, #310 ) ;
#249 = AXIS2_PLACEMENT_3D ( 'NONE', #46, #314, #287 ) ;
#250 = VERTEX_POINT ( 'NONE', #53 ) ;
#251 = DATE_AND_TIME ( #269, #98 ) ;
#252 = DATE_TIME_ROLE ( 'classification_date' ) ;
#253 = EDGE_CURVE ( 'NONE', #250, #265, #20, .T. ) ;
#254 = CARTESIAN_POINT ( 'NONE',  ( -3.000000000000000444, 0.000000000000000000, 130.0000000000000000 ) ) ;
#255 = CARTESIAN_POINT ( 'NONE',  ( 0.000000000000000000, 0.000000000000000000, 130.0000000000000000 ) ) ;
#256 = ADVANCED_FACE ( 'NONE', ( #140 ), #258, .F. ) ;
#257 = VECTOR ( 'NONE', #150, 1000.000000000000000 ) ;
#258 = CYLINDRICAL_SURFACE ( 'NONE', #249, 1.750000000000000000 ) ;
#259 = MANIFOLD_SOLID_BREP ( 'Odebrat vysunutím3', #3 ) ;
#260 = EDGE_LOOP ( 'NONE', ( #303, #48, #361, #127 ) ) ;
#261 = VERTEX_POINT ( 'NONE', #145 ) ;
#262 = ADVANCED_FACE ( 'NONE', ( #349, #141 ), #108, .T. ) ;
#263 = AXIS2_PLACEMENT_3D ( 'NONE', #195, #78, #343 ) ;
#264 =( NAMED_UNIT ( * ) PLANE_ANGLE_UNIT ( ) SI_UNIT ( $, .RADIAN. ) );
#265 = VERTEX_POINT ( 'NONE', #233 ) ;
#266 = ORIENTED_EDGE ( 'NONE', *, *, #319, .T. ) ;
#267 = PLANE ( 'NONE',  #143 ) ;
#268 = VERTEX_POINT ( 'NONE', #200 ) ;
#269 = CALENDAR_DATE ( 2022, 10, 7 ) ;
#270 = PRODUCT_DEFINITION ( 'NEZNÁMÝ', '', #347, #199 ) ;
#271 = ORIENTED_EDGE ( 'NONE', *, *, #279, .F. ) ;
#272 = ORIENTED_EDGE ( 'NONE', *, *, #218, .T. ) ;
#273 = SHAPE_DEFINITION_REPRESENTATION ( #307, #92 ) ;
#274 = AXIS2_PLACEMENT_3D ( 'NONE', #217, #184, #237 ) ;
#275 = EDGE_LOOP ( 'NONE', ( #212, #94 ) ) ;
#276 = SECURITY_CLASSIFICATION_LEVEL ( 'unclassified' ) ;
#277 = APPROVAL_ROLE ( '' ) ;
#278 = DIRECTION ( 'NONE',  ( 0.000000000000000000, 0.000000000000000000, 1.000000000000000000 ) ) ;
#279 = EDGE_CURVE ( 'NONE', #296, #176, #311, .T. ) ;
#280 = CARTESIAN_POINT ( 'NONE',  ( 0.000000000000000000, 0.000000000000000000, 0.000000000000000000 ) ) ;
#281 = VECTOR ( 'NONE', #203, 1000.000000000000000 ) ;
#282 = APPROVAL_DATE_TIME ( #37, #137 ) ;
#283 = DIRECTION ( 'NONE',  ( 0.000000000000000000, 0.000000000000000000, -1.000000000000000000 ) ) ;
#284 = ADVANCED_FACE ( 'NONE', ( #174, #288 ), #380, .F. ) ;
#285 = DIRECTION ( 'NONE',  ( -0.000000000000000000, -0.000000000000000000, -1.000000000000000000 ) ) ;
#286 = AXIS2_PLACEMENT_3D ( 'NONE', #109, #54, #230 ) ;
#287 = DIRECTION ( 'NONE',  ( -1.000000000000000000, 0.000000000000000000, 0.000000000000000000 ) ) ;
#288 = FACE_OUTER_BOUND ( 'NONE', #275, .T. ) ;
#289 = AXIS2_PLACEMENT_3D ( 'NONE', #255, #88, #206 ) ;
#290 = LINE ( 'NONE', #138, #281 ) ;
#291 = DIRECTION ( 'NONE',  ( 1.000000000000000000, 0.000000000000000000, 0.000000000000000000 ) ) ;
#292 = EDGE_CURVE ( 'NONE', #216, #6, #85, .T. ) ;
#293 = DIRECTION ( 'NONE',  ( -0.000000000000000000, -0.000000000000000000, -1.000000000000000000 ) ) ;
#294 = ORIENTED_EDGE ( 'NONE', *, *, #59, .F. ) ;
#295 = CIRCLE ( 'NONE', #360, 6.000000000000000888 ) ;
#296 = VERTEX_POINT ( 'NONE', #173 ) ;
#297 = AXIS2_PLACEMENT_3D ( 'NONE', #105, #165, #74 ) ;
#298 = CC_DESIGN_APPROVAL ( #137, ( #347 ) ) ;
#299 = DATE_AND_TIME ( #178, #126 ) ;
#300 = CARTESIAN_POINT ( 'NONE',  ( 3.000000000000000444, 3.673940397442060361E-16, 5.299999999999998934 ) ) ;
#301 = ADVANCED_FACE ( 'NONE', ( #372 ), #50, .T. ) ;
#302 = PERSON_AND_ORGANIZATION_ROLE ( 'creator' ) ;
#303 = ORIENTED_EDGE ( 'NONE', *, *, #52, .F. ) ;
#304 = EDGE_LOOP ( 'NONE', ( #332, #294, #147, #36 ) ) ;
#305 = DIRECTION ( 'NONE',  ( 1.000000000000000000, 0.000000000000000000, 0.000000000000000000 ) ) ;
#306 = DIRECTION ( 'NONE',  ( 0.000000000000000000, 0.000000000000000000, 1.000000000000000000 ) ) ;
#307 = PRODUCT_DEFINITION_SHAPE ( 'NONE', 'NONE',  #270 ) ;
#308 = DATE_AND_TIME ( #333, #209 ) ;
#309 = CC_DESIGN_PERSON_AND_ORGANIZATION_ASSIGNMENT ( #14, #104, ( #197 ) ) ;
#310 = DIRECTION ( 'NONE',  ( 1.000000000000000000, 0.000000000000000000, 0.000000000000000000 ) ) ;
#311 = CIRCLE ( 'NONE', #80, 1.750000000000000000 ) ;
#312 = CYLINDRICAL_SURFACE ( 'NONE', #242, 6.000000000000000888 ) ;
#313 = DIRECTION ( 'NONE',  ( -1.000000000000000000, 0.000000000000000000, 0.000000000000000000 ) ) ;
#314 = DIRECTION ( 'NONE',  ( 0.000000000000000000, 0.000000000000000000, -1.000000000000000000 ) ) ;
#315 = EDGE_CURVE ( 'NONE', #176, #296, #318, .T. ) ;
#316 = LINE ( 'NONE', #228, #132 ) ;
#317 = CARTESIAN_POINT ( 'NONE',  ( -3.300000000000000266, 4.041334437186266003E-16, 5.299999999999998934 ) ) ;
#318 = CIRCLE ( 'NONE', #289, 1.750000000000000000 ) ;
#319 = EDGE_CURVE ( 'NONE', #296, #100, #290, .T. ) ;
#320 = CARTESIAN_POINT ( 'NONE',  ( 0.000000000000000000, 0.000000000000000000, 130.0000000000000000 ) ) ;
#321 = ORIENTED_EDGE ( 'NONE', *, *, #218, .F. ) ;
#322 = FACE_OUTER_BOUND ( 'NONE', #304, .T. ) ;
#323 = FACE_BOUND ( 'NONE', #324, .T. ) ;
#324 = EDGE_LOOP ( 'NONE', ( #271, #124 ) ) ;
#325 = COORDINATED_UNIVERSAL_TIME_OFFSET ( 1, 0, .AHEAD. ) ;
#326 = ORIENTED_EDGE ( 'NONE', *, *, #52, .T. ) ;
#327 = AXIS2_PLACEMENT_3D ( 'NONE', #110, #171, #345 ) ;
#328 = PERSON_AND_ORGANIZATION ( #180, #162 ) ;
#329 = VERTEX_POINT ( 'NONE', #377 ) ;
#330 = ORIENTED_EDGE ( 'NONE', *, *, #292, .T. ) ;
#331 = PERSON_AND_ORGANIZATION ( #180, #162 ) ;
#332 = ORIENTED_EDGE ( 'NONE', *, *, #146, .F. ) ;
#333 = CALENDAR_DATE ( 2022, 10, 7 ) ;
#334 = CARTESIAN_POINT ( 'NONE',  ( -6.000000000000000888, 0.000000000000000000, 5.000000000000000000 ) ) ;
#335 = PERSON_AND_ORGANIZATION ( #180, #162 ) ;
#336 = CARTESIAN_POINT ( 'NONE',  ( 0.000000000000000000, 0.000000000000000000, 5.299999999999998934 ) ) ;
#337 = COORDINATED_UNIVERSAL_TIME_OFFSET ( 1, 0, .AHEAD. ) ;
#338 = DIRECTION ( 'NONE',  ( -1.000000000000000000, 0.000000000000000000, 0.000000000000000000 ) ) ;
#339 = DATE_TIME_ROLE ( 'creation_date' ) ;
#340 = DIRECTION ( 'NONE',  ( 1.000000000000000000, 0.000000000000000000, 0.000000000000000000 ) ) ;
#341 = EDGE_CURVE ( 'NONE', #121, #100, #118, .T. ) ;
#342 = AXIS2_PLACEMENT_3D ( 'NONE', #72, #210, #305 ) ;
#343 = DIRECTION ( 'NONE',  ( 0.000000000000000000, 0.000000000000000000, -1.000000000000000000 ) ) ;
#344 = DIRECTION ( 'NONE',  ( -0.000000000000000000, -0.000000000000000000, -1.000000000000000000 ) ) ;
#345 = DIRECTION ( 'NONE',  ( 1.000000000000000000, 0.000000000000000000, -0.000000000000000000 ) ) ;
#346 = DIRECTION ( 'NONE',  ( 0.000000000000000000, 0.000000000000000000, 1.000000000000000000 ) ) ;
#347 = PRODUCT_DEFINITION_FORMATION_WITH_SPECIFIED_SOURCE ( 'LIBOVOLNÝ', '', #120, .NOT_KNOWN. ) ;
#348 = VECTOR ( 'NONE', #374, 1000.000000000000000 ) ;
#349 = FACE_BOUND ( 'NONE', #67, .T. ) ;
#350 = DIRECTION ( 'NONE',  ( 1.000000000000000000, 0.000000000000000000, 0.000000000000000000 ) ) ;
#351 = FACE_OUTER_BOUND ( 'NONE', #89, .T. ) ;
#352 = AXIS2_PLACEMENT_3D ( 'NONE', #84, #285, #313 ) ;
#353 = DIRECTION ( 'NONE',  ( 1.000000000000000000, 0.000000000000000000, -0.000000000000000000 ) ) ;
#354 = DIRECTION ( 'NONE',  ( 0.000000000000000000, 0.000000000000000000, 1.000000000000000000 ) ) ;
#355 = ORIENTED_EDGE ( 'NONE', *, *, #341, .F. ) ;
#356 = APPROVAL_DATE_TIME ( #299, #205 ) ;
#357 = ORIENTED_EDGE ( 'NONE', *, *, #146, .T. ) ;
#358 = VECTOR ( 'NONE', #283, 1000.000000000000000 ) ;
#359 = EDGE_LOOP ( 'NONE', ( #43, #157, #266, #62 ) ) ;
#360 = AXIS2_PLACEMENT_3D ( 'NONE', #280, #134, #106 ) ;
#361 = ORIENTED_EDGE ( 'NONE', *, *, #223, .T. ) ;
#362 = CYLINDRICAL_SURFACE ( 'NONE', #226, 3.000000000000000444 ) ;
#363 = EDGE_CURVE ( 'NONE', #216, #211, #316, .T. ) ;
#364 = CARTESIAN_POINT ( 'NONE',  ( 0.000000000000000000, 0.000000000000000000, 5.000000000000000000 ) ) ;
#365 = AXIS2_PLACEMENT_3D ( 'NONE', #336, #81, #340 ) ;
#366 = PERSON_AND_ORGANIZATION ( #180, #162 ) ;
#367 = DIRECTION ( 'NONE',  ( -0.000000000000000000, -0.000000000000000000, -1.000000000000000000 ) ) ;
#368 = PERSON_AND_ORGANIZATION ( #180, #162 ) ;
#369 = EDGE_CURVE ( 'NONE', #149, #250, #83, .T. ) ;
#370 = DATE_AND_TIME ( #73, #144 ) ;
#371 = AXIS2_PLACEMENT_3D ( 'NONE', #246, #192, #17 ) ;
#372 = FACE_OUTER_BOUND ( 'NONE', #260, .T. ) ;
#373 = LOCAL_TIME ( 11, 15, 26.00000000000000000, #128 ) ;
#374 = DIRECTION ( 'NONE',  ( -0.000000000000000000, -0.000000000000000000, -1.000000000000000000 ) ) ;
#375 = EDGE_CURVE ( 'NONE', #6, #268, #125, .T. ) ;
#376 = DIRECTION ( 'NONE',  ( -1.000000000000000000, 1.224646799147353207E-16, 0.000000000000000000 ) ) ;
#377 = CARTESIAN_POINT ( 'NONE',  ( 3.300000000000000266, 0.000000000000000000, 4.999999999999999112 ) ) ;
#378 = TOROIDAL_SURFACE ( 'NONE', #365, 3.300000000000000266, 0.2999999999999999889 ) ;
#379 = APPROVAL_PERSON_ORGANIZATION ( #335, #137, #11 ) ;
#380 = PLANE ( 'NONE',  #286 ) ;
#381 = ADVANCED_FACE ( 'NONE', ( #322 ), #177, .T. ) ;
ENDSEC;
END-ISO-10303-21;
