ISO-10303-21;
HEADER;
FILE_DESCRIPTION (( 'STEP AP203' ),
    '1' );
FILE_NAME ('f832.STEP',
    '2022-07-10T09:08:20',
    ( '' ),
    ( '' ),
    'SwSTEP 2.0',
    'SolidWorks 2019',
    '' );
FILE_SCHEMA (( 'CONFIG_CONTROL_DESIGN' ));
ENDSEC;

DATA;
#1 = ORIENTED_EDGE ( 'NONE', *, *, #371, .T. ) ;
#2 = DIRECTION ( 'NONE',  ( 0.000000000000000000, -1.000000000000000000, 0.000000000000000000 ) ) ;
#3 = CARTESIAN_POINT ( 'NONE',  ( 0.000000000000000000, 0.000000000000000000, 0.000000000000000000 ) ) ;
#4 = DIRECTION ( 'NONE',  ( -0.000000000000000000, -0.000000000000000000, -1.000000000000000000 ) ) ;
#5 = PRODUCT_DEFINITION_SHAPE ( 'NONE', 'NONE',  #303 ) ;
#6 = VERTEX_POINT ( 'NONE', #364 ) ;
#7 = DIRECTION ( 'NONE',  ( 0.000000000000000000, 0.000000000000000000, 1.000000000000000000 ) ) ;
#8 = AXIS2_PLACEMENT_3D ( 'NONE', #92, #67, #296 ) ;
#9 = SECURITY_CLASSIFICATION ( '', '', #350 ) ;
#10 = ORIENTED_EDGE ( 'NONE', *, *, #36, .T. ) ;
#11 = APPROVAL_ROLE ( '' ) ;
#12 = ORIENTED_EDGE ( 'NONE', *, *, #209, .F. ) ;
#13 = DATE_AND_TIME ( #172, #44 ) ;
#14 = ORIENTED_EDGE ( 'NONE', *, *, #185, .T. ) ;
#15 = AXIS2_PLACEMENT_3D ( 'NONE', #151, #17, #256 ) ;
#16 = DATE_AND_TIME ( #115, #114 ) ;
#17 = DIRECTION ( 'NONE',  ( 0.000000000000000000, 0.000000000000000000, 1.000000000000000000 ) ) ;
#18 =( NAMED_UNIT ( * ) SI_UNIT ( $, .STERADIAN. ) SOLID_ANGLE_UNIT ( ) );
#19 = EDGE_CURVE ( 'NONE', #266, #246, #335, .T. ) ;
#20 = CARTESIAN_POINT ( 'NONE',  ( -2.600000000000000089, 0.000000000000000000, 155.0000000000000000 ) ) ;
#21 = CARTESIAN_POINT ( 'NONE',  ( 7.000000000000000000, 8.572527594031473190E-16, 5.000000000000000000 ) ) ;
#22 = DIRECTION ( 'NONE',  ( 0.000000000000000000, 0.000000000000000000, -1.000000000000000000 ) ) ;
#23 = CC_DESIGN_PERSON_AND_ORGANIZATION_ASSIGNMENT ( #255, #294, ( #325 ) ) ;
#24 = DIRECTION ( 'NONE',  ( 1.000000000000000000, 0.000000000000000000, -0.000000000000000000 ) ) ;
#25 = DIRECTION ( 'NONE',  ( 0.000000000000000000, 0.000000000000000000, 1.000000000000000000 ) ) ;
#26 = VECTOR ( 'NONE', #236, 1000.000000000000000 ) ;
#27 = CC_DESIGN_DATE_AND_TIME_ASSIGNMENT ( #13, #148, ( #303 ) ) ;
#28 = CARTESIAN_POINT ( 'NONE',  ( 4.000000000000000000, 4.898587196589412829E-16, 155.0000000000000000 ) ) ;
#29 = ORIENTED_EDGE ( 'NONE', *, *, #19, .T. ) ;
#30 = DIRECTION ( 'NONE',  ( -0.000000000000000000, -0.000000000000000000, -1.000000000000000000 ) ) ;
#31 = LINE ( 'NONE', #106, #58 ) ;
#32 = AXIS2_PLACEMENT_3D ( 'NONE', #63, #4, #188 ) ;
#33 = AXIS2_PLACEMENT_3D ( 'NONE', #271, #191, #34 ) ;
#34 = DIRECTION ( 'NONE',  ( 1.000000000000000000, 0.000000000000000000, 0.000000000000000000 ) ) ;
#35 = CARTESIAN_POINT ( 'NONE',  ( 0.000000000000000000, 0.000000000000000000, 155.0000000000000000 ) ) ;
#36 = EDGE_CURVE ( 'NONE', #116, #6, #315, .T. ) ;
#37 = EDGE_LOOP ( 'NONE', ( #112, #280 ) ) ;
#38 = CARTESIAN_POINT ( 'NONE',  ( -7.000000000000000000, 0.000000000000000000, 5.000000000000000000 ) ) ;
#39 = ORIENTED_EDGE ( 'NONE', *, *, #142, .T. ) ;
#40 = DIRECTION ( 'NONE',  ( 1.000000000000000000, 0.000000000000000000, 0.000000000000000000 ) ) ;
#41 = DESIGN_CONTEXT ( 'detailed design', #189, 'design' ) ;
#42 = ORIENTED_EDGE ( 'NONE', *, *, #288, .F. ) ;
#43 = CIRCLE ( 'NONE', #104, 2.600000000000000089 ) ;
#44 = LOCAL_TIME ( 11, 8, 20.00000000000000000, #316 ) ;
#45 = ORIENTED_EDGE ( 'NONE', *, *, #128, .F. ) ;
#46 = PERSON_AND_ORGANIZATION_ROLE ( 'creator' ) ;
#47 = VERTEX_POINT ( 'NONE', #50 ) ;
#48 = CALENDAR_DATE ( 2022, 10, 7 ) ;
#49 = ADVANCED_FACE ( 'NONE', ( #370 ), #348, .F. ) ;
#50 = CARTESIAN_POINT ( 'NONE',  ( -7.000000000000000000, 0.000000000000000000, 5.000000000000000000 ) ) ;
#51 = CYLINDRICAL_SURFACE ( 'NONE', #330, 2.600000000000000089 ) ;
#52 = LOCAL_TIME ( 11, 8, 20.00000000000000000, #263 ) ;
#53 = DIRECTION ( 'NONE',  ( 1.000000000000000000, 0.000000000000000000, 0.000000000000000000 ) ) ;
#54 = PERSON_AND_ORGANIZATION ( #341, #176 ) ;
#55 = CARTESIAN_POINT ( 'NONE',  ( -2.600000000000000089, 0.000000000000000000, 155.0000000000000000 ) ) ;
#56 = CLOSED_SHELL ( 'NONE', ( #125, #49, #173, #346, #314, #192, #233, #64, #100, #93, #358 ) ) ;
#57 = DIRECTION ( 'NONE',  ( 1.224646799147353207E-16, 1.000000000000000000, -0.000000000000000000 ) ) ;
#58 = VECTOR ( 'NONE', #166, 1000.000000000000000 ) ;
#59 = AXIS2_PLACEMENT_3D ( 'NONE', #132, #332, #101 ) ;
#60 = CARTESIAN_POINT ( 'NONE',  ( 2.600000000000000089, 3.184081677783118191E-16, 155.0000000000000000 ) ) ;
#61 = LINE ( 'NONE', #28, #26 ) ;
#62 = ORIENTED_EDGE ( 'NONE', *, *, #288, .T. ) ;
#63 = CARTESIAN_POINT ( 'NONE',  ( 0.000000000000000000, 0.000000000000000000, 0.000000000000000000 ) ) ;
#64 = ADVANCED_FACE ( 'NONE', ( #373 ), #286, .T. ) ;
#65 = DIRECTION ( 'NONE',  ( 0.000000000000000000, 0.000000000000000000, 1.000000000000000000 ) ) ;
#66 = ORIENTED_EDGE ( 'NONE', *, *, #107, .T. ) ;
#67 = DIRECTION ( 'NONE',  ( -0.000000000000000000, -0.000000000000000000, -1.000000000000000000 ) ) ;
#68 = ORIENTED_EDGE ( 'NONE', *, *, #297, .T. ) ;
#69 =( GEOMETRIC_REPRESENTATION_CONTEXT ( 3 ) GLOBAL_UNCERTAINTY_ASSIGNED_CONTEXT ( ( #195 ) ) GLOBAL_UNIT_ASSIGNED_CONTEXT ( ( #140, #372, #18 ) ) REPRESENTATION_CONTEXT ( 'NONE', 'WORKASPACE' ) );
#70 = CARTESIAN_POINT ( 'NONE',  ( 0.000000000000000000, 0.000000000000000000, 5.000000000000000000 ) ) ;
#71 = ORIENTED_EDGE ( 'NONE', *, *, #96, .T. ) ;
#72 = DIRECTION ( 'NONE',  ( 1.000000000000000000, 0.000000000000000000, 0.000000000000000000 ) ) ;
#73 = ORIENTED_EDGE ( 'NONE', *, *, #243, .F. ) ;
#74 = PERSON_AND_ORGANIZATION ( #341, #176 ) ;
#75 = VERTEX_POINT ( 'NONE', #60 ) ;
#76 = CIRCLE ( 'NONE', #374, 4.000000000000000000 ) ;
#77 = AXIS2_PLACEMENT_3D ( 'NONE', #161, #127, #72 ) ;
#78 = PERSON_AND_ORGANIZATION ( #341, #176 ) ;
#79 = ORIENTED_EDGE ( 'NONE', *, *, #117, .T. ) ;
#80 = CARTESIAN_POINT ( 'NONE',  ( 4.000000000000000000, 4.898587196589412829E-16, 155.0000000000000000 ) ) ;
#81 = MANIFOLD_SOLID_BREP ( 'Odebrat vysunutím3', #56 ) ;
#82 = EDGE_LOOP ( 'NONE', ( #340, #203, #71, #270 ) ) ;
#83 = PERSON_AND_ORGANIZATION_ROLE ( 'design_owner' ) ;
#84 = CIRCLE ( 'NONE', #137, 4.000000000000000000 ) ;
#85 = DIRECTION ( 'NONE',  ( 1.000000000000000000, 0.000000000000000000, 0.000000000000000000 ) ) ;
#86 = APPROVAL_ROLE ( '' ) ;
#87 = CARTESIAN_POINT ( 'NONE',  ( -4.000000000000000000, 0.000000000000000000, 155.0000000000000000 ) ) ;
#88 = CC_DESIGN_PERSON_AND_ORGANIZATION_ASSIGNMENT ( #54, #264, ( #9 ) ) ;
#89 = DIRECTION ( 'NONE',  ( -0.000000000000000000, -0.000000000000000000, -1.000000000000000000 ) ) ;
#90 = DATE_TIME_ROLE ( 'classification_date' ) ;
#91 = FACE_OUTER_BOUND ( 'NONE', #205, .T. ) ;
#92 = CARTESIAN_POINT ( 'NONE',  ( 0.000000000000000000, 0.000000000000000000, 155.0000000000000000 ) ) ;
#93 = ADVANCED_FACE ( 'NONE', ( #229 ), #317, .F. ) ;
#94 = EDGE_LOOP ( 'NONE', ( #222, #39 ) ) ;
#95 = CARTESIAN_POINT ( 'NONE',  ( 0.000000000000000000, 0.000000000000000000, 155.0000000000000000 ) ) ;
#96 = EDGE_CURVE ( 'NONE', #165, #369, #84, .T. ) ;
#97 = AXIS2_PLACEMENT_3D ( 'NONE', #250, #342, #365 ) ;
#98 = EDGE_LOOP ( 'NONE', ( #251, #29, #174, #361 ) ) ;
#99 = CARTESIAN_POINT ( 'NONE',  ( -7.000000000000000000, 0.000000000000000000, 0.000000000000000000 ) ) ;
#100 = ADVANCED_FACE ( 'NONE', ( #179, #376 ), #248, .T. ) ;
#101 = DIRECTION ( 'NONE',  ( -1.000000000000000000, 0.000000000000000000, 0.000000000000000000 ) ) ;
#102 = DIRECTION ( 'NONE',  ( 0.000000000000000000, 0.000000000000000000, 1.000000000000000000 ) ) ;
#103 = AXIS2_PLACEMENT_3D ( 'NONE', #262, #377, #119 ) ;
#104 = AXIS2_PLACEMENT_3D ( 'NONE', #183, #89, #212 ) ;
#105 = ORIENTED_EDGE ( 'NONE', *, *, #217, .F. ) ;
#106 = CARTESIAN_POINT ( 'NONE',  ( 2.600000000000000089, 3.184081677783118191E-16, 155.0000000000000000 ) ) ;
#107 = EDGE_CURVE ( 'NONE', #369, #220, #309, .T. ) ;
#108 = ORIENTED_EDGE ( 'NONE', *, *, #128, .T. ) ;
#109 = MECHANICAL_CONTEXT ( 'NONE', #300, 'mechanical' ) ;
#110 = VERTEX_POINT ( 'NONE', #379 ) ;
#111 = COORDINATED_UNIVERSAL_TIME_OFFSET ( 1, 0, .AHEAD. ) ;
#112 = ORIENTED_EDGE ( 'NONE', *, *, #217, .T. ) ;
#113 = AXIS2_PLACEMENT_3D ( 'NONE', #239, #7, #187 ) ;
#114 = LOCAL_TIME ( 11, 8, 20.00000000000000000, #258 ) ;
#115 = CALENDAR_DATE ( 2022, 10, 7 ) ;
#116 = VERTEX_POINT ( 'NONE', #20 ) ;
#117 = EDGE_CURVE ( 'NONE', #110, #369, #182, .T. ) ;
#118 = CARTESIAN_POINT ( 'NONE',  ( -4.000000000000000000, 0.000000000000000000, 5.500000000000005329 ) ) ;
#119 = DIRECTION ( 'NONE',  ( -1.000000000000000000, 0.000000000000000000, 0.000000000000000000 ) ) ;
#120 = FACE_OUTER_BOUND ( 'NONE', #249, .T. ) ;
#121 = DIRECTION ( 'NONE',  ( 0.000000000000000000, 0.000000000000000000, 1.000000000000000000 ) ) ;
#122 = LOCAL_TIME ( 11, 8, 20.00000000000000000, #111 ) ;
#123 = PERSON_AND_ORGANIZATION ( #341, #176 ) ;
#124 = APPROVAL_PERSON_ORGANIZATION ( #144, #344, #368 ) ;
#125 = ADVANCED_FACE ( 'NONE', ( #91 ), #295, .F. ) ;
#126 = DIRECTION ( 'NONE',  ( 1.000000000000000000, 0.000000000000000000, 0.000000000000000000 ) ) ;
#127 = DIRECTION ( 'NONE',  ( 0.000000000000000000, 0.000000000000000000, 1.000000000000000000 ) ) ;
#128 = EDGE_CURVE ( 'NONE', #6, #145, #43, .T. ) ;
#129 = DIRECTION ( 'NONE',  ( 0.000000000000000000, 0.000000000000000000, -1.000000000000000000 ) ) ;
#130 = ORIENTED_EDGE ( 'NONE', *, *, #107, .F. ) ;
#131 = DIRECTION ( 'NONE',  ( 1.000000000000000000, 0.000000000000000000, 0.000000000000000000 ) ) ;
#132 = CARTESIAN_POINT ( 'NONE',  ( 0.000000000000000000, 0.000000000000000000, 5.000000000000000000 ) ) ;
#133 = PRODUCT ( 'f832', 'f832', '', ( #109 ) ) ;
#134 = FACE_OUTER_BOUND ( 'NONE', #331, .T. ) ;
#135 = EDGE_LOOP ( 'NONE', ( #223, #66, #42, #228 ) ) ;
#136 = DIRECTION ( 'NONE',  ( 0.000000000000000000, 0.000000000000000000, -1.000000000000000000 ) ) ;
#137 = AXIS2_PLACEMENT_3D ( 'NONE', #210, #320, #53 ) ;
#138 = AXIS2_PLACEMENT_3D ( 'NONE', #218, #65, #245 ) ;
#139 = ORIENTED_EDGE ( 'NONE', *, *, #333, .F. ) ;
#140 =( LENGTH_UNIT ( ) NAMED_UNIT ( * ) SI_UNIT ( .MILLI., .METRE. ) );
#141 = ORIENTED_EDGE ( 'NONE', *, *, #371, .F. ) ;
#142 = EDGE_CURVE ( 'NONE', #353, #110, #318, .T. ) ;
#143 = ORIENTED_EDGE ( 'NONE', *, *, #196, .F. ) ;
#144 = PERSON_AND_ORGANIZATION ( #341, #176 ) ;
#145 = VERTEX_POINT ( 'NONE', #238 ) ;
#146 = CIRCLE ( 'NONE', #235, 2.600000000000000089 ) ;
#147 = PERSON_AND_ORGANIZATION_ROLE ( 'creator' ) ;
#148 = DATE_TIME_ROLE ( 'creation_date' ) ;
#149 = AXIS2_PLACEMENT_3D ( 'NONE', #293, #22, #153 ) ;
#150 = CC_DESIGN_APPROVAL ( #211, ( #9 ) ) ;
#151 = CARTESIAN_POINT ( 'NONE',  ( 0.000000000000000000, 0.000000000000000000, 5.500000000000005329 ) ) ;
#152 = APPROVAL_STATUS ( 'not_yet_approved' ) ;
#153 = DIRECTION ( 'NONE',  ( -1.000000000000000000, 0.000000000000000000, 0.000000000000000000 ) ) ;
#154 = EDGE_CURVE ( 'NONE', #353, #165, #61, .T. ) ;
#155 = DIRECTION ( 'NONE',  ( -1.000000000000000000, 1.224646799147351482E-16, 0.000000000000000000 ) ) ;
#156 = APPROVAL_DATE_TIME ( #324, #211 ) ;
#157 = AXIS2_PLACEMENT_3D ( 'NONE', #287, #121, #85 ) ;
#158 = AXIS2_PLACEMENT_3D ( 'NONE', #323, #25, #126 ) ;
#159 = CC_DESIGN_PERSON_AND_ORGANIZATION_ASSIGNMENT ( #204, #147, ( #325 ) ) ;
#160 = DIRECTION ( 'NONE',  ( 1.000000000000000000, 0.000000000000000000, 0.000000000000000000 ) ) ;
#161 = CARTESIAN_POINT ( 'NONE',  ( 0.000000000000000000, 0.000000000000000000, 0.000000000000000000 ) ) ;
#162 = VECTOR ( 'NONE', #30, 1000.000000000000000 ) ;
#163 = PLANE ( 'NONE',  #224 ) ;
#164 = DIRECTION ( 'NONE',  ( 0.000000000000000000, 0.000000000000000000, 1.000000000000000000 ) ) ;
#165 = VERTEX_POINT ( 'NONE', #267 ) ;
#166 = DIRECTION ( 'NONE',  ( 0.000000000000000000, 0.000000000000000000, -1.000000000000000000 ) ) ;
#167 = ORIENTED_EDGE ( 'NONE', *, *, #257, .F. ) ;
#168 = APPLICATION_PROTOCOL_DEFINITION ( 'international standard', 'config_control_design', 1994, #300 ) ;
#169 = CIRCLE ( 'NONE', #32, 2.600000000000000089 ) ;
#170 = APPROVAL_PERSON_ORGANIZATION ( #123, #211, #86 ) ;
#171 = ORIENTED_EDGE ( 'NONE', *, *, #265, .T. ) ;
#172 = CALENDAR_DATE ( 2022, 10, 7 ) ;
#173 = ADVANCED_FACE ( 'NONE', ( #213 ), #351, .T. ) ;
#174 = ORIENTED_EDGE ( 'NONE', *, *, #243, .T. ) ;
#175 = APPROVAL_DATE_TIME ( #336, #237 ) ;
#176 = ORGANIZATION ( 'NEURÈENÝ', 'NEURÈENÝ', '' ) ;
#177 = DIRECTION ( 'NONE',  ( 0.000000000000000000, 0.000000000000000000, 1.000000000000000000 ) ) ;
#178 = CC_DESIGN_PERSON_AND_ORGANIZATION_ASSIGNMENT ( #78, #46, ( #303 ) ) ;
#179 = FACE_BOUND ( 'NONE', #363, .T. ) ;
#180 = DATE_AND_TIME ( #292, #52 ) ;
#181 = CALENDAR_DATE ( 2022, 10, 7 ) ;
#182 = LINE ( 'NONE', #87, #284 ) ;
#183 = CARTESIAN_POINT ( 'NONE',  ( 0.000000000000000000, 0.000000000000000000, 0.000000000000000000 ) ) ;
#184 = CIRCLE ( 'NONE', #97, 7.000000000000000000 ) ;
#185 = EDGE_CURVE ( 'NONE', #75, #145, #31, .T. ) ;
#186 = CARTESIAN_POINT ( 'NONE',  ( -4.500000000000000888, 5.510910596163088569E-16, 5.000000000000002665 ) ) ;
#187 = DIRECTION ( 'NONE',  ( 1.000000000000000000, 0.000000000000000000, 0.000000000000000000 ) ) ;
#188 = DIRECTION ( 'NONE',  ( 1.000000000000000000, 0.000000000000000000, 0.000000000000000000 ) ) ;
#189 = APPLICATION_CONTEXT ( 'configuration controlled 3d designs of mechanical parts and assemblies' ) ;
#190 = ORIENTED_EDGE ( 'NONE', *, *, #19, .F. ) ;
#191 = DIRECTION ( 'NONE',  ( 0.000000000000000000, 0.000000000000000000, 1.000000000000000000 ) ) ;
#192 = ADVANCED_FACE ( 'NONE', ( #381, #326 ), #163, .T. ) ;
#193 = EDGE_LOOP ( 'NONE', ( #130, #254, #68, #139 ) ) ;
#194 = CARTESIAN_POINT ( 'NONE',  ( 0.000000000000000000, 0.000000000000000000, 5.000000000000000000 ) ) ;
#195 = UNCERTAINTY_MEASURE_WITH_UNIT (LENGTH_MEASURE( 1.000000000000000082E-05 ), #140, 'distance_accuracy_value', 'NONE');
#196 = EDGE_CURVE ( 'NONE', #145, #6, #169, .T. ) ;
#197 = ORIENTED_EDGE ( 'NONE', *, *, #196, .T. ) ;
#198 = APPROVAL_STATUS ( 'not_yet_approved' ) ;
#199 = AXIS2_PLACEMENT_3D ( 'NONE', #3, #362, #352 ) ;
#200 = ORIENTED_EDGE ( 'NONE', *, *, #36, .F. ) ;
#201 = CC_DESIGN_SECURITY_CLASSIFICATION ( #9, ( #325 ) ) ;
#202 = DIRECTION ( 'NONE',  ( -1.000000000000000000, 0.000000000000000000, 0.000000000000000000 ) ) ;
#203 = ORIENTED_EDGE ( 'NONE', *, *, #154, .T. ) ;
#204 = PERSON_AND_ORGANIZATION ( #341, #176 ) ;
#205 = EDGE_LOOP ( 'NONE', ( #1, #14, #197, #200 ) ) ;
#206 = APPLICATION_PROTOCOL_DEFINITION ( 'international standard', 'config_control_design', 1994, #189 ) ;
#207 = EDGE_CURVE ( 'NONE', #369, #165, #231, .T. ) ;
#208 = DIRECTION ( 'NONE',  ( 0.000000000000000000, 0.000000000000000000, -1.000000000000000000 ) ) ;
#209 = EDGE_CURVE ( 'NONE', #110, #353, #76, .T. ) ;
#210 = CARTESIAN_POINT ( 'NONE',  ( 0.000000000000000000, 0.000000000000000000, 5.500000000000005329 ) ) ;
#211 = APPROVAL ( #152, 'NEURÈENÝ' ) ;
#212 = DIRECTION ( 'NONE',  ( 1.000000000000000000, 0.000000000000000000, 0.000000000000000000 ) ) ;
#213 = FACE_OUTER_BOUND ( 'NONE', #82, .T. ) ;
#214 = DIRECTION ( 'NONE',  ( 1.000000000000000000, 0.000000000000000000, 0.000000000000000000 ) ) ;
#215 = FACE_OUTER_BOUND ( 'NONE', #98, .T. ) ;
#216 = CARTESIAN_POINT ( 'NONE',  ( 0.000000000000000000, 0.000000000000000000, 5.000000000000000000 ) ) ;
#217 = EDGE_CURVE ( 'NONE', #47, #266, #354, .T. ) ;
#218 = CARTESIAN_POINT ( 'NONE',  ( 0.000000000000000000, 0.000000000000000000, 5.500000000000005329 ) ) ;
#219 = AXIS2_PLACEMENT_3D ( 'NONE', #194, #305, #214 ) ;
#220 = VERTEX_POINT ( 'NONE', #186 ) ;
#221 = PLANE ( 'NONE',  #199 ) ;
#222 = ORIENTED_EDGE ( 'NONE', *, *, #209, .T. ) ;
#223 = ORIENTED_EDGE ( 'NONE', *, *, #207, .F. ) ;
#224 = AXIS2_PLACEMENT_3D ( 'NONE', #273, #357, #327 ) ;
#225 = CIRCLE ( 'NONE', #291, 4.500000000000000888 ) ;
#226 = ORIENTED_EDGE ( 'NONE', *, *, #154, .F. ) ;
#227 = APPROVAL_DATE_TIME ( #16, #344 ) ;
#228 = ORIENTED_EDGE ( 'NONE', *, *, #297, .F. ) ;
#229 = FACE_OUTER_BOUND ( 'NONE', #193, .T. ) ;
#230 = DIRECTION ( 'NONE',  ( 1.000000000000000000, 0.000000000000000000, 0.000000000000000000 ) ) ;
#231 = CIRCLE ( 'NONE', #138, 4.000000000000000000 ) ;
#232 = CC_DESIGN_APPROVAL ( #344, ( #325 ) ) ;
#233 = ADVANCED_FACE ( 'NONE', ( #356, #134 ), #221, .F. ) ;
#234 = AXIS2_PLACEMENT_3D ( 'NONE', #347, #57, #155 ) ;
#235 = AXIS2_PLACEMENT_3D ( 'NONE', #277, #177, #230 ) ;
#236 = DIRECTION ( 'NONE',  ( -0.000000000000000000, -0.000000000000000000, -1.000000000000000000 ) ) ;
#237 = APPROVAL ( #198, 'NEURÈENÝ' ) ;
#238 = CARTESIAN_POINT ( 'NONE',  ( 2.600000000000000089, 3.184081677783118191E-16, 0.000000000000000000 ) ) ;
#239 = CARTESIAN_POINT ( 'NONE',  ( 0.000000000000000000, 0.000000000000000000, 5.000000000000000000 ) ) ;
#240 = ORIENTED_EDGE ( 'NONE', *, *, #349, .F. ) ;
#241 = CYLINDRICAL_SURFACE ( 'NONE', #59, 7.000000000000000000 ) ;
#242 = CIRCLE ( 'NONE', #77, 7.000000000000000000 ) ;
#243 = EDGE_CURVE ( 'NONE', #246, #334, #242, .T. ) ;
#244 = CYLINDRICAL_SURFACE ( 'NONE', #253, 7.000000000000000000 ) ;
#245 = DIRECTION ( 'NONE',  ( 1.000000000000000000, 0.000000000000000000, 0.000000000000000000 ) ) ;
#246 = VERTEX_POINT ( 'NONE', #360 ) ;
#247 = CARTESIAN_POINT ( 'NONE',  ( 4.500000000000000888, 0.000000000000000000, 5.000000000000002665 ) ) ;
#248 = PLANE ( 'NONE',  #343 ) ;
#249 = EDGE_LOOP ( 'NONE', ( #274, #311, #10, #108 ) ) ;
#250 = CARTESIAN_POINT ( 'NONE',  ( 0.000000000000000000, 0.000000000000000000, 0.000000000000000000 ) ) ;
#251 = ORIENTED_EDGE ( 'NONE', *, *, #289, .F. ) ;
#252 = APPROVAL_STATUS ( 'not_yet_approved' ) ;
#253 = AXIS2_PLACEMENT_3D ( 'NONE', #216, #328, #339 ) ;
#254 = ORIENTED_EDGE ( 'NONE', *, *, #96, .F. ) ;
#255 = PERSON_AND_ORGANIZATION ( #341, #176 ) ;
#256 = DIRECTION ( 'NONE',  ( 1.000000000000000000, 0.000000000000000000, 0.000000000000000000 ) ) ;
#257 = EDGE_CURVE ( 'NONE', #75, #116, #290, .T. ) ;
#258 = COORDINATED_UNIVERSAL_TIME_OFFSET ( 1, 0, .AHEAD. ) ;
#259 = DIRECTION ( 'NONE',  ( -0.000000000000000000, -0.000000000000000000, -1.000000000000000000 ) ) ;
#260 = CIRCLE ( 'NONE', #219, 4.500000000000000888 ) ;
#261 = DIRECTION ( 'NONE',  ( -0.000000000000000000, -0.000000000000000000, -1.000000000000000000 ) ) ;
#262 = CARTESIAN_POINT ( 'NONE',  ( 0.000000000000000000, 0.000000000000000000, 155.0000000000000000 ) ) ;
#263 = COORDINATED_UNIVERSAL_TIME_OFFSET ( 1, 0, .AHEAD. ) ;
#264 = PERSON_AND_ORGANIZATION_ROLE ( 'classification_officer' ) ;
#265 = EDGE_CURVE ( 'NONE', #47, #334, #329, .T. ) ;
#266 = VERTEX_POINT ( 'NONE', #299 ) ;
#267 = CARTESIAN_POINT ( 'NONE',  ( 4.000000000000000000, 4.898587196589412829E-16, 5.500000000000005329 ) ) ;
#268 = CC_DESIGN_PERSON_AND_ORGANIZATION_ASSIGNMENT ( #312, #83, ( #133 ) ) ;
#269 = FACE_OUTER_BOUND ( 'NONE', #313, .T. ) ;
#270 = ORIENTED_EDGE ( 'NONE', *, *, #117, .F. ) ;
#271 = CARTESIAN_POINT ( 'NONE',  ( 0.000000000000000000, 0.000000000000000000, 5.000000000000000000 ) ) ;
#272 = DIRECTION ( 'NONE',  ( -0.000000000000000000, -0.000000000000000000, -1.000000000000000000 ) ) ;
#273 = CARTESIAN_POINT ( 'NONE',  ( 0.000000000000000000, 0.000000000000000000, 5.000000000000000000 ) ) ;
#274 = ORIENTED_EDGE ( 'NONE', *, *, #185, .F. ) ;
#275 = DIRECTION ( 'NONE',  ( 0.000000000000000000, 0.000000000000000000, 1.000000000000000000 ) ) ;
#276 = ORIENTED_EDGE ( 'NONE', *, *, #333, .T. ) ;
#277 = CARTESIAN_POINT ( 'NONE',  ( 0.000000000000000000, 0.000000000000000000, 155.0000000000000000 ) ) ;
#278 = CIRCLE ( 'NONE', #33, 7.000000000000000000 ) ;
#279 = DIRECTION ( 'NONE',  ( 1.000000000000000000, 0.000000000000000000, 0.000000000000000000 ) ) ;
#280 = ORIENTED_EDGE ( 'NONE', *, *, #289, .T. ) ;
#281 = DIRECTION ( 'NONE',  ( 0.000000000000000000, 0.000000000000000000, 1.000000000000000000 ) ) ;
#282 = EDGE_LOOP ( 'NONE', ( #226, #12, #79, #304 ) ) ;
#283 = CARTESIAN_POINT ( 'NONE',  ( 0.000000000000000000, 0.000000000000000000, 0.000000000000000000 ) ) ;
#284 = VECTOR ( 'NONE', #261, 1000.000000000000000 ) ;
#285 = APPROVAL_PERSON_ORGANIZATION ( #74, #237, #11 ) ;
#286 = CYLINDRICAL_SURFACE ( 'NONE', #103, 4.000000000000000000 ) ;
#287 = CARTESIAN_POINT ( 'NONE',  ( 0.000000000000000000, 0.000000000000000000, 5.500000000000005329 ) ) ;
#288 = EDGE_CURVE ( 'NONE', #301, #220, #225, .T. ) ;
#289 = EDGE_CURVE ( 'NONE', #266, #47, #278, .T. ) ;
#290 = CIRCLE ( 'NONE', #322, 2.600000000000000089 ) ;
#291 = AXIS2_PLACEMENT_3D ( 'NONE', #70, #272, #40 ) ;
#292 = CALENDAR_DATE ( 2022, 10, 7 ) ;
#293 = CARTESIAN_POINT ( 'NONE',  ( 0.000000000000000000, 0.000000000000000000, 155.0000000000000000 ) ) ;
#294 = PERSON_AND_ORGANIZATION_ROLE ( 'design_supplier' ) ;
#295 = CYLINDRICAL_SURFACE ( 'NONE', #149, 2.600000000000000089 ) ;
#296 = DIRECTION ( 'NONE',  ( -1.000000000000000000, 0.000000000000000000, 0.000000000000000000 ) ) ;
#297 = EDGE_CURVE ( 'NONE', #165, #301, #319, .T. ) ;
#298 = CARTESIAN_POINT ( 'NONE',  ( 0.000000000000000000, 0.000000000000000000, 155.0000000000000000 ) ) ;
#299 = CARTESIAN_POINT ( 'NONE',  ( 7.000000000000000000, 8.572527594031473190E-16, 5.000000000000000000 ) ) ;
#300 = APPLICATION_CONTEXT ( 'configuration controlled 3d designs of mechanical parts and assemblies' ) ;
#301 = VERTEX_POINT ( 'NONE', #247 ) ;
#302 = CARTESIAN_POINT ( 'NONE',  ( 4.500000000000000888, 0.000000000000000000, 5.500000000000005329 ) ) ;
#303 = PRODUCT_DEFINITION ( 'NEZNÁMÝ', '', #325, #41 ) ;
#304 = ORIENTED_EDGE ( 'NONE', *, *, #207, .T. ) ;
#305 = DIRECTION ( 'NONE',  ( -0.000000000000000000, -0.000000000000000000, -1.000000000000000000 ) ) ;
#306 = PRODUCT_RELATED_PRODUCT_CATEGORY ( 'detail', '', ( #133 ) ) ;
#307 = EDGE_LOOP ( 'NONE', ( #45, #143 ) ) ;
#308 = CARTESIAN_POINT ( 'NONE',  ( 0.000000000000000000, 0.000000000000000000, 155.0000000000000000 ) ) ;
#309 = CIRCLE ( 'NONE', #234, 0.5000000000000004441 ) ;
#310 = LOCAL_TIME ( 11, 8, 20.00000000000000000, #380 ) ;
#311 = ORIENTED_EDGE ( 'NONE', *, *, #257, .T. ) ;
#312 = PERSON_AND_ORGANIZATION ( #341, #176 ) ;
#313 = EDGE_LOOP ( 'NONE', ( #190, #105, #171, #337 ) ) ;
#314 = ADVANCED_FACE ( 'NONE', ( #269 ), #241, .T. ) ;
#315 = LINE ( 'NONE', #55, #367 ) ;
#316 = COORDINATED_UNIVERSAL_TIME_OFFSET ( 1, 0, .AHEAD. ) ;
#317 = TOROIDAL_SURFACE ( 'NONE', #157, 4.500000000000000888, 0.5000000000000000000 ) ;
#318 = CIRCLE ( 'NONE', #158, 4.000000000000000000 ) ;
#319 = CIRCLE ( 'NONE', #375, 0.5000000000000004441 ) ;
#320 = DIRECTION ( 'NONE',  ( 0.000000000000000000, 0.000000000000000000, 1.000000000000000000 ) ) ;
#321 = VECTOR ( 'NONE', #259, 1000.000000000000000 ) ;
#322 = AXIS2_PLACEMENT_3D ( 'NONE', #95, #102, #131 ) ;
#323 = CARTESIAN_POINT ( 'NONE',  ( 0.000000000000000000, 0.000000000000000000, 155.0000000000000000 ) ) ;
#324 = DATE_AND_TIME ( #181, #310 ) ;
#325 = PRODUCT_DEFINITION_FORMATION_WITH_SPECIFIED_SOURCE ( 'LIBOVOLNÝ', '', #133, .NOT_KNOWN. ) ;
#326 = FACE_OUTER_BOUND ( 'NONE', #37, .T. ) ;
#327 = DIRECTION ( 'NONE',  ( 1.000000000000000000, 0.000000000000000000, -0.000000000000000000 ) ) ;
#328 = DIRECTION ( 'NONE',  ( -0.000000000000000000, -0.000000000000000000, -1.000000000000000000 ) ) ;
#329 = LINE ( 'NONE', #38, #162 ) ;
#330 = AXIS2_PLACEMENT_3D ( 'NONE', #308, #208, #202 ) ;
#331 = EDGE_LOOP ( 'NONE', ( #240, #73 ) ) ;
#332 = DIRECTION ( 'NONE',  ( -0.000000000000000000, -0.000000000000000000, -1.000000000000000000 ) ) ;
#333 = EDGE_CURVE ( 'NONE', #220, #301, #260, .T. ) ;
#334 = VERTEX_POINT ( 'NONE', #99 ) ;
#335 = LINE ( 'NONE', #21, #321 ) ;
#336 = DATE_AND_TIME ( #48, #122 ) ;
#337 = ORIENTED_EDGE ( 'NONE', *, *, #349, .T. ) ;
#338 = CC_DESIGN_DATE_AND_TIME_ASSIGNMENT ( #180, #90, ( #9 ) ) ;
#339 = DIRECTION ( 'NONE',  ( -1.000000000000000000, 0.000000000000000000, 0.000000000000000000 ) ) ;
#340 = ORIENTED_EDGE ( 'NONE', *, *, #142, .F. ) ;
#341 = PERSON ( 'NEURÈENÝ', 'NEURÈENÝ', 'NEURÈENÝ', ('NEURÈENÝ'), ('NEURÈENÝ'), ('NEURÈENÝ') ) ;
#342 = DIRECTION ( 'NONE',  ( 0.000000000000000000, 0.000000000000000000, 1.000000000000000000 ) ) ;
#343 = AXIS2_PLACEMENT_3D ( 'NONE', #35, #164, #24 ) ;
#344 = APPROVAL ( #252, 'NEURÈENÝ' ) ;
#345 = CC_DESIGN_APPROVAL ( #237, ( #303 ) ) ;
#346 = ADVANCED_FACE ( 'NONE', ( #215 ), #244, .T. ) ;
#347 = CARTESIAN_POINT ( 'NONE',  ( -4.500000000000000888, 5.510910596163089556E-16, 5.500000000000005329 ) ) ;
#348 = TOROIDAL_SURFACE ( 'NONE', #15, 4.500000000000000888, 0.5000000000000000000 ) ;
#349 = EDGE_CURVE ( 'NONE', #334, #246, #184, .T. ) ;
#350 = SECURITY_CLASSIFICATION_LEVEL ( 'unclassified' ) ;
#351 = CYLINDRICAL_SURFACE ( 'NONE', #8, 4.000000000000000000 ) ;
#352 = DIRECTION ( 'NONE',  ( 1.000000000000000000, 0.000000000000000000, -0.000000000000000000 ) ) ;
#353 = VERTEX_POINT ( 'NONE', #80 ) ;
#354 = CIRCLE ( 'NONE', #113, 7.000000000000000000 ) ;
#355 = AXIS2_PLACEMENT_3D ( 'NONE', #283, #281, #279 ) ;
#356 = FACE_BOUND ( 'NONE', #307, .T. ) ;
#357 = DIRECTION ( 'NONE',  ( 0.000000000000000000, 0.000000000000000000, 1.000000000000000000 ) ) ;
#358 = ADVANCED_FACE ( 'NONE', ( #120 ), #51, .F. ) ;
#359 = ADVANCED_BREP_SHAPE_REPRESENTATION ( 'f832', ( #81, #355 ), #69 ) ;
#360 = CARTESIAN_POINT ( 'NONE',  ( 7.000000000000000000, 8.572527594031473190E-16, 0.000000000000000000 ) ) ;
#361 = ORIENTED_EDGE ( 'NONE', *, *, #265, .F. ) ;
#362 = DIRECTION ( 'NONE',  ( 0.000000000000000000, 0.000000000000000000, 1.000000000000000000 ) ) ;
#363 = EDGE_LOOP ( 'NONE', ( #141, #167 ) ) ;
#364 = CARTESIAN_POINT ( 'NONE',  ( -2.600000000000000089, 0.000000000000000000, 0.000000000000000000 ) ) ;
#365 = DIRECTION ( 'NONE',  ( 1.000000000000000000, 0.000000000000000000, 0.000000000000000000 ) ) ;
#366 = EDGE_LOOP ( 'NONE', ( #62, #276 ) ) ;
#367 = VECTOR ( 'NONE', #129, 1000.000000000000000 ) ;
#368 = APPROVAL_ROLE ( '' ) ;
#369 = VERTEX_POINT ( 'NONE', #118 ) ;
#370 = FACE_OUTER_BOUND ( 'NONE', #135, .T. ) ;
#371 = EDGE_CURVE ( 'NONE', #116, #75, #146, .T. ) ;
#372 =( NAMED_UNIT ( * ) PLANE_ANGLE_UNIT ( ) SI_UNIT ( $, .RADIAN. ) );
#373 = FACE_OUTER_BOUND ( 'NONE', #282, .T. ) ;
#374 = AXIS2_PLACEMENT_3D ( 'NONE', #298, #275, #160 ) ;
#375 = AXIS2_PLACEMENT_3D ( 'NONE', #302, #2, #136 ) ;
#376 = FACE_OUTER_BOUND ( 'NONE', #94, .T. ) ;
#377 = DIRECTION ( 'NONE',  ( -0.000000000000000000, -0.000000000000000000, -1.000000000000000000 ) ) ;
#378 = SHAPE_DEFINITION_REPRESENTATION ( #5, #359 ) ;
#379 = CARTESIAN_POINT ( 'NONE',  ( -4.000000000000000000, 0.000000000000000000, 155.0000000000000000 ) ) ;
#380 = COORDINATED_UNIVERSAL_TIME_OFFSET ( 1, 0, .AHEAD. ) ;
#381 = FACE_BOUND ( 'NONE', #366, .T. ) ;
ENDSEC;
END-ISO-10303-21;
