ISO-10303-21;
HEADER;
FILE_DESCRIPTION (( 'STEP AP203' ),
    '1' );
FILE_NAME ('8d1d.STEP',
    '2022-07-10T09:05:31',
    ( '' ),
    ( '' ),
    'SwSTEP 2.0',
    'SolidWorks 2019',
    '' );
FILE_SCHEMA (( 'CONFIG_CONTROL_DESIGN' ));
ENDSEC;

DATA;
#1 = VERTEX_POINT ( 'NONE', #18 ) ;
#2 = DIRECTION ( 'NONE',  ( 0.000000000000000000, 0.000000000000000000, -1.000000000000000000 ) ) ;
#3 = APPROVAL ( #26, 'NEURÈENÝ' ) ;
#4 = ORIENTED_EDGE ( 'NONE', *, *, #173, .T. ) ;
#5 = DIRECTION ( 'NONE',  ( -1.000000000000000000, 0.000000000000000000, 0.000000000000000000 ) ) ;
#6 = ORIENTED_EDGE ( 'NONE', *, *, #232, .F. ) ;
#7 = DIRECTION ( 'NONE',  ( -0.000000000000000000, -0.000000000000000000, -1.000000000000000000 ) ) ;
#8 = EDGE_LOOP ( 'NONE', ( #73, #189, #44, #178 ) ) ;
#9 = ADVANCED_FACE ( 'NONE', ( #79 ), #316, .F. ) ;
#10 = CYLINDRICAL_SURFACE ( 'NONE', #211, 5.000000000000000000 ) ;
#11 = VERTEX_POINT ( 'NONE', #283 ) ;
#12 = CARTESIAN_POINT ( 'NONE',  ( 0.000000000000000000, 0.000000000000000000, 5.000000000000000000 ) ) ;
#13 = ORIENTED_EDGE ( 'NONE', *, *, #273, .F. ) ;
#14 = ADVANCED_FACE ( 'NONE', ( #158 ), #363, .T. ) ;
#15 = AXIS2_PLACEMENT_3D ( 'NONE', #296, #175, #121 ) ;
#16 = LOCAL_TIME ( 11, 5, 31.00000000000000000, #284 ) ;
#17 = MANIFOLD_SOLID_BREP ( 'Odebrat vysunutím3', #210 ) ;
#18 = CARTESIAN_POINT ( 'NONE',  ( 3.100000000000000089, 3.796405077356794918E-16, 0.000000000000000000 ) ) ;
#19 = PERSON_AND_ORGANIZATION_ROLE ( 'creator' ) ;
#20 = CARTESIAN_POINT ( 'NONE',  ( 3.100000000000000089, 3.796405077356794918E-16, 130.0000000000000000 ) ) ;
#21 = EDGE_CURVE ( 'NONE', #126, #1, #278, .T. ) ;
#22 = DIRECTION ( 'NONE',  ( 0.000000000000000000, 0.000000000000000000, 1.000000000000000000 ) ) ;
#23 = CIRCLE ( 'NONE', #322, 5.500000000000000000 ) ;
#24 = APPROVAL_DATE_TIME ( #228, #186 ) ;
#25 = DIRECTION ( 'NONE',  ( 1.000000000000000000, 0.000000000000000000, 0.000000000000000000 ) ) ;
#26 = APPROVAL_STATUS ( 'not_yet_approved' ) ;
#27 = APPLICATION_PROTOCOL_DEFINITION ( 'international standard', 'config_control_design', 1994, #180 ) ;
#28 = CARTESIAN_POINT ( 'NONE',  ( -5.000000000000000000, 0.000000000000000000, 130.0000000000000000 ) ) ;
#29 = EDGE_CURVE ( 'NONE', #328, #206, #23, .T. ) ;
#30 = CIRCLE ( 'NONE', #247, 3.100000000000000089 ) ;
#31 = DIRECTION ( 'NONE',  ( 0.000000000000000000, 0.000000000000000000, 1.000000000000000000 ) ) ;
#32 = LOCAL_TIME ( 11, 5, 31.00000000000000000, #196 ) ;
#33 = ORIENTED_EDGE ( 'NONE', *, *, #161, .F. ) ;
#34 = APPLICATION_CONTEXT ( 'configuration controlled 3d designs of mechanical parts and assemblies' ) ;
#35 = ORIENTED_EDGE ( 'NONE', *, *, #179, .T. ) ;
#36 = CC_DESIGN_PERSON_AND_ORGANIZATION_ASSIGNMENT ( #344, #19, ( #253 ) ) ;
#37 = CARTESIAN_POINT ( 'NONE',  ( 0.000000000000000000, 0.000000000000000000, 130.0000000000000000 ) ) ;
#38 = VERTEX_POINT ( 'NONE', #105 ) ;
#39 = ORIENTED_EDGE ( 'NONE', *, *, #380, .F. ) ;
#40 = AXIS2_PLACEMENT_3D ( 'NONE', #315, #317, #55 ) ;
#41 = FACE_BOUND ( 'NONE', #297, .T. ) ;
#42 = ORIENTED_EDGE ( 'NONE', *, *, #179, .F. ) ;
#43 = DIRECTION ( 'NONE',  ( -1.000000000000000000, 0.000000000000000000, 0.000000000000000000 ) ) ;
#44 = ORIENTED_EDGE ( 'NONE', *, *, #59, .T. ) ;
#45 = VECTOR ( 'NONE', #348, 1000.000000000000000 ) ;
#46 = CARTESIAN_POINT ( 'NONE',  ( 0.000000000000000000, 0.000000000000000000, 130.0000000000000000 ) ) ;
#47 = DIRECTION ( 'NONE',  ( -1.000000000000000000, 0.000000000000000000, 0.000000000000000000 ) ) ;
#48 = ADVANCED_FACE ( 'NONE', ( #52 ), #223, .F. ) ;
#49 = ORIENTED_EDGE ( 'NONE', *, *, #213, .T. ) ;
#50 = AXIS2_PLACEMENT_3D ( 'NONE', #256, #373, #43 ) ;
#51 =( LENGTH_UNIT ( ) NAMED_UNIT ( * ) SI_UNIT ( .MILLI., .METRE. ) );
#52 = FACE_OUTER_BOUND ( 'NONE', #225, .T. ) ;
#53 = DIRECTION ( 'NONE',  ( 1.000000000000000000, 0.000000000000000000, 0.000000000000000000 ) ) ;
#54 = COORDINATED_UNIVERSAL_TIME_OFFSET ( 1, 0, .AHEAD. ) ;
#55 = DIRECTION ( 'NONE',  ( 1.000000000000000000, 0.000000000000000000, -0.000000000000000000 ) ) ;
#56 = VECTOR ( 'NONE', #92, 1000.000000000000000 ) ;
#57 = CARTESIAN_POINT ( 'NONE',  ( 0.000000000000000000, 0.000000000000000000, 0.000000000000000000 ) ) ;
#58 = DIRECTION ( 'NONE',  ( 1.000000000000000000, 0.000000000000000000, 0.000000000000000000 ) ) ;
#59 = EDGE_CURVE ( 'NONE', #38, #304, #222, .T. ) ;
#60 = ORIENTED_EDGE ( 'NONE', *, *, #140, .T. ) ;
#61 = CARTESIAN_POINT ( 'NONE',  ( -3.100000000000000089, 0.000000000000000000, 0.000000000000000000 ) ) ;
#62 = VERTEX_POINT ( 'NONE', #162 ) ;
#63 = CC_DESIGN_PERSON_AND_ORGANIZATION_ASSIGNMENT ( #312, #372, ( #128 ) ) ;
#64 = DIRECTION ( 'NONE',  ( 1.000000000000000000, 0.000000000000000000, 0.000000000000000000 ) ) ;
#65 = ORIENTED_EDGE ( 'NONE', *, *, #213, .F. ) ;
#66 = ORIENTED_EDGE ( 'NONE', *, *, #161, .T. ) ;
#67 = DIRECTION ( 'NONE',  ( 0.000000000000000000, -1.000000000000000000, 0.000000000000000000 ) ) ;
#68 = AXIS2_PLACEMENT_3D ( 'NONE', #240, #7, #123 ) ;
#69 = ORIENTED_EDGE ( 'NONE', *, *, #205, .T. ) ;
#70 = DIRECTION ( 'NONE',  ( 0.000000000000000000, 0.000000000000000000, -1.000000000000000000 ) ) ;
#71 = ADVANCED_FACE ( 'NONE', ( #106 ), #275, .F. ) ;
#72 = CARTESIAN_POINT ( 'NONE',  ( 0.000000000000000000, 0.000000000000000000, 0.000000000000000000 ) ) ;
#73 = ORIENTED_EDGE ( 'NONE', *, *, #205, .F. ) ;
#74 = DIRECTION ( 'NONE',  ( 0.000000000000000000, 0.000000000000000000, 1.000000000000000000 ) ) ;
#75 = CIRCLE ( 'NONE', #371, 5.000000000000000000 ) ;
#76 = CC_DESIGN_APPROVAL ( #360, ( #253 ) ) ;
#77 = EDGE_CURVE ( 'NONE', #11, #148, #136, .T. ) ;
#78 = DESIGN_CONTEXT ( 'detailed design', #180, 'design' ) ;
#79 = FACE_OUTER_BOUND ( 'NONE', #321, .T. ) ;
#80 = DIRECTION ( 'NONE',  ( -0.000000000000000000, -0.000000000000000000, -1.000000000000000000 ) ) ;
#81 = EDGE_LOOP ( 'NONE', ( #241, #35, #66, #285 ) ) ;
#82 = AXIS2_PLACEMENT_3D ( 'NONE', #98, #94, #147 ) ;
#83 = PRODUCT_DEFINITION_FORMATION_WITH_SPECIFIED_SOURCE ( 'LIBOVOLNÝ', '', #132, .NOT_KNOWN. ) ;
#84 = CARTESIAN_POINT ( 'NONE',  ( -5.500000000000000000, 6.735557395310442023E-16, 5.500000000000005329 ) ) ;
#85 = PERSON_AND_ORGANIZATION ( #114, #250 ) ;
#86 = CARTESIAN_POINT ( 'NONE',  ( 3.100000000000000089, 3.796405077356794918E-16, 130.0000000000000000 ) ) ;
#87 = PERSON_AND_ORGANIZATION ( #114, #250 ) ;
#88 = VECTOR ( 'NONE', #2, 1000.000000000000000 ) ;
#89 = DATE_TIME_ROLE ( 'creation_date' ) ;
#90 = APPROVAL_PERSON_ORGANIZATION ( #199, #3, #109 ) ;
#91 = VERTEX_POINT ( 'NONE', #345 ) ;
#92 = DIRECTION ( 'NONE',  ( -0.000000000000000000, -0.000000000000000000, -1.000000000000000000 ) ) ;
#93 = EDGE_CURVE ( 'NONE', #1, #218, #120, .T. ) ;
#94 = DIRECTION ( 'NONE',  ( 0.000000000000000000, 0.000000000000000000, 1.000000000000000000 ) ) ;
#95 = VERTEX_POINT ( 'NONE', #142 ) ;
#96 = CARTESIAN_POINT ( 'NONE',  ( -8.000000000000000000, 0.000000000000000000, 5.000000000000000000 ) ) ;
#97 = ORIENTED_EDGE ( 'NONE', *, *, #366, .T. ) ;
#98 = CARTESIAN_POINT ( 'NONE',  ( 0.000000000000000000, 0.000000000000000000, 5.000000000000000000 ) ) ;
#99 = ADVANCED_FACE ( 'NONE', ( #166, #115 ), #143, .F. ) ;
#100 = FACE_OUTER_BOUND ( 'NONE', #185, .T. ) ;
#101 = AXIS2_PLACEMENT_3D ( 'NONE', #183, #181, #236 ) ;
#102 = ORIENTED_EDGE ( 'NONE', *, *, #232, .T. ) ;
#103 = CC_DESIGN_APPROVAL ( #186, ( #83 ) ) ;
#104 = DIRECTION ( 'NONE',  ( 0.000000000000000000, 0.000000000000000000, 1.000000000000000000 ) ) ;
#105 = CARTESIAN_POINT ( 'NONE',  ( 8.000000000000000000, 9.797174393178825657E-16, 0.000000000000000000 ) ) ;
#106 = FACE_OUTER_BOUND ( 'NONE', #355, .T. ) ;
#107 = DATE_TIME_ROLE ( 'classification_date' ) ;
#108 = CARTESIAN_POINT ( 'NONE',  ( 0.000000000000000000, 0.000000000000000000, 0.000000000000000000 ) ) ;
#109 = APPROVAL_ROLE ( '' ) ;
#110 = DATE_AND_TIME ( #258, #16 ) ;
#111 = CARTESIAN_POINT ( 'NONE',  ( 0.000000000000000000, 0.000000000000000000, 130.0000000000000000 ) ) ;
#112 = ADVANCED_FACE ( 'NONE', ( #260, #203 ), #234, .T. ) ;
#113 = DATE_AND_TIME ( #314, #353 ) ;
#114 = PERSON ( 'NEURÈENÝ', 'NEURÈENÝ', 'NEURÈENÝ', ('NEURÈENÝ'), ('NEURÈENÝ'), ('NEURÈENÝ') ) ;
#115 = FACE_OUTER_BOUND ( 'NONE', #238, .T. ) ;
#116 = ORIENTED_EDGE ( 'NONE', *, *, #311, .T. ) ;
#117 = APPROVAL_PERSON_ORGANIZATION ( #163, #186, #376 ) ;
#118 = CARTESIAN_POINT ( 'NONE',  ( 5.000000000000000000, 6.123233995736766282E-16, 130.0000000000000000 ) ) ;
#119 = ORIENTED_EDGE ( 'NONE', *, *, #77, .T. ) ;
#120 = CIRCLE ( 'NONE', #201, 3.100000000000000089 ) ;
#121 = DIRECTION ( 'NONE',  ( 1.000000000000000000, 0.000000000000000000, 0.000000000000000000 ) ) ;
#122 = ORIENTED_EDGE ( 'NONE', *, *, #140, .F. ) ;
#123 = DIRECTION ( 'NONE',  ( -1.000000000000000000, 0.000000000000000000, 0.000000000000000000 ) ) ;
#124 = EDGE_CURVE ( 'NONE', #95, #11, #156, .T. ) ;
#125 = DIRECTION ( 'NONE',  ( 0.000000000000000000, 0.000000000000000000, 1.000000000000000000 ) ) ;
#126 = VERTEX_POINT ( 'NONE', #86 ) ;
#127 = VECTOR ( 'NONE', #354, 1000.000000000000000 ) ;
#128 = SECURITY_CLASSIFICATION ( '', '', #254 ) ;
#129 = EDGE_CURVE ( 'NONE', #304, #38, #167, .T. ) ;
#130 = DIRECTION ( 'NONE',  ( 1.000000000000000000, 0.000000000000000000, 0.000000000000000000 ) ) ;
#131 = DIRECTION ( 'NONE',  ( 0.000000000000000000, 0.000000000000000000, -1.000000000000000000 ) ) ;
#132 = PRODUCT ( '8d1d', '8d1d', '', ( #336 ) ) ;
#133 = CARTESIAN_POINT ( 'NONE',  ( 0.000000000000000000, 0.000000000000000000, 130.0000000000000000 ) ) ;
#134 = CIRCLE ( 'NONE', #263, 8.000000000000000000 ) ;
#135 = EDGE_CURVE ( 'NONE', #91, #38, #319, .T. ) ;
#136 = LINE ( 'NONE', #28, #339 ) ;
#137 = APPROVAL_DATE_TIME ( #113, #360 ) ;
#138 = CYLINDRICAL_SURFACE ( 'NONE', #50, 5.000000000000000000 ) ;
#139 = DIRECTION ( 'NONE',  ( 1.224646799147353207E-16, 1.000000000000000000, -0.000000000000000000 ) ) ;
#140 = EDGE_CURVE ( 'NONE', #218, #1, #30, .T. ) ;
#141 = COORDINATED_UNIVERSAL_TIME_OFFSET ( 1, 0, .AHEAD. ) ;
#142 = CARTESIAN_POINT ( 'NONE',  ( 5.000000000000000000, 6.123233995736766282E-16, 130.0000000000000000 ) ) ;
#143 = PLANE ( 'NONE',  #40 ) ;
#144 = EDGE_CURVE ( 'NONE', #148, #206, #227, .T. ) ;
#145 = AXIS2_PLACEMENT_3D ( 'NONE', #271, #125, #357 ) ;
#146 = CC_DESIGN_APPROVAL ( #3, ( #128 ) ) ;
#147 = DIRECTION ( 'NONE',  ( 1.000000000000000000, 0.000000000000000000, 0.000000000000000000 ) ) ;
#148 = VERTEX_POINT ( 'NONE', #197 ) ;
#149 = AXIS2_PLACEMENT_3D ( 'NONE', #159, #193, #130 ) ;
#150 = LOCAL_TIME ( 11, 5, 31.00000000000000000, #141 ) ;
#151 = EDGE_LOOP ( 'NONE', ( #349, #65, #116, #324 ) ) ;
#152 = PLANE ( 'NONE',  #145 ) ;
#153 = ORIENTED_EDGE ( 'NONE', *, *, #59, .F. ) ;
#154 = PRODUCT_DEFINITION_SHAPE ( 'NONE', 'NONE',  #253 ) ;
#155 = CARTESIAN_POINT ( 'NONE',  ( -3.100000000000000089, 0.000000000000000000, 130.0000000000000000 ) ) ;
#156 = CIRCLE ( 'NONE', #306, 5.000000000000000000 ) ;
#157 = ORIENTED_EDGE ( 'NONE', *, *, #21, .T. ) ;
#158 = FACE_OUTER_BOUND ( 'NONE', #8, .T. ) ;
#159 = CARTESIAN_POINT ( 'NONE',  ( 0.000000000000000000, 0.000000000000000000, 5.500000000000005329 ) ) ;
#160 = AXIS2_PLACEMENT_3D ( 'NONE', #37, #70, #5 ) ;
#161 = EDGE_CURVE ( 'NONE', #62, #148, #75, .T. ) ;
#162 = CARTESIAN_POINT ( 'NONE',  ( 5.000000000000000000, 6.123233995736766282E-16, 5.500000000000005329 ) ) ;
#163 = PERSON_AND_ORGANIZATION ( #114, #250 ) ;
#164 = FACE_OUTER_BOUND ( 'NONE', #81, .T. ) ;
#165 = ADVANCED_FACE ( 'NONE', ( #164 ), #138, .T. ) ;
#166 = FACE_BOUND ( 'NONE', #307, .T. ) ;
#167 = CIRCLE ( 'NONE', #248, 8.000000000000000000 ) ;
#168 = APPROVAL_ROLE ( '' ) ;
#169 = DIRECTION ( 'NONE',  ( -0.000000000000000000, -0.000000000000000000, -1.000000000000000000 ) ) ;
#170 = CALENDAR_DATE ( 2022, 10, 7 ) ;
#171 = ORIENTED_EDGE ( 'NONE', *, *, #93, .T. ) ;
#172 = DIRECTION ( 'NONE',  ( 1.000000000000000000, 0.000000000000000000, -0.000000000000000000 ) ) ;
#173 = EDGE_CURVE ( 'NONE', #333, #218, #177, .T. ) ;
#174 = AXIS2_PLACEMENT_3D ( 'NONE', #332, #243, #359 ) ;
#175 = DIRECTION ( 'NONE',  ( 0.000000000000000000, 0.000000000000000000, 1.000000000000000000 ) ) ;
#176 = ORIENTED_EDGE ( 'NONE', *, *, #21, .F. ) ;
#177 = LINE ( 'NONE', #217, #88 ) ;
#178 = ORIENTED_EDGE ( 'NONE', *, *, #311, .F. ) ;
#179 = EDGE_CURVE ( 'NONE', #95, #62, #350, .T. ) ;
#180 = APPLICATION_CONTEXT ( 'configuration controlled 3d designs of mechanical parts and assemblies' ) ;
#181 = DIRECTION ( 'NONE',  ( -0.000000000000000000, -0.000000000000000000, -1.000000000000000000 ) ) ;
#182 = CC_DESIGN_SECURITY_CLASSIFICATION ( #128, ( #83 ) ) ;
#183 = CARTESIAN_POINT ( 'NONE',  ( 0.000000000000000000, 0.000000000000000000, 5.000000000000000000 ) ) ;
#184 = EDGE_LOOP ( 'NONE', ( #42, #291, #119, #268 ) ) ;
#185 = EDGE_LOOP ( 'NONE', ( #176, #102, #4, #60 ) ) ;
#186 = APPROVAL ( #286, 'NEURÈENÝ' ) ;
#187 = ORIENTED_EDGE ( 'NONE', *, *, #380, .T. ) ;
#188 = AXIS2_PLACEMENT_3D ( 'NONE', #200, #313, #172 ) ;
#189 = ORIENTED_EDGE ( 'NONE', *, *, #135, .T. ) ;
#190 =( GEOMETRIC_REPRESENTATION_CONTEXT ( 3 ) GLOBAL_UNCERTAINTY_ASSIGNED_CONTEXT ( ( #192 ) ) GLOBAL_UNIT_ASSIGNED_CONTEXT ( ( #51, #362, #274 ) ) REPRESENTATION_CONTEXT ( 'NONE', 'WORKASPACE' ) );
#191 = DIRECTION ( 'NONE',  ( 0.000000000000000000, 0.000000000000000000, -1.000000000000000000 ) ) ;
#192 = UNCERTAINTY_MEASURE_WITH_UNIT (LENGTH_MEASURE( 1.000000000000000082E-05 ), #51, 'distance_accuracy_value', 'NONE');
#193 = DIRECTION ( 'NONE',  ( 0.000000000000000000, 0.000000000000000000, 1.000000000000000000 ) ) ;
#194 = DIRECTION ( 'NONE',  ( 1.000000000000000000, 0.000000000000000000, 0.000000000000000000 ) ) ;
#195 = AXIS2_PLACEMENT_3D ( 'NONE', #224, #74, #337 ) ;
#196 = COORDINATED_UNIVERSAL_TIME_OFFSET ( 1, 0, .AHEAD. ) ;
#197 = CARTESIAN_POINT ( 'NONE',  ( -5.000000000000000000, 0.000000000000000000, 5.500000000000005329 ) ) ;
#198 = CC_DESIGN_DATE_AND_TIME_ASSIGNMENT ( #255, #107, ( #128 ) ) ;
#199 = PERSON_AND_ORGANIZATION ( #114, #250 ) ;
#200 = CARTESIAN_POINT ( 'NONE',  ( 0.000000000000000000, 0.000000000000000000, 130.0000000000000000 ) ) ;
#201 = AXIS2_PLACEMENT_3D ( 'NONE', #108, #262, #58 ) ;
#202 = CALENDAR_DATE ( 2022, 10, 7 ) ;
#203 = FACE_OUTER_BOUND ( 'NONE', #267, .T. ) ;
#204 = SHAPE_DEFINITION_REPRESENTATION ( #154, #207 ) ;
#205 = EDGE_CURVE ( 'NONE', #91, #244, #134, .T. ) ;
#206 = VERTEX_POINT ( 'NONE', #215 ) ;
#207 = ADVANCED_BREP_SHAPE_REPRESENTATION ( '8d1d', ( #17, #264 ), #190 ) ;
#208 = DIRECTION ( 'NONE',  ( 0.000000000000000000, 0.000000000000000000, 1.000000000000000000 ) ) ;
#209 = ORIENTED_EDGE ( 'NONE', *, *, #29, .F. ) ;
#210 = CLOSED_SHELL ( 'NONE', ( #48, #9, #165, #14, #246, #320, #99, #356, #112, #71, #277 ) ) ;
#211 = AXIS2_PLACEMENT_3D ( 'NONE', #220, #80, #309 ) ;
#212 = CARTESIAN_POINT ( 'NONE',  ( -8.000000000000000000, 0.000000000000000000, 0.000000000000000000 ) ) ;
#213 = EDGE_CURVE ( 'NONE', #244, #91, #346, .T. ) ;
#214 = FACE_OUTER_BOUND ( 'NONE', #351, .T. ) ;
#215 = CARTESIAN_POINT ( 'NONE',  ( -5.500000000000000000, 6.735557395310442023E-16, 5.000000000000002665 ) ) ;
#216 = AXIS2_PLACEMENT_3D ( 'NONE', #84, #139, #229 ) ;
#217 = CARTESIAN_POINT ( 'NONE',  ( -3.100000000000000089, 0.000000000000000000, 130.0000000000000000 ) ) ;
#218 = VERTEX_POINT ( 'NONE', #61 ) ;
#219 = DIRECTION ( 'NONE',  ( -0.000000000000000000, -0.000000000000000000, -1.000000000000000000 ) ) ;
#220 = CARTESIAN_POINT ( 'NONE',  ( 0.000000000000000000, 0.000000000000000000, 130.0000000000000000 ) ) ;
#221 = DIRECTION ( 'NONE',  ( 0.000000000000000000, 0.000000000000000000, 1.000000000000000000 ) ) ;
#222 = CIRCLE ( 'NONE', #300, 8.000000000000000000 ) ;
#223 = CYLINDRICAL_SURFACE ( 'NONE', #239, 3.100000000000000089 ) ;
#224 = CARTESIAN_POINT ( 'NONE',  ( 0.000000000000000000, 0.000000000000000000, 5.500000000000005329 ) ) ;
#225 = EDGE_LOOP ( 'NONE', ( #187, #157, #171, #318 ) ) ;
#226 = APPROVAL_STATUS ( 'not_yet_approved' ) ;
#227 = CIRCLE ( 'NONE', #216, 0.5000000000000004441 ) ;
#228 = DATE_AND_TIME ( #202, #150 ) ;
#229 = DIRECTION ( 'NONE',  ( -1.000000000000000000, 1.224646799147351482E-16, 0.000000000000000000 ) ) ;
#230 = ORIENTED_EDGE ( 'NONE', *, *, #144, .T. ) ;
#231 = CIRCLE ( 'NONE', #280, 0.5000000000000004441 ) ;
#232 = EDGE_CURVE ( 'NONE', #126, #333, #257, .T. ) ;
#233 = APPROVAL_DATE_TIME ( #261, #3 ) ;
#234 = PLANE ( 'NONE',  #188 ) ;
#235 = ORIENTED_EDGE ( 'NONE', *, *, #29, .T. ) ;
#236 = DIRECTION ( 'NONE',  ( 1.000000000000000000, 0.000000000000000000, 0.000000000000000000 ) ) ;
#237 = CC_DESIGN_PERSON_AND_ORGANIZATION_ASSIGNMENT ( #281, #251, ( #132 ) ) ;
#238 = EDGE_LOOP ( 'NONE', ( #331, #153 ) ) ;
#239 = AXIS2_PLACEMENT_3D ( 'NONE', #133, #191, #310 ) ;
#240 = CARTESIAN_POINT ( 'NONE',  ( 0.000000000000000000, 0.000000000000000000, 5.000000000000000000 ) ) ;
#241 = ORIENTED_EDGE ( 'NONE', *, *, #124, .F. ) ;
#242 = CC_DESIGN_DATE_AND_TIME_ASSIGNMENT ( #110, #89, ( #253 ) ) ;
#243 = DIRECTION ( 'NONE',  ( 0.000000000000000000, 0.000000000000000000, 1.000000000000000000 ) ) ;
#244 = VERTEX_POINT ( 'NONE', #96 ) ;
#245 = FACE_OUTER_BOUND ( 'NONE', #184, .T. ) ;
#246 = ADVANCED_FACE ( 'NONE', ( #327 ), #266, .T. ) ;
#247 = AXIS2_PLACEMENT_3D ( 'NONE', #375, #169, #341 ) ;
#248 = AXIS2_PLACEMENT_3D ( 'NONE', #57, #378, #25 ) ;
#249 = DIRECTION ( 'NONE',  ( 0.000000000000000000, 0.000000000000000000, 1.000000000000000000 ) ) ;
#250 = ORGANIZATION ( 'NEURÈENÝ', 'NEURÈENÝ', '' ) ;
#251 = PERSON_AND_ORGANIZATION_ROLE ( 'design_owner' ) ;
#252 = DIRECTION ( 'NONE',  ( -0.000000000000000000, -0.000000000000000000, -1.000000000000000000 ) ) ;
#253 = PRODUCT_DEFINITION ( 'NEZNÁMÝ', '', #83, #78 ) ;
#254 = SECURITY_CLASSIFICATION_LEVEL ( 'unclassified' ) ;
#255 = DATE_AND_TIME ( #170, #269 ) ;
#256 = CARTESIAN_POINT ( 'NONE',  ( 0.000000000000000000, 0.000000000000000000, 130.0000000000000000 ) ) ;
#257 = CIRCLE ( 'NONE', #15, 3.100000000000000089 ) ;
#258 = CALENDAR_DATE ( 2022, 10, 7 ) ;
#259 = PERSON_AND_ORGANIZATION ( #114, #250 ) ;
#260 = FACE_BOUND ( 'NONE', #299, .T. ) ;
#261 = DATE_AND_TIME ( #289, #32 ) ;
#262 = DIRECTION ( 'NONE',  ( -0.000000000000000000, -0.000000000000000000, -1.000000000000000000 ) ) ;
#263 = AXIS2_PLACEMENT_3D ( 'NONE', #270, #208, #64 ) ;
#264 = AXIS2_PLACEMENT_3D ( 'NONE', #72, #221, #279 ) ;
#265 = CC_DESIGN_PERSON_AND_ORGANIZATION_ASSIGNMENT ( #259, #340, ( #83 ) ) ;
#266 = CYLINDRICAL_SURFACE ( 'NONE', #68, 8.000000000000000000 ) ;
#267 = EDGE_LOOP ( 'NONE', ( #97, #305 ) ) ;
#268 = ORIENTED_EDGE ( 'NONE', *, *, #343, .T. ) ;
#269 = LOCAL_TIME ( 11, 5, 31.00000000000000000, #369 ) ;
#270 = CARTESIAN_POINT ( 'NONE',  ( 0.000000000000000000, 0.000000000000000000, 5.000000000000000000 ) ) ;
#271 = CARTESIAN_POINT ( 'NONE',  ( 0.000000000000000000, 0.000000000000000000, 5.000000000000000000 ) ) ;
#272 = ORIENTED_EDGE ( 'NONE', *, *, #93, .F. ) ;
#273 = EDGE_CURVE ( 'NONE', #62, #328, #231, .T. ) ;
#274 =( NAMED_UNIT ( * ) SI_UNIT ( $, .STERADIAN. ) SOLID_ANGLE_UNIT ( ) );
#275 = TOROIDAL_SURFACE ( 'NONE', #334, 5.500000000000000000, 0.5000000000000000000 ) ;
#276 = DIRECTION ( 'NONE',  ( 1.000000000000000000, 0.000000000000000000, 0.000000000000000000 ) ) ;
#277 = ADVANCED_FACE ( 'NONE', ( #100 ), #330, .F. ) ;
#278 = LINE ( 'NONE', #20, #377 ) ;
#279 = DIRECTION ( 'NONE',  ( 1.000000000000000000, 0.000000000000000000, 0.000000000000000000 ) ) ;
#280 = AXIS2_PLACEMENT_3D ( 'NONE', #381, #67, #325 ) ;
#281 = PERSON_AND_ORGANIZATION ( #114, #250 ) ;
#282 = APPROVAL_PERSON_ORGANIZATION ( #85, #360, #168 ) ;
#283 = CARTESIAN_POINT ( 'NONE',  ( -5.000000000000000000, 0.000000000000000000, 130.0000000000000000 ) ) ;
#284 = COORDINATED_UNIVERSAL_TIME_OFFSET ( 1, 0, .AHEAD. ) ;
#285 = ORIENTED_EDGE ( 'NONE', *, *, #77, .F. ) ;
#286 = APPROVAL_STATUS ( 'not_yet_approved' ) ;
#287 = DIRECTION ( 'NONE',  ( 1.000000000000000000, 0.000000000000000000, 0.000000000000000000 ) ) ;
#288 = PERSON_AND_ORGANIZATION_ROLE ( 'design_supplier' ) ;
#289 = CALENDAR_DATE ( 2022, 10, 7 ) ;
#290 = DIRECTION ( 'NONE',  ( -0.000000000000000000, -0.000000000000000000, -1.000000000000000000 ) ) ;
#291 = ORIENTED_EDGE ( 'NONE', *, *, #366, .F. ) ;
#292 = DIRECTION ( 'NONE',  ( 0.000000000000000000, 0.000000000000000000, 1.000000000000000000 ) ) ;
#293 = CIRCLE ( 'NONE', #174, 5.000000000000000000 ) ;
#294 = CC_DESIGN_PERSON_AND_ORGANIZATION_ASSIGNMENT ( #87, #288, ( #83 ) ) ;
#295 = ORIENTED_EDGE ( 'NONE', *, *, #273, .T. ) ;
#296 = CARTESIAN_POINT ( 'NONE',  ( 0.000000000000000000, 0.000000000000000000, 130.0000000000000000 ) ) ;
#297 = EDGE_LOOP ( 'NONE', ( #235, #361 ) ) ;
#298 = LINE ( 'NONE', #301, #127 ) ;
#299 = EDGE_LOOP ( 'NONE', ( #39, #6 ) ) ;
#300 = AXIS2_PLACEMENT_3D ( 'NONE', #368, #249, #365 ) ;
#301 = CARTESIAN_POINT ( 'NONE',  ( -8.000000000000000000, 0.000000000000000000, 5.000000000000000000 ) ) ;
#302 = EDGE_CURVE ( 'NONE', #206, #328, #329, .T. ) ;
#303 = ORIENTED_EDGE ( 'NONE', *, *, #302, .F. ) ;
#304 = VERTEX_POINT ( 'NONE', #212 ) ;
#305 = ORIENTED_EDGE ( 'NONE', *, *, #124, .T. ) ;
#306 = AXIS2_PLACEMENT_3D ( 'NONE', #111, #292, #287 ) ;
#307 = EDGE_LOOP ( 'NONE', ( #122, #272 ) ) ;
#308 = CIRCLE ( 'NONE', #195, 5.000000000000000000 ) ;
#309 = DIRECTION ( 'NONE',  ( -1.000000000000000000, 0.000000000000000000, 0.000000000000000000 ) ) ;
#310 = DIRECTION ( 'NONE',  ( -1.000000000000000000, 0.000000000000000000, 0.000000000000000000 ) ) ;
#311 = EDGE_CURVE ( 'NONE', #244, #304, #298, .T. ) ;
#312 = PERSON_AND_ORGANIZATION ( #114, #250 ) ;
#313 = DIRECTION ( 'NONE',  ( 0.000000000000000000, 0.000000000000000000, 1.000000000000000000 ) ) ;
#314 = CALENDAR_DATE ( 2022, 10, 7 ) ;
#315 = CARTESIAN_POINT ( 'NONE',  ( 0.000000000000000000, 0.000000000000000000, 0.000000000000000000 ) ) ;
#316 = TOROIDAL_SURFACE ( 'NONE', #149, 5.500000000000000000, 0.5000000000000000000 ) ;
#317 = DIRECTION ( 'NONE',  ( 0.000000000000000000, 0.000000000000000000, 1.000000000000000000 ) ) ;
#318 = ORIENTED_EDGE ( 'NONE', *, *, #173, .F. ) ;
#319 = LINE ( 'NONE', #347, #56 ) ;
#320 = ADVANCED_FACE ( 'NONE', ( #41, #214 ), #152, .T. ) ;
#321 = EDGE_LOOP ( 'NONE', ( #358, #230, #209, #13 ) ) ;
#322 = AXIS2_PLACEMENT_3D ( 'NONE', #335, #252, #194 ) ;
#323 = AXIS2_PLACEMENT_3D ( 'NONE', #46, #104, #276 ) ;
#324 = ORIENTED_EDGE ( 'NONE', *, *, #129, .T. ) ;
#325 = DIRECTION ( 'NONE',  ( 0.000000000000000000, 0.000000000000000000, -1.000000000000000000 ) ) ;
#326 = ORIENTED_EDGE ( 'NONE', *, *, #144, .F. ) ;
#327 = FACE_OUTER_BOUND ( 'NONE', #151, .T. ) ;
#328 = VERTEX_POINT ( 'NONE', #367 ) ;
#329 = CIRCLE ( 'NONE', #101, 5.500000000000000000 ) ;
#330 = CYLINDRICAL_SURFACE ( 'NONE', #160, 3.100000000000000089 ) ;
#331 = ORIENTED_EDGE ( 'NONE', *, *, #129, .F. ) ;
#332 = CARTESIAN_POINT ( 'NONE',  ( 0.000000000000000000, 0.000000000000000000, 130.0000000000000000 ) ) ;
#333 = VERTEX_POINT ( 'NONE', #155 ) ;
#334 = AXIS2_PLACEMENT_3D ( 'NONE', #370, #31, #342 ) ;
#335 = CARTESIAN_POINT ( 'NONE',  ( 0.000000000000000000, 0.000000000000000000, 5.000000000000000000 ) ) ;
#336 = MECHANICAL_CONTEXT ( 'NONE', #34, 'mechanical' ) ;
#337 = DIRECTION ( 'NONE',  ( 1.000000000000000000, 0.000000000000000000, 0.000000000000000000 ) ) ;
#338 = PRODUCT_RELATED_PRODUCT_CATEGORY ( 'detail', '', ( #132 ) ) ;
#339 = VECTOR ( 'NONE', #290, 1000.000000000000000 ) ;
#340 = PERSON_AND_ORGANIZATION_ROLE ( 'creator' ) ;
#341 = DIRECTION ( 'NONE',  ( 1.000000000000000000, 0.000000000000000000, 0.000000000000000000 ) ) ;
#342 = DIRECTION ( 'NONE',  ( 1.000000000000000000, 0.000000000000000000, 0.000000000000000000 ) ) ;
#343 = EDGE_CURVE ( 'NONE', #148, #62, #308, .T. ) ;
#344 = PERSON_AND_ORGANIZATION ( #114, #250 ) ;
#345 = CARTESIAN_POINT ( 'NONE',  ( 8.000000000000000000, 9.797174393178825657E-16, 5.000000000000000000 ) ) ;
#346 = CIRCLE ( 'NONE', #82, 8.000000000000000000 ) ;
#347 = CARTESIAN_POINT ( 'NONE',  ( 8.000000000000000000, 9.797174393178825657E-16, 5.000000000000000000 ) ) ;
#348 = DIRECTION ( 'NONE',  ( -0.000000000000000000, -0.000000000000000000, -1.000000000000000000 ) ) ;
#349 = ORIENTED_EDGE ( 'NONE', *, *, #135, .F. ) ;
#350 = LINE ( 'NONE', #118, #45 ) ;
#351 = EDGE_LOOP ( 'NONE', ( #49, #69 ) ) ;
#352 = AXIS2_PLACEMENT_3D ( 'NONE', #12, #219, #47 ) ;
#353 = LOCAL_TIME ( 11, 5, 31.00000000000000000, #54 ) ;
#354 = DIRECTION ( 'NONE',  ( -0.000000000000000000, -0.000000000000000000, -1.000000000000000000 ) ) ;
#355 = EDGE_LOOP ( 'NONE', ( #326, #33, #295, #303 ) ) ;
#356 = ADVANCED_FACE ( 'NONE', ( #245 ), #10, .T. ) ;
#357 = DIRECTION ( 'NONE',  ( 1.000000000000000000, 0.000000000000000000, -0.000000000000000000 ) ) ;
#358 = ORIENTED_EDGE ( 'NONE', *, *, #343, .F. ) ;
#359 = DIRECTION ( 'NONE',  ( 1.000000000000000000, 0.000000000000000000, 0.000000000000000000 ) ) ;
#360 = APPROVAL ( #226, 'NEURÈENÝ' ) ;
#361 = ORIENTED_EDGE ( 'NONE', *, *, #302, .T. ) ;
#362 =( NAMED_UNIT ( * ) PLANE_ANGLE_UNIT ( ) SI_UNIT ( $, .RADIAN. ) );
#363 = CYLINDRICAL_SURFACE ( 'NONE', #352, 8.000000000000000000 ) ;
#364 = APPLICATION_PROTOCOL_DEFINITION ( 'international standard', 'config_control_design', 1994, #34 ) ;
#365 = DIRECTION ( 'NONE',  ( 1.000000000000000000, 0.000000000000000000, 0.000000000000000000 ) ) ;
#366 = EDGE_CURVE ( 'NONE', #11, #95, #293, .T. ) ;
#367 = CARTESIAN_POINT ( 'NONE',  ( 5.500000000000000000, 0.000000000000000000, 5.000000000000002665 ) ) ;
#368 = CARTESIAN_POINT ( 'NONE',  ( 0.000000000000000000, 0.000000000000000000, 0.000000000000000000 ) ) ;
#369 = COORDINATED_UNIVERSAL_TIME_OFFSET ( 1, 0, .AHEAD. ) ;
#370 = CARTESIAN_POINT ( 'NONE',  ( 0.000000000000000000, 0.000000000000000000, 5.500000000000005329 ) ) ;
#371 = AXIS2_PLACEMENT_3D ( 'NONE', #374, #22, #53 ) ;
#372 = PERSON_AND_ORGANIZATION_ROLE ( 'classification_officer' ) ;
#373 = DIRECTION ( 'NONE',  ( -0.000000000000000000, -0.000000000000000000, -1.000000000000000000 ) ) ;
#374 = CARTESIAN_POINT ( 'NONE',  ( 0.000000000000000000, 0.000000000000000000, 5.500000000000005329 ) ) ;
#375 = CARTESIAN_POINT ( 'NONE',  ( 0.000000000000000000, 0.000000000000000000, 0.000000000000000000 ) ) ;
#376 = APPROVAL_ROLE ( '' ) ;
#377 = VECTOR ( 'NONE', #131, 1000.000000000000000 ) ;
#378 = DIRECTION ( 'NONE',  ( 0.000000000000000000, 0.000000000000000000, 1.000000000000000000 ) ) ;
#379 = CIRCLE ( 'NONE', #323, 3.100000000000000089 ) ;
#380 = EDGE_CURVE ( 'NONE', #333, #126, #379, .T. ) ;
#381 = CARTESIAN_POINT ( 'NONE',  ( 5.500000000000000000, 0.000000000000000000, 5.500000000000005329 ) ) ;
ENDSEC;
END-ISO-10303-21;
