ISO-10303-21;
HEADER;
FILE_DESCRIPTION (( 'STEP AP203' ),
    '1' );
FILE_NAME ('8958.STEP',
    '2022-07-10T09:16:46',
    ( '' ),
    ( '' ),
    'SwSTEP 2.0',
    'SolidWorks 2019',
    '' );
FILE_SCHEMA (( 'CONFIG_CONTROL_DESIGN' ));
ENDSEC;

DATA;
#1 = VECTOR ( 'NONE', #81, 1000.000000000000000 ) ;
#2 = AXIS2_PLACEMENT_3D ( 'NONE', #318, #170, #274 ) ;
#3 = CARTESIAN_POINT ( 'NONE',  ( 0.000000000000000000, 0.000000000000000000, 78.00000000000000000 ) ) ;
#4 = DIRECTION ( 'NONE',  ( 0.000000000000000000, 0.000000000000000000, 1.000000000000000000 ) ) ;
#5 = FACE_OUTER_BOUND ( 'NONE', #348, .T. ) ;
#6 = FACE_OUTER_BOUND ( 'NONE', #79, .T. ) ;
#7 = AXIS2_PLACEMENT_3D ( 'NONE', #288, #89, #335 ) ;
#8 = TOROIDAL_SURFACE ( 'NONE', #121, 2.799999999999999822, 0.2999999999999999889 ) ;
#9 = DIRECTION ( 'NONE',  ( 0.000000000000000000, 0.000000000000000000, 1.000000000000000000 ) ) ;
#10 = CYLINDRICAL_SURFACE ( 'NONE', #250, 2.500000000000000000 ) ;
#11 = EDGE_CURVE ( 'NONE', #228, #322, #365, .T. ) ;
#12 = CARTESIAN_POINT ( 'NONE',  ( 1.600000000000000089, 1.959434878635765230E-16, 78.00000000000000000 ) ) ;
#13 = ORIENTED_EDGE ( 'NONE', *, *, #94, .T. ) ;
#14 = ORIENTED_EDGE ( 'NONE', *, *, #167, .F. ) ;
#15 = VECTOR ( 'NONE', #306, 1000.000000000000000 ) ;
#16 = CALENDAR_DATE ( 2022, 10, 7 ) ;
#17 = EDGE_CURVE ( 'NONE', #295, #19, #49, .T. ) ;
#18 = DIRECTION ( 'NONE',  ( 0.000000000000000000, 0.000000000000000000, 1.000000000000000000 ) ) ;
#19 = VERTEX_POINT ( 'NONE', #115 ) ;
#20 = APPROVAL_DATE_TIME ( #201, #120 ) ;
#21 = ORIENTED_EDGE ( 'NONE', *, *, #291, .F. ) ;
#22 = DIRECTION ( 'NONE',  ( 1.000000000000000000, 0.000000000000000000, 0.000000000000000000 ) ) ;
#23 = SECURITY_CLASSIFICATION ( '', '', #355 ) ;
#24 = ORIENTED_EDGE ( 'NONE', *, *, #229, .T. ) ;
#25 = CALENDAR_DATE ( 2022, 10, 7 ) ;
#26 = VERTEX_POINT ( 'NONE', #378 ) ;
#27 = CARTESIAN_POINT ( 'NONE',  ( 0.000000000000000000, 0.000000000000000000, 78.00000000000000000 ) ) ;
#28 = PLANE ( 'NONE',  #232 ) ;
#29 = DATE_AND_TIME ( #84, #257 ) ;
#30 = AXIS2_PLACEMENT_3D ( 'NONE', #242, #180, #354 ) ;
#31 = APPROVAL_PERSON_ORGANIZATION ( #123, #271, #324 ) ;
#32 = ADVANCED_FACE ( 'NONE', ( #299, #244 ), #28, .T. ) ;
#33 = ORIENTED_EDGE ( 'NONE', *, *, #94, .F. ) ;
#34 = APPROVAL_DATE_TIME ( #216, #271 ) ;
#35 = FACE_OUTER_BOUND ( 'NONE', #73, .T. ) ;
#36 = DIRECTION ( 'NONE',  ( 0.000000000000000000, 0.000000000000000000, -1.000000000000000000 ) ) ;
#37 = DIRECTION ( 'NONE',  ( 0.000000000000000000, 0.000000000000000000, 1.000000000000000000 ) ) ;
#38 = PERSON_AND_ORGANIZATION_ROLE ( 'creator' ) ;
#39 = CC_DESIGN_APPROVAL ( #271, ( #23 ) ) ;
#40 = LINE ( 'NONE', #359, #15 ) ;
#41 = ADVANCED_FACE ( 'NONE', ( #212 ), #272, .T. ) ;
#42 = AXIS2_PLACEMENT_3D ( 'NONE', #311, #357, #189 ) ;
#43 = CIRCLE ( 'NONE', #159, 1.600000000000000089 ) ;
#44 = FACE_OUTER_BOUND ( 'NONE', #344, .T. ) ;
#45 = PLANE ( 'NONE',  #338 ) ;
#46 = CC_DESIGN_PERSON_AND_ORGANIZATION_ASSIGNMENT ( #262, #375, ( #112 ) ) ;
#47 = ORIENTED_EDGE ( 'NONE', *, *, #17, .F. ) ;
#48 = CIRCLE ( 'NONE', #327, 5.000000000000000000 ) ;
#49 = LINE ( 'NONE', #239, #1 ) ;
#50 = AXIS2_PLACEMENT_3D ( 'NONE', #60, #188, #308 ) ;
#51 = AXIS2_PLACEMENT_3D ( 'NONE', #286, #9, #97 ) ;
#52 = ORIENTED_EDGE ( 'NONE', *, *, #167, .T. ) ;
#53 = ORIENTED_EDGE ( 'NONE', *, *, #102, .F. ) ;
#54 = CARTESIAN_POINT ( 'NONE',  ( -1.600000000000000089, 0.000000000000000000, 78.00000000000000000 ) ) ;
#55 = ADVANCED_FACE ( 'NONE', ( #83 ), #106, .F. ) ;
#56 = ORIENTED_EDGE ( 'NONE', *, *, #291, .T. ) ;
#57 = AXIS2_PLACEMENT_3D ( 'NONE', #27, #258, #367 ) ;
#58 = CARTESIAN_POINT ( 'NONE',  ( 0.000000000000000000, 0.000000000000000000, 78.00000000000000000 ) ) ;
#59 = CARTESIAN_POINT ( 'NONE',  ( -2.799999999999999822, 3.429011037612588783E-16, 3.299999999999997158 ) ) ;
#60 = CARTESIAN_POINT ( 'NONE',  ( 0.000000000000000000, 0.000000000000000000, 78.00000000000000000 ) ) ;
#61 = DIRECTION ( 'NONE',  ( 1.000000000000000000, 0.000000000000000000, 0.000000000000000000 ) ) ;
#62 = CYLINDRICAL_SURFACE ( 'NONE', #158, 5.000000000000000000 ) ;
#63 = CARTESIAN_POINT ( 'NONE',  ( -2.799999999999999822, 3.429011037612589276E-16, 2.999999999999998668 ) ) ;
#64 = EDGE_CURVE ( 'NONE', #110, #295, #360, .T. ) ;
#65 = CARTESIAN_POINT ( 'NONE',  ( 5.000000000000000000, 6.123233995736766282E-16, 3.000000000000000000 ) ) ;
#66 = DIRECTION ( 'NONE',  ( 0.000000000000000000, 0.000000000000000000, -1.000000000000000000 ) ) ;
#67 = DIRECTION ( 'NONE',  ( 1.000000000000000000, 0.000000000000000000, 0.000000000000000000 ) ) ;
#68 = CIRCLE ( 'NONE', #337, 0.2999999999999999334 ) ;
#69 = DIRECTION ( 'NONE',  ( -1.000000000000000000, 0.000000000000000000, 0.000000000000000000 ) ) ;
#70 = ORIENTED_EDGE ( 'NONE', *, *, #265, .F. ) ;
#71 = EDGE_CURVE ( 'NONE', #351, #322, #151, .T. ) ;
#72 = APPROVAL_STATUS ( 'not_yet_approved' ) ;
#73 = EDGE_LOOP ( 'NONE', ( #161, #105, #266, #293 ) ) ;
#74 = CIRCLE ( 'NONE', #213, 2.799999999999999822 ) ;
#75 = CALENDAR_DATE ( 2022, 10, 7 ) ;
#76 = EDGE_CURVE ( 'NONE', #137, #234, #303, .T. ) ;
#77 = ORIENTED_EDGE ( 'NONE', *, *, #11, .T. ) ;
#78 = MANIFOLD_SOLID_BREP ( 'Odebrat vysunutím3', #245 ) ;
#79 = EDGE_LOOP ( 'NONE', ( #53, #376, #371, #168 ) ) ;
#80 = AXIS2_PLACEMENT_3D ( 'NONE', #381, #282, #118 ) ;
#81 = DIRECTION ( 'NONE',  ( -0.000000000000000000, -0.000000000000000000, -1.000000000000000000 ) ) ;
#82 = PRODUCT_RELATED_PRODUCT_CATEGORY ( 'detail', '', ( #131 ) ) ;
#83 = FACE_OUTER_BOUND ( 'NONE', #117, .T. ) ;
#84 = CALENDAR_DATE ( 2022, 10, 7 ) ;
#85 = DIRECTION ( 'NONE',  ( 1.000000000000000000, 0.000000000000000000, -0.000000000000000000 ) ) ;
#86 = CIRCLE ( 'NONE', #136, 2.500000000000000000 ) ;
#87 = DIRECTION ( 'NONE',  ( 1.000000000000000000, 0.000000000000000000, 0.000000000000000000 ) ) ;
#88 = APPROVAL ( #373, 'NEURÈENÝ' ) ;
#89 = DIRECTION ( 'NONE',  ( 0.000000000000000000, 0.000000000000000000, 1.000000000000000000 ) ) ;
#90 = DIRECTION ( 'NONE',  ( -0.000000000000000000, -0.000000000000000000, -1.000000000000000000 ) ) ;
#91 = CARTESIAN_POINT ( 'NONE',  ( 0.000000000000000000, 0.000000000000000000, 78.00000000000000000 ) ) ;
#92 = AXIS2_PLACEMENT_3D ( 'NONE', #154, #90, #179 ) ;
#93 = LINE ( 'NONE', #149, #290 ) ;
#94 = EDGE_CURVE ( 'NONE', #110, #26, #40, .T. ) ;
#95 = CARTESIAN_POINT ( 'NONE',  ( 1.600000000000000089, 1.959434878635765230E-16, 78.00000000000000000 ) ) ;
#96 = CARTESIAN_POINT ( 'NONE',  ( 0.000000000000000000, 0.000000000000000000, 3.299999999999997158 ) ) ;
#97 = DIRECTION ( 'NONE',  ( 1.000000000000000000, 0.000000000000000000, 0.000000000000000000 ) ) ;
#98 = ADVANCED_BREP_SHAPE_REPRESENTATION ( '8958', ( #78, #350 ), #171 ) ;
#99 = DIRECTION ( 'NONE',  ( -0.000000000000000000, -0.000000000000000000, -1.000000000000000000 ) ) ;
#100 = ORIENTED_EDGE ( 'NONE', *, *, #184, .F. ) ;
#101 = DIRECTION ( 'NONE',  ( 1.000000000000000000, 0.000000000000000000, -0.000000000000000000 ) ) ;
#102 = EDGE_CURVE ( 'NONE', #172, #228, #93, .T. ) ;
#103 = ORIENTED_EDGE ( 'NONE', *, *, #304, .T. ) ;
#104 = DATE_AND_TIME ( #16, #314 ) ;
#105 = ORIENTED_EDGE ( 'NONE', *, *, #102, .T. ) ;
#106 = TOROIDAL_SURFACE ( 'NONE', #226, 2.799999999999999822, 0.2999999999999999889 ) ;
#107 = AXIS2_PLACEMENT_3D ( 'NONE', #268, #224, #67 ) ;
#108 = APPROVAL_ROLE ( '' ) ;
#109 = APPLICATION_CONTEXT ( 'configuration controlled 3d designs of mechanical parts and assemblies' ) ;
#110 = VERTEX_POINT ( 'NONE', #65 ) ;
#111 = PERSON_AND_ORGANIZATION_ROLE ( 'design_owner' ) ;
#112 = PRODUCT_DEFINITION ( 'NEZNÁMÝ', '', #139, #358 ) ;
#113 = ORIENTED_EDGE ( 'NONE', *, *, #71, .F. ) ;
#114 = CYLINDRICAL_SURFACE ( 'NONE', #280, 1.600000000000000089 ) ;
#115 = CARTESIAN_POINT ( 'NONE',  ( -5.000000000000000000, 0.000000000000000000, 0.000000000000000000 ) ) ;
#116 = PERSON_AND_ORGANIZATION_ROLE ( 'classification_officer' ) ;
#117 = EDGE_LOOP ( 'NONE', ( #70, #200, #263, #230 ) ) ;
#118 = DIRECTION ( 'NONE',  ( 1.000000000000000000, 0.000000000000000000, 0.000000000000000000 ) ) ;
#119 = ORIENTED_EDGE ( 'NONE', *, *, #195, .F. ) ;
#120 = APPROVAL ( #72, 'NEURÈENÝ' ) ;
#121 = AXIS2_PLACEMENT_3D ( 'NONE', #247, #210, #186 ) ;
#122 = CARTESIAN_POINT ( 'NONE',  ( 0.000000000000000000, 0.000000000000000000, 3.000000000000000000 ) ) ;
#123 = PERSON_AND_ORGANIZATION ( #175, #199 ) ;
#124 = FACE_OUTER_BOUND ( 'NONE', #142, .T. ) ;
#125 = CARTESIAN_POINT ( 'NONE',  ( -2.500000000000000000, 0.000000000000000000, 78.00000000000000000 ) ) ;
#126 = UNCERTAINTY_MEASURE_WITH_UNIT (LENGTH_MEASURE( 1.000000000000000082E-05 ), #163, 'distance_accuracy_value', 'NONE');
#127 = CARTESIAN_POINT ( 'NONE',  ( 0.000000000000000000, 0.000000000000000000, 3.299999999999997158 ) ) ;
#128 = ADVANCED_FACE ( 'NONE', ( #6 ), #10, .T. ) ;
#129 = CARTESIAN_POINT ( 'NONE',  ( 0.000000000000000000, 0.000000000000000000, 3.000000000000000000 ) ) ;
#130 = ORIENTED_EDGE ( 'NONE', *, *, #352, .T. ) ;
#131 = PRODUCT ( '8958', '8958', '', ( #208 ) ) ;
#132 = PRODUCT_DEFINITION_SHAPE ( 'NONE', 'NONE',  #112 ) ;
#133 = ORIENTED_EDGE ( 'NONE', *, *, #64, .F. ) ;
#134 = CC_DESIGN_PERSON_AND_ORGANIZATION_ASSIGNMENT ( #135, #38, ( #139 ) ) ;
#135 = PERSON_AND_ORGANIZATION ( #175, #199 ) ;
#136 = AXIS2_PLACEMENT_3D ( 'NONE', #96, #191, #313 ) ;
#137 = VERTEX_POINT ( 'NONE', #125 ) ;
#138 = AXIS2_PLACEMENT_3D ( 'NONE', #122, #219, #284 ) ;
#139 = PRODUCT_DEFINITION_FORMATION_WITH_SPECIFIED_SOURCE ( 'LIBOVOLNÝ', '', #131, .NOT_KNOWN. ) ;
#140 = PERSON_AND_ORGANIZATION ( #175, #199 ) ;
#141 = CARTESIAN_POINT ( 'NONE',  ( 2.500000000000000000, 3.061616997868383141E-16, 3.299999999999997158 ) ) ;
#142 = EDGE_LOOP ( 'NONE', ( #119, #100, #77, #113 ) ) ;
#143 = AXIS2_PLACEMENT_3D ( 'NONE', #336, #66, #69 ) ;
#144 = DIRECTION ( 'NONE',  ( 0.000000000000000000, 0.000000000000000000, 1.000000000000000000 ) ) ;
#145 = DIRECTION ( 'NONE',  ( 0.000000000000000000, -1.000000000000000000, 0.000000000000000000 ) ) ;
#146 = CARTESIAN_POINT ( 'NONE',  ( -1.600000000000000089, 0.000000000000000000, 78.00000000000000000 ) ) ;
#147 = ORIENTED_EDGE ( 'NONE', *, *, #352, .F. ) ;
#148 = CARTESIAN_POINT ( 'NONE',  ( -1.600000000000000089, 0.000000000000000000, 0.000000000000000000 ) ) ;
#149 = CARTESIAN_POINT ( 'NONE',  ( 2.500000000000000000, 3.061616997868383141E-16, 78.00000000000000000 ) ) ;
#150 = COORDINATED_UNIVERSAL_TIME_OFFSET ( 1, 0, .AHEAD. ) ;
#151 = CIRCLE ( 'NONE', #138, 2.799999999999999822 ) ;
#152 = APPROVAL_PERSON_ORGANIZATION ( #140, #88, #108 ) ;
#153 = DIRECTION ( 'NONE',  ( -0.000000000000000000, -0.000000000000000000, -1.000000000000000000 ) ) ;
#154 = CARTESIAN_POINT ( 'NONE',  ( 0.000000000000000000, 0.000000000000000000, 78.00000000000000000 ) ) ;
#155 = ADVANCED_FACE ( 'NONE', ( #253 ), #62, .T. ) ;
#156 = CARTESIAN_POINT ( 'NONE',  ( 0.000000000000000000, 0.000000000000000000, 78.00000000000000000 ) ) ;
#157 = DIRECTION ( 'NONE',  ( 1.000000000000000000, 0.000000000000000000, 0.000000000000000000 ) ) ;
#158 = AXIS2_PLACEMENT_3D ( 'NONE', #248, #221, #222 ) ;
#159 = AXIS2_PLACEMENT_3D ( 'NONE', #156, #4, #61 ) ;
#160 = DIRECTION ( 'NONE',  ( 1.224646799147353207E-16, 1.000000000000000000, -0.000000000000000000 ) ) ;
#161 = ORIENTED_EDGE ( 'NONE', *, *, #370, .F. ) ;
#162 = EDGE_CURVE ( 'NONE', #322, #351, #74, .T. ) ;
#163 =( LENGTH_UNIT ( ) NAMED_UNIT ( * ) SI_UNIT ( .MILLI., .METRE. ) );
#164 = ORIENTED_EDGE ( 'NONE', *, *, #162, .T. ) ;
#165 = EDGE_LOOP ( 'NONE', ( #277, #14 ) ) ;
#166 = APPROVAL_ROLE ( '' ) ;
#167 = EDGE_CURVE ( 'NONE', #325, #261, #192, .T. ) ;
#168 = ORIENTED_EDGE ( 'NONE', *, *, #265, .T. ) ;
#169 = APPLICATION_PROTOCOL_DEFINITION ( 'international standard', 'config_control_design', 1994, #349 ) ;
#170 = DIRECTION ( 'NONE',  ( 0.000000000000000000, 0.000000000000000000, 1.000000000000000000 ) ) ;
#171 =( GEOMETRIC_REPRESENTATION_CONTEXT ( 3 ) GLOBAL_UNCERTAINTY_ASSIGNED_CONTEXT ( ( #126 ) ) GLOBAL_UNIT_ASSIGNED_CONTEXT ( ( #163, #342, #334 ) ) REPRESENTATION_CONTEXT ( 'NONE', 'WORKASPACE' ) );
#172 = VERTEX_POINT ( 'NONE', #330 ) ;
#173 = DATE_TIME_ROLE ( 'classification_date' ) ;
#174 = CC_DESIGN_DATE_AND_TIME_ASSIGNMENT ( #104, #260, ( #112 ) ) ;
#175 = PERSON ( 'NEURÈENÝ', 'NEURÈENÝ', 'NEURÈENÝ', ('NEURÈENÝ'), ('NEURÈENÝ'), ('NEURÈENÝ') ) ;
#176 = ORIENTED_EDGE ( 'NONE', *, *, #370, .T. ) ;
#177 = ORIENTED_EDGE ( 'NONE', *, *, #211, .T. ) ;
#178 = PERSON_AND_ORGANIZATION_ROLE ( 'design_supplier' ) ;
#179 = DIRECTION ( 'NONE',  ( -1.000000000000000000, 0.000000000000000000, 0.000000000000000000 ) ) ;
#180 = DIRECTION ( 'NONE',  ( -0.000000000000000000, -0.000000000000000000, -1.000000000000000000 ) ) ;
#181 = SHAPE_DEFINITION_REPRESENTATION ( #132, #98 ) ;
#182 = DIRECTION ( 'NONE',  ( -1.000000000000000000, 1.224646799147353207E-16, 0.000000000000000000 ) ) ;
#183 = CARTESIAN_POINT ( 'NONE',  ( -2.500000000000000000, 0.000000000000000000, 78.00000000000000000 ) ) ;
#184 = EDGE_CURVE ( 'NONE', #228, #234, #86, .T. ) ;
#185 = AXIS2_PLACEMENT_3D ( 'NONE', #269, #145, #36 ) ;
#186 = DIRECTION ( 'NONE',  ( 1.000000000000000000, 0.000000000000000000, 0.000000000000000000 ) ) ;
#187 = CC_DESIGN_SECURITY_CLASSIFICATION ( #23, ( #139 ) ) ;
#188 = DIRECTION ( 'NONE',  ( 0.000000000000000000, 0.000000000000000000, 1.000000000000000000 ) ) ;
#189 = DIRECTION ( 'NONE',  ( 1.000000000000000000, 0.000000000000000000, 0.000000000000000000 ) ) ;
#190 = DIRECTION ( 'NONE',  ( 0.000000000000000000, 0.000000000000000000, 1.000000000000000000 ) ) ;
#191 = DIRECTION ( 'NONE',  ( 0.000000000000000000, 0.000000000000000000, 1.000000000000000000 ) ) ;
#192 = CIRCLE ( 'NONE', #42, 1.600000000000000089 ) ;
#193 = LOCAL_TIME ( 11, 16, 46.00000000000000000, #150 ) ;
#194 = VECTOR ( 'NONE', #305, 1000.000000000000000 ) ;
#195 = EDGE_CURVE ( 'NONE', #234, #351, #68, .T. ) ;
#196 = ORIENTED_EDGE ( 'NONE', *, *, #341, .T. ) ;
#197 = EDGE_LOOP ( 'NONE', ( #133, #13, #130, #47 ) ) ;
#198 = ADVANCED_FACE ( 'NONE', ( #362, #279 ), #332, .T. ) ;
#199 = ORGANIZATION ( 'NEURÈENÝ', 'NEURÈENÝ', '' ) ;
#200 = ORIENTED_EDGE ( 'NONE', *, *, #195, .T. ) ;
#201 = DATE_AND_TIME ( #75, #356 ) ;
#202 = ORIENTED_EDGE ( 'NONE', *, *, #64, .T. ) ;
#203 = ORIENTED_EDGE ( 'NONE', *, *, #236, .T. ) ;
#204 = VECTOR ( 'NONE', #99, 1000.000000000000000 ) ;
#205 = EDGE_LOOP ( 'NONE', ( #203, #202 ) ) ;
#206 = CC_DESIGN_PERSON_AND_ORGANIZATION_ASSIGNMENT ( #300, #178, ( #139 ) ) ;
#207 = CC_DESIGN_APPROVAL ( #120, ( #139 ) ) ;
#208 = MECHANICAL_CONTEXT ( 'NONE', #109, 'mechanical' ) ;
#209 = DIRECTION ( 'NONE',  ( 0.000000000000000000, 0.000000000000000000, -1.000000000000000000 ) ) ;
#210 = DIRECTION ( 'NONE',  ( 0.000000000000000000, 0.000000000000000000, 1.000000000000000000 ) ) ;
#211 = EDGE_CURVE ( 'NONE', #137, #172, #233, .T. ) ;
#212 = FACE_OUTER_BOUND ( 'NONE', #294, .T. ) ;
#213 = AXIS2_PLACEMENT_3D ( 'NONE', #129, #255, #361 ) ;
#214 = VECTOR ( 'NONE', #312, 1000.000000000000000 ) ;
#215 = DIRECTION ( 'NONE',  ( -1.000000000000000000, 0.000000000000000000, 0.000000000000000000 ) ) ;
#216 = DATE_AND_TIME ( #328, #193 ) ;
#217 = DIRECTION ( 'NONE',  ( -1.000000000000000000, 0.000000000000000000, 0.000000000000000000 ) ) ;
#218 = FACE_OUTER_BOUND ( 'NONE', #364, .T. ) ;
#219 = DIRECTION ( 'NONE',  ( -0.000000000000000000, -0.000000000000000000, -1.000000000000000000 ) ) ;
#220 = CARTESIAN_POINT ( 'NONE',  ( 1.600000000000000089, 1.959434878635765230E-16, 0.000000000000000000 ) ) ;
#221 = DIRECTION ( 'NONE',  ( -0.000000000000000000, -0.000000000000000000, -1.000000000000000000 ) ) ;
#222 = DIRECTION ( 'NONE',  ( -1.000000000000000000, 0.000000000000000000, 0.000000000000000000 ) ) ;
#223 = CYLINDRICAL_SURFACE ( 'NONE', #143, 1.600000000000000089 ) ;
#224 = DIRECTION ( 'NONE',  ( -0.000000000000000000, -0.000000000000000000, -1.000000000000000000 ) ) ;
#225 = FACE_BOUND ( 'NONE', #165, .T. ) ;
#226 = AXIS2_PLACEMENT_3D ( 'NONE', #127, #37, #281 ) ;
#227 = DIRECTION ( 'NONE',  ( 1.000000000000000000, 0.000000000000000000, 0.000000000000000000 ) ) ;
#228 = VERTEX_POINT ( 'NONE', #141 ) ;
#229 = EDGE_CURVE ( 'NONE', #261, #325, #273, .T. ) ;
#230 = ORIENTED_EDGE ( 'NONE', *, *, #11, .F. ) ;
#231 = APPROVAL_DATE_TIME ( #267, #88 ) ;
#232 = AXIS2_PLACEMENT_3D ( 'NONE', #374, #275, #85 ) ;
#233 = CIRCLE ( 'NONE', #57, 2.500000000000000000 ) ;
#234 = VERTEX_POINT ( 'NONE', #340 ) ;
#235 = COORDINATED_UNIVERSAL_TIME_OFFSET ( 1, 0, .AHEAD. ) ;
#236 = EDGE_CURVE ( 'NONE', #295, #110, #252, .T. ) ;
#237 = ORIENTED_EDGE ( 'NONE', *, *, #236, .F. ) ;
#238 = CARTESIAN_POINT ( 'NONE',  ( 0.000000000000000000, 0.000000000000000000, 0.000000000000000000 ) ) ;
#239 = CARTESIAN_POINT ( 'NONE',  ( -5.000000000000000000, 0.000000000000000000, 3.000000000000000000 ) ) ;
#240 = CC_DESIGN_APPROVAL ( #88, ( #112 ) ) ;
#241 = CARTESIAN_POINT ( 'NONE',  ( 0.000000000000000000, 0.000000000000000000, 0.000000000000000000 ) ) ;
#242 = CARTESIAN_POINT ( 'NONE',  ( 0.000000000000000000, 0.000000000000000000, 3.000000000000000000 ) ) ;
#243 = ADVANCED_FACE ( 'NONE', ( #124 ), #8, .F. ) ;
#244 = FACE_OUTER_BOUND ( 'NONE', #205, .T. ) ;
#245 = CLOSED_SHELL ( 'NONE', ( #285, #55, #254, #155, #41, #32, #363, #128, #198, #243, #380 ) ) ;
#246 = DIRECTION ( 'NONE',  ( -0.000000000000000000, -0.000000000000000000, -1.000000000000000000 ) ) ;
#247 = CARTESIAN_POINT ( 'NONE',  ( 0.000000000000000000, 0.000000000000000000, 3.299999999999997158 ) ) ;
#248 = CARTESIAN_POINT ( 'NONE',  ( 0.000000000000000000, 0.000000000000000000, 3.000000000000000000 ) ) ;
#249 = DIRECTION ( 'NONE',  ( 0.000000000000000000, 0.000000000000000000, 1.000000000000000000 ) ) ;
#250 = AXIS2_PLACEMENT_3D ( 'NONE', #3, #153, #217 ) ;
#251 = DIRECTION ( 'NONE',  ( 0.000000000000000000, 0.000000000000000000, 1.000000000000000000 ) ) ;
#252 = CIRCLE ( 'NONE', #2, 5.000000000000000000 ) ;
#253 = FACE_OUTER_BOUND ( 'NONE', #197, .T. ) ;
#254 = ADVANCED_FACE ( 'NONE', ( #35 ), #276, .T. ) ;
#255 = DIRECTION ( 'NONE',  ( -0.000000000000000000, -0.000000000000000000, -1.000000000000000000 ) ) ;
#256 = EDGE_LOOP ( 'NONE', ( #177, #176 ) ) ;
#257 = LOCAL_TIME ( 11, 16, 46.00000000000000000, #270 ) ;
#258 = DIRECTION ( 'NONE',  ( 0.000000000000000000, 0.000000000000000000, 1.000000000000000000 ) ) ;
#259 = ORIENTED_EDGE ( 'NONE', *, *, #333, .F. ) ;
#260 = DATE_TIME_ROLE ( 'creation_date' ) ;
#261 = VERTEX_POINT ( 'NONE', #148 ) ;
#262 = PERSON_AND_ORGANIZATION ( #175, #199 ) ;
#263 = ORIENTED_EDGE ( 'NONE', *, *, #162, .F. ) ;
#264 = VERTEX_POINT ( 'NONE', #146 ) ;
#265 = EDGE_CURVE ( 'NONE', #234, #228, #287, .T. ) ;
#266 = ORIENTED_EDGE ( 'NONE', *, *, #184, .T. ) ;
#267 = DATE_AND_TIME ( #25, #321 ) ;
#268 = CARTESIAN_POINT ( 'NONE',  ( 0.000000000000000000, 0.000000000000000000, 0.000000000000000000 ) ) ;
#269 = CARTESIAN_POINT ( 'NONE',  ( 2.799999999999999822, 0.000000000000000000, 3.299999999999997158 ) ) ;
#270 = COORDINATED_UNIVERSAL_TIME_OFFSET ( 1, 0, .AHEAD. ) ;
#271 = APPROVAL ( #302, 'NEURÈENÝ' ) ;
#272 = CYLINDRICAL_SURFACE ( 'NONE', #30, 5.000000000000000000 ) ;
#273 = CIRCLE ( 'NONE', #107, 1.600000000000000089 ) ;
#274 = DIRECTION ( 'NONE',  ( 1.000000000000000000, 0.000000000000000000, 0.000000000000000000 ) ) ;
#275 = DIRECTION ( 'NONE',  ( 0.000000000000000000, 0.000000000000000000, 1.000000000000000000 ) ) ;
#276 = CYLINDRICAL_SURFACE ( 'NONE', #92, 2.500000000000000000 ) ;
#277 = ORIENTED_EDGE ( 'NONE', *, *, #229, .F. ) ;
#278 = PERSON_AND_ORGANIZATION ( #175, #199 ) ;
#279 = FACE_OUTER_BOUND ( 'NONE', #256, .T. ) ;
#280 = AXIS2_PLACEMENT_3D ( 'NONE', #58, #209, #215 ) ;
#281 = DIRECTION ( 'NONE',  ( 1.000000000000000000, 0.000000000000000000, 0.000000000000000000 ) ) ;
#282 = DIRECTION ( 'NONE',  ( 0.000000000000000000, 0.000000000000000000, 1.000000000000000000 ) ) ;
#283 = LINE ( 'NONE', #12, #214 ) ;
#284 = DIRECTION ( 'NONE',  ( 1.000000000000000000, 0.000000000000000000, 0.000000000000000000 ) ) ;
#285 = ADVANCED_FACE ( 'NONE', ( #218 ), #114, .F. ) ;
#286 = CARTESIAN_POINT ( 'NONE',  ( 0.000000000000000000, 0.000000000000000000, 0.000000000000000000 ) ) ;
#287 = CIRCLE ( 'NONE', #80, 2.500000000000000000 ) ;
#288 = CARTESIAN_POINT ( 'NONE',  ( 0.000000000000000000, 0.000000000000000000, 3.000000000000000000 ) ) ;
#289 = ORIENTED_EDGE ( 'NONE', *, *, #346, .F. ) ;
#290 = VECTOR ( 'NONE', #246, 1000.000000000000000 ) ;
#291 = EDGE_CURVE ( 'NONE', #19, #26, #48, .T. ) ;
#292 = CIRCLE ( 'NONE', #301, 1.600000000000000089 ) ;
#293 = ORIENTED_EDGE ( 'NONE', *, *, #76, .F. ) ;
#294 = EDGE_LOOP ( 'NONE', ( #33, #237, #379, #56 ) ) ;
#295 = VERTEX_POINT ( 'NONE', #353 ) ;
#296 = CC_DESIGN_PERSON_AND_ORGANIZATION_ASSIGNMENT ( #278, #116, ( #23 ) ) ;
#297 = APPROVAL_PERSON_ORGANIZATION ( #369, #120, #166 ) ;
#298 = ORIENTED_EDGE ( 'NONE', *, *, #71, .T. ) ;
#299 = FACE_BOUND ( 'NONE', #326, .T. ) ;
#300 = PERSON_AND_ORGANIZATION ( #175, #199 ) ;
#301 = AXIS2_PLACEMENT_3D ( 'NONE', #309, #251, #157 ) ;
#302 = APPROVAL_STATUS ( 'not_yet_approved' ) ;
#303 = LINE ( 'NONE', #183, #204 ) ;
#304 = EDGE_CURVE ( 'NONE', #264, #261, #331, .T. ) ;
#305 = DIRECTION ( 'NONE',  ( 0.000000000000000000, 0.000000000000000000, -1.000000000000000000 ) ) ;
#306 = DIRECTION ( 'NONE',  ( -0.000000000000000000, -0.000000000000000000, -1.000000000000000000 ) ) ;
#307 = CIRCLE ( 'NONE', #51, 5.000000000000000000 ) ;
#308 = DIRECTION ( 'NONE',  ( 1.000000000000000000, 0.000000000000000000, -0.000000000000000000 ) ) ;
#309 = CARTESIAN_POINT ( 'NONE',  ( 0.000000000000000000, 0.000000000000000000, 78.00000000000000000 ) ) ;
#310 = CC_DESIGN_PERSON_AND_ORGANIZATION_ASSIGNMENT ( #320, #111, ( #131 ) ) ;
#311 = CARTESIAN_POINT ( 'NONE',  ( 0.000000000000000000, 0.000000000000000000, 0.000000000000000000 ) ) ;
#312 = DIRECTION ( 'NONE',  ( 0.000000000000000000, 0.000000000000000000, -1.000000000000000000 ) ) ;
#313 = DIRECTION ( 'NONE',  ( 1.000000000000000000, 0.000000000000000000, 0.000000000000000000 ) ) ;
#314 = LOCAL_TIME ( 11, 16, 46.00000000000000000, #343 ) ;
#315 = ORIENTED_EDGE ( 'NONE', *, *, #341, .F. ) ;
#316 = ORIENTED_EDGE ( 'NONE', *, *, #304, .F. ) ;
#317 = APPLICATION_PROTOCOL_DEFINITION ( 'international standard', 'config_control_design', 1994, #109 ) ;
#318 = CARTESIAN_POINT ( 'NONE',  ( 0.000000000000000000, 0.000000000000000000, 3.000000000000000000 ) ) ;
#319 = ORIENTED_EDGE ( 'NONE', *, *, #333, .T. ) ;
#320 = PERSON_AND_ORGANIZATION ( #175, #199 ) ;
#321 = LOCAL_TIME ( 11, 16, 46.00000000000000000, #235 ) ;
#322 = VERTEX_POINT ( 'NONE', #366 ) ;
#323 = VERTEX_POINT ( 'NONE', #95 ) ;
#324 = APPROVAL_ROLE ( '' ) ;
#325 = VERTEX_POINT ( 'NONE', #220 ) ;
#326 = EDGE_LOOP ( 'NONE', ( #164, #298 ) ) ;
#327 = AXIS2_PLACEMENT_3D ( 'NONE', #241, #144, #87 ) ;
#328 = CALENDAR_DATE ( 2022, 10, 7 ) ;
#329 = CC_DESIGN_DATE_AND_TIME_ASSIGNMENT ( #29, #173, ( #23 ) ) ;
#330 = CARTESIAN_POINT ( 'NONE',  ( 2.500000000000000000, 3.061616997868383141E-16, 78.00000000000000000 ) ) ;
#331 = LINE ( 'NONE', #54, #194 ) ;
#332 = PLANE ( 'NONE',  #50 ) ;
#333 = EDGE_CURVE ( 'NONE', #323, #264, #43, .T. ) ;
#334 =( NAMED_UNIT ( * ) SI_UNIT ( $, .STERADIAN. ) SOLID_ANGLE_UNIT ( ) );
#335 = DIRECTION ( 'NONE',  ( 1.000000000000000000, 0.000000000000000000, 0.000000000000000000 ) ) ;
#336 = CARTESIAN_POINT ( 'NONE',  ( 0.000000000000000000, 0.000000000000000000, 78.00000000000000000 ) ) ;
#337 = AXIS2_PLACEMENT_3D ( 'NONE', #59, #160, #182 ) ;
#338 = AXIS2_PLACEMENT_3D ( 'NONE', #339, #249, #101 ) ;
#339 = CARTESIAN_POINT ( 'NONE',  ( 0.000000000000000000, 0.000000000000000000, 0.000000000000000000 ) ) ;
#340 = CARTESIAN_POINT ( 'NONE',  ( -2.500000000000000000, 0.000000000000000000, 3.299999999999997158 ) ) ;
#341 = EDGE_CURVE ( 'NONE', #264, #323, #292, .T. ) ;
#342 =( NAMED_UNIT ( * ) PLANE_ANGLE_UNIT ( ) SI_UNIT ( $, .RADIAN. ) );
#343 = COORDINATED_UNIVERSAL_TIME_OFFSET ( 1, 0, .AHEAD. ) ;
#344 = EDGE_LOOP ( 'NONE', ( #21, #147 ) ) ;
#345 = COORDINATED_UNIVERSAL_TIME_OFFSET ( 1, 0, .AHEAD. ) ;
#346 = EDGE_CURVE ( 'NONE', #323, #325, #283, .T. ) ;
#347 = EDGE_LOOP ( 'NONE', ( #315, #259 ) ) ;
#348 = EDGE_LOOP ( 'NONE', ( #289, #319, #103, #24 ) ) ;
#349 = APPLICATION_CONTEXT ( 'configuration controlled 3d designs of mechanical parts and assemblies' ) ;
#350 = AXIS2_PLACEMENT_3D ( 'NONE', #238, #18, #22 ) ;
#351 = VERTEX_POINT ( 'NONE', #63 ) ;
#352 = EDGE_CURVE ( 'NONE', #26, #19, #307, .T. ) ;
#353 = CARTESIAN_POINT ( 'NONE',  ( -5.000000000000000000, 0.000000000000000000, 3.000000000000000000 ) ) ;
#354 = DIRECTION ( 'NONE',  ( -1.000000000000000000, 0.000000000000000000, 0.000000000000000000 ) ) ;
#355 = SECURITY_CLASSIFICATION_LEVEL ( 'unclassified' ) ;
#356 = LOCAL_TIME ( 11, 16, 46.00000000000000000, #345 ) ;
#357 = DIRECTION ( 'NONE',  ( -0.000000000000000000, -0.000000000000000000, -1.000000000000000000 ) ) ;
#358 = DESIGN_CONTEXT ( 'detailed design', #349, 'design' ) ;
#359 = CARTESIAN_POINT ( 'NONE',  ( 5.000000000000000000, 6.123233995736766282E-16, 3.000000000000000000 ) ) ;
#360 = CIRCLE ( 'NONE', #7, 5.000000000000000000 ) ;
#361 = DIRECTION ( 'NONE',  ( 1.000000000000000000, 0.000000000000000000, 0.000000000000000000 ) ) ;
#362 = FACE_BOUND ( 'NONE', #347, .T. ) ;
#363 = ADVANCED_FACE ( 'NONE', ( #225, #44 ), #45, .F. ) ;
#364 = EDGE_LOOP ( 'NONE', ( #196, #368, #52, #316 ) ) ;
#365 = CIRCLE ( 'NONE', #185, 0.2999999999999999334 ) ;
#366 = CARTESIAN_POINT ( 'NONE',  ( 2.799999999999999822, 0.000000000000000000, 2.999999999999998668 ) ) ;
#367 = DIRECTION ( 'NONE',  ( 1.000000000000000000, 0.000000000000000000, 0.000000000000000000 ) ) ;
#368 = ORIENTED_EDGE ( 'NONE', *, *, #346, .T. ) ;
#369 = PERSON_AND_ORGANIZATION ( #175, #199 ) ;
#370 = EDGE_CURVE ( 'NONE', #172, #137, #372, .T. ) ;
#371 = ORIENTED_EDGE ( 'NONE', *, *, #76, .T. ) ;
#372 = CIRCLE ( 'NONE', #377, 2.500000000000000000 ) ;
#373 = APPROVAL_STATUS ( 'not_yet_approved' ) ;
#374 = CARTESIAN_POINT ( 'NONE',  ( 0.000000000000000000, 0.000000000000000000, 3.000000000000000000 ) ) ;
#375 = PERSON_AND_ORGANIZATION_ROLE ( 'creator' ) ;
#376 = ORIENTED_EDGE ( 'NONE', *, *, #211, .F. ) ;
#377 = AXIS2_PLACEMENT_3D ( 'NONE', #91, #190, #227 ) ;
#378 = CARTESIAN_POINT ( 'NONE',  ( 5.000000000000000000, 6.123233995736766282E-16, 0.000000000000000000 ) ) ;
#379 = ORIENTED_EDGE ( 'NONE', *, *, #17, .T. ) ;
#380 = ADVANCED_FACE ( 'NONE', ( #5 ), #223, .F. ) ;
#381 = CARTESIAN_POINT ( 'NONE',  ( 0.000000000000000000, 0.000000000000000000, 3.299999999999997158 ) ) ;
ENDSEC;
END-ISO-10303-21;
