ISO-10303-21;
HEADER;
FILE_DESCRIPTION (( 'STEP AP203' ),
    '1' );
FILE_NAME ('dbc3.STEP',
    '2022-07-10T09:14:50',
    ( '' ),
    ( '' ),
    'SwSTEP 2.0',
    'SolidWorks 2019',
    '' );
FILE_SCHEMA (( 'CONFIG_CONTROL_DESIGN' ));
ENDSEC;

DATA;
#1 = APPROVAL_STATUS ( 'not_yet_approved' ) ;
#2 = UNCERTAINTY_MEASURE_WITH_UNIT (LENGTH_MEASURE( 1.000000000000000082E-05 ), #101, 'distance_accuracy_value', 'NONE');
#3 = EDGE_LOOP ( 'NONE', ( #149, #106 ) ) ;
#4 = CC_DESIGN_APPROVAL ( #117, ( #237 ) ) ;
#5 = LINE ( 'NONE', #47, #268 ) ;
#6 = TOROIDAL_SURFACE ( 'NONE', #108, 3.300000000000000266, 0.2999999999999999889 ) ;
#7 = EDGE_LOOP ( 'NONE', ( #324, #98, #42, #212 ) ) ;
#8 = PERSON_AND_ORGANIZATION ( #299, #37 ) ;
#9 = ORIENTED_EDGE ( 'NONE', *, *, #319, .F. ) ;
#10 = AXIS2_PLACEMENT_3D ( 'NONE', #34, #233, #119 ) ;
#11 = AXIS2_PLACEMENT_3D ( 'NONE', #356, #186, #123 ) ;
#12 = CARTESIAN_POINT ( 'NONE',  ( 0.000000000000000000, 0.000000000000000000, 5.299999999999998934 ) ) ;
#13 = ORIENTED_EDGE ( 'NONE', *, *, #313, .T. ) ;
#14 = SECURITY_CLASSIFICATION_LEVEL ( 'unclassified' ) ;
#15 = DIRECTION ( 'NONE',  ( 0.000000000000000000, 0.000000000000000000, 1.000000000000000000 ) ) ;
#16 = AXIS2_PLACEMENT_3D ( 'NONE', #92, #372, #116 ) ;
#17 = APPROVAL_DATE_TIME ( #193, #117 ) ;
#18 = ADVANCED_FACE ( 'NONE', ( #256, #249 ), #224, .T. ) ;
#19 = ORIENTED_EDGE ( 'NONE', *, *, #355, .T. ) ;
#20 = APPROVAL_ROLE ( '' ) ;
#21 = CARTESIAN_POINT ( 'NONE',  ( 0.000000000000000000, 0.000000000000000000, 205.0000000000000284 ) ) ;
#22 =( GEOMETRIC_REPRESENTATION_CONTEXT ( 3 ) GLOBAL_UNCERTAINTY_ASSIGNED_CONTEXT ( ( #2 ) ) GLOBAL_UNIT_ASSIGNED_CONTEXT ( ( #101, #320, #288 ) ) REPRESENTATION_CONTEXT ( 'NONE', 'WORKASPACE' ) );
#23 = DIRECTION ( 'NONE',  ( -0.000000000000000000, -0.000000000000000000, -1.000000000000000000 ) ) ;
#24 = CIRCLE ( 'NONE', #11, 0.2999999999999999334 ) ;
#25 = CIRCLE ( 'NONE', #286, 1.750000000000000000 ) ;
#26 = EDGE_CURVE ( 'NONE', #240, #318, #25, .T. ) ;
#27 = CARTESIAN_POINT ( 'NONE',  ( 6.000000000000000888, 7.347880794884120722E-16, 5.000000000000000000 ) ) ;
#28 = CARTESIAN_POINT ( 'NONE',  ( -3.000000000000000444, 0.000000000000000000, 205.0000000000000284 ) ) ;
#29 = AXIS2_PLACEMENT_3D ( 'NONE', #12, #126, #347 ) ;
#30 = DIRECTION ( 'NONE',  ( 1.000000000000000000, 0.000000000000000000, 0.000000000000000000 ) ) ;
#31 = CIRCLE ( 'NONE', #185, 3.300000000000000266 ) ;
#32 = APPLICATION_CONTEXT ( 'configuration controlled 3d designs of mechanical parts and assemblies' ) ;
#33 = AXIS2_PLACEMENT_3D ( 'NONE', #305, #15, #138 ) ;
#34 = CARTESIAN_POINT ( 'NONE',  ( -3.300000000000000266, 4.041334437186266003E-16, 5.299999999999998934 ) ) ;
#35 = CARTESIAN_POINT ( 'NONE',  ( 0.000000000000000000, 0.000000000000000000, 5.299999999999998934 ) ) ;
#36 = DIRECTION ( 'NONE',  ( 0.000000000000000000, 0.000000000000000000, 1.000000000000000000 ) ) ;
#37 = ORGANIZATION ( 'NEURÈENÝ', 'NEURÈENÝ', '' ) ;
#38 = CC_DESIGN_PERSON_AND_ORGANIZATION_ASSIGNMENT ( #352, #317, ( #154 ) ) ;
#39 = AXIS2_PLACEMENT_3D ( 'NONE', #377, #311, #284 ) ;
#40 = FACE_OUTER_BOUND ( 'NONE', #298, .T. ) ;
#41 = DIRECTION ( 'NONE',  ( -0.000000000000000000, -0.000000000000000000, -1.000000000000000000 ) ) ;
#42 = ORIENTED_EDGE ( 'NONE', *, *, #319, .T. ) ;
#43 = ORIENTED_EDGE ( 'NONE', *, *, #75, .T. ) ;
#44 = LOCAL_TIME ( 11, 14, 50.00000000000000000, #99 ) ;
#45 = APPLICATION_PROTOCOL_DEFINITION ( 'international standard', 'config_control_design', 1994, #32 ) ;
#46 = ORIENTED_EDGE ( 'NONE', *, *, #173, .F. ) ;
#47 = CARTESIAN_POINT ( 'NONE',  ( -6.000000000000000888, 0.000000000000000000, 5.000000000000000000 ) ) ;
#48 = VERTEX_POINT ( 'NONE', #198 ) ;
#49 = CALENDAR_DATE ( 2022, 10, 7 ) ;
#50 = VERTEX_POINT ( 'NONE', #83 ) ;
#51 = EDGE_CURVE ( 'NONE', #267, #220, #202, .T. ) ;
#52 = PERSON_AND_ORGANIZATION_ROLE ( 'creator' ) ;
#53 = CARTESIAN_POINT ( 'NONE',  ( 1.750000000000000000, 2.143131898507868297E-16, 205.0000000000000284 ) ) ;
#54 = DIRECTION ( 'NONE',  ( 0.000000000000000000, 0.000000000000000000, 1.000000000000000000 ) ) ;
#55 = EDGE_LOOP ( 'NONE', ( #46, #100, #190, #269 ) ) ;
#56 = ADVANCED_FACE ( 'NONE', ( #107, #334 ), #227, .T. ) ;
#57 = CIRCLE ( 'NONE', #87, 3.300000000000000266 ) ;
#58 = CARTESIAN_POINT ( 'NONE',  ( 0.000000000000000000, 0.000000000000000000, 205.0000000000000284 ) ) ;
#59 = DIRECTION ( 'NONE',  ( -1.000000000000000000, 0.000000000000000000, 0.000000000000000000 ) ) ;
#60 = DIRECTION ( 'NONE',  ( 1.000000000000000000, 0.000000000000000000, 0.000000000000000000 ) ) ;
#61 = ADVANCED_FACE ( 'NONE', ( #366 ), #354, .F. ) ;
#62 = CARTESIAN_POINT ( 'NONE',  ( 3.000000000000000444, 3.673940397442060361E-16, 5.299999999999998934 ) ) ;
#63 = CARTESIAN_POINT ( 'NONE',  ( -6.000000000000000888, 0.000000000000000000, 5.000000000000000000 ) ) ;
#64 = CIRCLE ( 'NONE', #316, 6.000000000000000888 ) ;
#65 = DIRECTION ( 'NONE',  ( -0.000000000000000000, -0.000000000000000000, -1.000000000000000000 ) ) ;
#66 = CC_DESIGN_PERSON_AND_ORGANIZATION_ASSIGNMENT ( #162, #188, ( #237 ) ) ;
#67 = COORDINATED_UNIVERSAL_TIME_OFFSET ( 1, 0, .AHEAD. ) ;
#68 = ORIENTED_EDGE ( 'NONE', *, *, #173, .T. ) ;
#69 = DIRECTION ( 'NONE',  ( 1.000000000000000000, 0.000000000000000000, 0.000000000000000000 ) ) ;
#70 = ADVANCED_FACE ( 'NONE', ( #279 ), #361, .F. ) ;
#71 = CYLINDRICAL_SURFACE ( 'NONE', #376, 6.000000000000000888 ) ;
#72 = ORIENTED_EDGE ( 'NONE', *, *, #131, .T. ) ;
#73 = ORIENTED_EDGE ( 'NONE', *, *, #263, .T. ) ;
#74 = EDGE_LOOP ( 'NONE', ( #151, #95 ) ) ;
#75 = EDGE_CURVE ( 'NONE', #220, #48, #194, .T. ) ;
#76 = AXIS2_PLACEMENT_3D ( 'NONE', #200, #78, #280 ) ;
#77 = ORIENTED_EDGE ( 'NONE', *, *, #313, .F. ) ;
#78 = DIRECTION ( 'NONE',  ( 0.000000000000000000, 0.000000000000000000, 1.000000000000000000 ) ) ;
#79 = COORDINATED_UNIVERSAL_TIME_OFFSET ( 1, 0, .AHEAD. ) ;
#80 = EDGE_LOOP ( 'NONE', ( #122, #181 ) ) ;
#81 = CALENDAR_DATE ( 2022, 10, 7 ) ;
#82 = CARTESIAN_POINT ( 'NONE',  ( 0.000000000000000000, 0.000000000000000000, 5.000000000000000000 ) ) ;
#83 = CARTESIAN_POINT ( 'NONE',  ( -3.000000000000000444, 0.000000000000000000, 5.299999999999998934 ) ) ;
#84 = CARTESIAN_POINT ( 'NONE',  ( 0.000000000000000000, 0.000000000000000000, 0.000000000000000000 ) ) ;
#85 = VECTOR ( 'NONE', #367, 1000.000000000000000 ) ;
#86 = DIRECTION ( 'NONE',  ( -0.000000000000000000, -0.000000000000000000, -1.000000000000000000 ) ) ;
#87 = AXIS2_PLACEMENT_3D ( 'NONE', #273, #241, #182 ) ;
#88 = DIRECTION ( 'NONE',  ( -0.000000000000000000, -0.000000000000000000, -1.000000000000000000 ) ) ;
#89 = AXIS2_PLACEMENT_3D ( 'NONE', #145, #88, #91 ) ;
#90 = APPROVAL ( #197, 'NEURÈENÝ' ) ;
#91 = DIRECTION ( 'NONE',  ( -1.000000000000000000, 0.000000000000000000, 0.000000000000000000 ) ) ;
#92 = CARTESIAN_POINT ( 'NONE',  ( 0.000000000000000000, 0.000000000000000000, 0.000000000000000000 ) ) ;
#93 = AXIS2_PLACEMENT_3D ( 'NONE', #294, #265, #69 ) ;
#94 = DIRECTION ( 'NONE',  ( -1.000000000000000000, 0.000000000000000000, 0.000000000000000000 ) ) ;
#95 = ORIENTED_EDGE ( 'NONE', *, *, #205, .F. ) ;
#96 = ADVANCED_FACE ( 'NONE', ( #330 ), #303, .T. ) ;
#97 = PERSON_AND_ORGANIZATION ( #299, #37 ) ;
#98 = ORIENTED_EDGE ( 'NONE', *, *, #51, .F. ) ;
#99 = COORDINATED_UNIVERSAL_TIME_OFFSET ( 1, 0, .AHEAD. ) ;
#100 = ORIENTED_EDGE ( 'NONE', *, *, #148, .T. ) ;
#101 =( LENGTH_UNIT ( ) NAMED_UNIT ( * ) SI_UNIT ( .MILLI., .METRE. ) );
#102 = EDGE_CURVE ( 'NONE', #240, #189, #254, .T. ) ;
#103 = VERTEX_POINT ( 'NONE', #161 ) ;
#104 = DIRECTION ( 'NONE',  ( -0.000000000000000000, -0.000000000000000000, -1.000000000000000000 ) ) ;
#105 = AXIS2_PLACEMENT_3D ( 'NONE', #110, #230, #335 ) ;
#106 = ORIENTED_EDGE ( 'NONE', *, *, #26, .F. ) ;
#107 = FACE_BOUND ( 'NONE', #179, .T. ) ;
#108 = AXIS2_PLACEMENT_3D ( 'NONE', #35, #338, #60 ) ;
#109 = DIRECTION ( 'NONE',  ( 0.000000000000000000, 0.000000000000000000, 1.000000000000000000 ) ) ;
#110 = CARTESIAN_POINT ( 'NONE',  ( 0.000000000000000000, 0.000000000000000000, 0.000000000000000000 ) ) ;
#111 = PRODUCT_DEFINITION_SHAPE ( 'NONE', 'NONE',  #342 ) ;
#112 = FACE_OUTER_BOUND ( 'NONE', #214, .T. ) ;
#113 = EDGE_CURVE ( 'NONE', #350, #132, #129, .T. ) ;
#114 = CIRCLE ( 'NONE', #176, 6.000000000000000888 ) ;
#115 = DIRECTION ( 'NONE',  ( 1.000000000000000000, 0.000000000000000000, 0.000000000000000000 ) ) ;
#116 = DIRECTION ( 'NONE',  ( 1.000000000000000000, 0.000000000000000000, -0.000000000000000000 ) ) ;
#117 = APPROVAL ( #226, 'NEURÈENÝ' ) ;
#118 = DIRECTION ( 'NONE',  ( -0.000000000000000000, -0.000000000000000000, -1.000000000000000000 ) ) ;
#119 = DIRECTION ( 'NONE',  ( -1.000000000000000000, 1.224646799147353207E-16, 0.000000000000000000 ) ) ;
#120 = AXIS2_PLACEMENT_3D ( 'NONE', #21, #331, #276 ) ;
#121 = LINE ( 'NONE', #247, #191 ) ;
#122 = ORIENTED_EDGE ( 'NONE', *, *, #51, .T. ) ;
#123 = DIRECTION ( 'NONE',  ( 0.000000000000000000, 0.000000000000000000, -1.000000000000000000 ) ) ;
#124 = CIRCLE ( 'NONE', #29, 3.000000000000000444 ) ;
#125 = EDGE_CURVE ( 'NONE', #132, #350, #380, .T. ) ;
#126 = DIRECTION ( 'NONE',  ( 0.000000000000000000, 0.000000000000000000, 1.000000000000000000 ) ) ;
#127 = ORIENTED_EDGE ( 'NONE', *, *, #306, .T. ) ;
#128 = CARTESIAN_POINT ( 'NONE',  ( 0.000000000000000000, 0.000000000000000000, 5.000000000000000000 ) ) ;
#129 = CIRCLE ( 'NONE', #333, 3.000000000000000444 ) ;
#130 = ORIENTED_EDGE ( 'NONE', *, *, #252, .T. ) ;
#131 = EDGE_CURVE ( 'NONE', #189, #353, #137, .T. ) ;
#132 = VERTEX_POINT ( 'NONE', #239 ) ;
#133 = PERSON_AND_ORGANIZATION_ROLE ( 'classification_officer' ) ;
#134 = EDGE_LOOP ( 'NONE', ( #163, #310 ) ) ;
#135 = APPROVAL_ROLE ( '' ) ;
#136 = ORIENTED_EDGE ( 'NONE', *, *, #148, .F. ) ;
#137 = CIRCLE ( 'NONE', #105, 1.750000000000000000 ) ;
#138 = DIRECTION ( 'NONE',  ( 1.000000000000000000, 0.000000000000000000, -0.000000000000000000 ) ) ;
#139 = EDGE_CURVE ( 'NONE', #353, #189, #174, .T. ) ;
#140 = CARTESIAN_POINT ( 'NONE',  ( 0.000000000000000000, 0.000000000000000000, 5.299999999999998934 ) ) ;
#141 = DIRECTION ( 'NONE',  ( -1.000000000000000000, 0.000000000000000000, 0.000000000000000000 ) ) ;
#142 = DIRECTION ( 'NONE',  ( -0.000000000000000000, -0.000000000000000000, -1.000000000000000000 ) ) ;
#143 = CARTESIAN_POINT ( 'NONE',  ( 1.750000000000000000, 2.143131898507868297E-16, 0.000000000000000000 ) ) ;
#144 = CARTESIAN_POINT ( 'NONE',  ( 0.000000000000000000, 0.000000000000000000, 5.000000000000000000 ) ) ;
#145 = CARTESIAN_POINT ( 'NONE',  ( 0.000000000000000000, 0.000000000000000000, 205.0000000000000284 ) ) ;
#146 = LOCAL_TIME ( 11, 14, 50.00000000000000000, #79 ) ;
#147 = FACE_OUTER_BOUND ( 'NONE', #381, .T. ) ;
#148 = EDGE_CURVE ( 'NONE', #50, #103, #373, .T. ) ;
#149 = ORIENTED_EDGE ( 'NONE', *, *, #282, .F. ) ;
#150 = DIRECTION ( 'NONE',  ( -1.000000000000000000, 0.000000000000000000, 0.000000000000000000 ) ) ;
#151 = ORIENTED_EDGE ( 'NONE', *, *, #177, .F. ) ;
#152 = APPROVAL_PERSON_ORGANIZATION ( #277, #117, #20 ) ;
#153 = CIRCLE ( 'NONE', #296, 1.750000000000000000 ) ;
#154 = PRODUCT ( 'dbc3', 'dbc3', '', ( #180 ) ) ;
#155 = ORIENTED_EDGE ( 'NONE', *, *, #378, .F. ) ;
#156 = EDGE_CURVE ( 'NONE', #220, #267, #64, .T. ) ;
#157 = CARTESIAN_POINT ( 'NONE',  ( 3.000000000000000444, 3.673940397442060361E-16, 205.0000000000000284 ) ) ;
#158 = VERTEX_POINT ( 'NONE', #370 ) ;
#159 = CALENDAR_DATE ( 2022, 10, 7 ) ;
#160 = DIRECTION ( 'NONE',  ( 0.000000000000000000, 0.000000000000000000, 1.000000000000000000 ) ) ;
#161 = CARTESIAN_POINT ( 'NONE',  ( -3.300000000000000266, 4.041334437186266003E-16, 4.999999999999999112 ) ) ;
#162 = PERSON_AND_ORGANIZATION ( #299, #37 ) ;
#163 = ORIENTED_EDGE ( 'NONE', *, *, #139, .F. ) ;
#164 = DIRECTION ( 'NONE',  ( 1.000000000000000000, 0.000000000000000000, 0.000000000000000000 ) ) ;
#165 = DIRECTION ( 'NONE',  ( 0.000000000000000000, 0.000000000000000000, 1.000000000000000000 ) ) ;
#166 = PRODUCT_RELATED_PRODUCT_CATEGORY ( 'detail', '', ( #154 ) ) ;
#167 = DIRECTION ( 'NONE',  ( -0.000000000000000000, -0.000000000000000000, -1.000000000000000000 ) ) ;
#168 = AXIS2_PLACEMENT_3D ( 'NONE', #58, #165, #369 ) ;
#169 = AXIS2_PLACEMENT_3D ( 'NONE', #229, #23, #141 ) ;
#170 = CARTESIAN_POINT ( 'NONE',  ( 0.000000000000000000, 0.000000000000000000, 205.0000000000000284 ) ) ;
#171 = DIRECTION ( 'NONE',  ( 1.000000000000000000, 0.000000000000000000, 0.000000000000000000 ) ) ;
#172 = CYLINDRICAL_SURFACE ( 'NONE', #89, 3.000000000000000444 ) ;
#173 = EDGE_CURVE ( 'NONE', #50, #272, #206, .T. ) ;
#174 = CIRCLE ( 'NONE', #322, 1.750000000000000000 ) ;
#175 = CARTESIAN_POINT ( 'NONE',  ( 0.000000000000000000, 0.000000000000000000, 0.000000000000000000 ) ) ;
#176 = AXIS2_PLACEMENT_3D ( 'NONE', #339, #36, #208 ) ;
#177 = EDGE_CURVE ( 'NONE', #274, #48, #114, .T. ) ;
#178 = DATE_AND_TIME ( #323, #358 ) ;
#179 = EDGE_LOOP ( 'NONE', ( #130, #19 ) ) ;
#180 = MECHANICAL_CONTEXT ( 'NONE', #364, 'mechanical' ) ;
#181 = ORIENTED_EDGE ( 'NONE', *, *, #156, .T. ) ;
#182 = DIRECTION ( 'NONE',  ( 1.000000000000000000, 0.000000000000000000, 0.000000000000000000 ) ) ;
#183 = EDGE_CURVE ( 'NONE', #350, #272, #345, .T. ) ;
#184 = ORIENTED_EDGE ( 'NONE', *, *, #263, .F. ) ;
#185 = AXIS2_PLACEMENT_3D ( 'NONE', #144, #167, #281 ) ;
#186 = DIRECTION ( 'NONE',  ( 0.000000000000000000, -1.000000000000000000, 0.000000000000000000 ) ) ;
#187 = ORIENTED_EDGE ( 'NONE', *, *, #113, .F. ) ;
#188 = PERSON_AND_ORGANIZATION_ROLE ( 'design_supplier' ) ;
#189 = VERTEX_POINT ( 'NONE', #143 ) ;
#190 = ORIENTED_EDGE ( 'NONE', *, *, #252, .F. ) ;
#191 = VECTOR ( 'NONE', #297, 1000.000000000000000 ) ;
#192 = ADVANCED_FACE ( 'NONE', ( #203, #238 ), #258, .F. ) ;
#193 = DATE_AND_TIME ( #81, #293 ) ;
#194 = LINE ( 'NONE', #27, #209 ) ;
#195 = AXIS2_PLACEMENT_3D ( 'NONE', #375, #118, #150 ) ;
#196 = DIRECTION ( 'NONE',  ( 0.000000000000000000, 0.000000000000000000, 1.000000000000000000 ) ) ;
#197 = APPROVAL_STATUS ( 'not_yet_approved' ) ;
#198 = CARTESIAN_POINT ( 'NONE',  ( 6.000000000000000888, 7.347880794884120722E-16, 0.000000000000000000 ) ) ;
#199 = CC_DESIGN_PERSON_AND_ORGANIZATION_ASSIGNMENT ( #8, #245, ( #342 ) ) ;
#200 = CARTESIAN_POINT ( 'NONE',  ( 0.000000000000000000, 0.000000000000000000, 5.000000000000000000 ) ) ;
#201 = CARTESIAN_POINT ( 'NONE',  ( -6.000000000000000888, 0.000000000000000000, 0.000000000000000000 ) ) ;
#202 = CIRCLE ( 'NONE', #346, 6.000000000000000888 ) ;
#203 = FACE_BOUND ( 'NONE', #134, .T. ) ;
#204 = CC_DESIGN_APPROVAL ( #90, ( #349 ) ) ;
#205 = EDGE_CURVE ( 'NONE', #48, #274, #231, .T. ) ;
#206 = CIRCLE ( 'NONE', #39, 3.000000000000000444 ) ;
#207 = DIRECTION ( 'NONE',  ( 0.000000000000000000, 0.000000000000000000, 1.000000000000000000 ) ) ;
#208 = DIRECTION ( 'NONE',  ( 1.000000000000000000, 0.000000000000000000, 0.000000000000000000 ) ) ;
#209 = VECTOR ( 'NONE', #104, 1000.000000000000000 ) ;
#210 = CARTESIAN_POINT ( 'NONE',  ( 0.000000000000000000, 0.000000000000000000, 5.000000000000000000 ) ) ;
#211 = APPROVAL ( #1, 'NEURÈENÝ' ) ;
#212 = ORIENTED_EDGE ( 'NONE', *, *, #177, .T. ) ;
#213 = DIRECTION ( 'NONE',  ( -0.000000000000000000, -0.000000000000000000, -1.000000000000000000 ) ) ;
#214 = EDGE_LOOP ( 'NONE', ( #266, #295, #73, #68 ) ) ;
#215 = APPROVAL_ROLE ( '' ) ;
#216 = ORIENTED_EDGE ( 'NONE', *, *, #102, .F. ) ;
#217 = CALENDAR_DATE ( 2022, 10, 7 ) ;
#218 = LOCAL_TIME ( 11, 14, 50.00000000000000000, #304 ) ;
#219 = ORIENTED_EDGE ( 'NONE', *, *, #113, .T. ) ;
#220 = VERTEX_POINT ( 'NONE', #232 ) ;
#221 = PERSON_AND_ORGANIZATION ( #299, #37 ) ;
#222 = CARTESIAN_POINT ( 'NONE',  ( 0.000000000000000000, 0.000000000000000000, 205.0000000000000284 ) ) ;
#223 = APPROVAL_DATE_TIME ( #308, #90 ) ;
#224 = PLANE ( 'NONE',  #33 ) ;
#225 = CC_DESIGN_APPROVAL ( #211, ( #342 ) ) ;
#226 = APPROVAL_STATUS ( 'not_yet_approved' ) ;
#227 = PLANE ( 'NONE',  #76 ) ;
#228 = CC_DESIGN_PERSON_AND_ORGANIZATION_ASSIGNMENT ( #221, #133, ( #349 ) ) ;
#229 = CARTESIAN_POINT ( 'NONE',  ( 0.000000000000000000, 0.000000000000000000, 5.000000000000000000 ) ) ;
#230 = DIRECTION ( 'NONE',  ( -0.000000000000000000, -0.000000000000000000, -1.000000000000000000 ) ) ;
#231 = CIRCLE ( 'NONE', #371, 6.000000000000000888 ) ;
#232 = CARTESIAN_POINT ( 'NONE',  ( 6.000000000000000888, 7.347880794884120722E-16, 5.000000000000000000 ) ) ;
#233 = DIRECTION ( 'NONE',  ( 1.224646799147353207E-16, 1.000000000000000000, -0.000000000000000000 ) ) ;
#234 = ADVANCED_BREP_SHAPE_REPRESENTATION ( 'dbc3', ( #327, #93 ), #22 ) ;
#235 = DIRECTION ( 'NONE',  ( 0.000000000000000000, 0.000000000000000000, 1.000000000000000000 ) ) ;
#236 = DESIGN_CONTEXT ( 'detailed design', #32, 'design' ) ;
#237 = PRODUCT_DEFINITION_FORMATION_WITH_SPECIFIED_SOURCE ( 'LIBOVOLNÝ', '', #154, .NOT_KNOWN. ) ;
#238 = FACE_OUTER_BOUND ( 'NONE', #74, .T. ) ;
#239 = CARTESIAN_POINT ( 'NONE',  ( -3.000000000000000444, 0.000000000000000000, 205.0000000000000284 ) ) ;
#240 = VERTEX_POINT ( 'NONE', #287 ) ;
#241 = DIRECTION ( 'NONE',  ( -0.000000000000000000, -0.000000000000000000, -1.000000000000000000 ) ) ;
#242 = ORIENTED_EDGE ( 'NONE', *, *, #355, .F. ) ;
#243 = ORIENTED_EDGE ( 'NONE', *, *, #102, .T. ) ;
#244 = ADVANCED_FACE ( 'NONE', ( #147 ), #344, .F. ) ;
#245 = PERSON_AND_ORGANIZATION_ROLE ( 'creator' ) ;
#246 = EDGE_LOOP ( 'NONE', ( #136, #155, #127, #242 ) ) ;
#247 = CARTESIAN_POINT ( 'NONE',  ( -1.750000000000000000, 0.000000000000000000, 205.0000000000000284 ) ) ;
#248 = ORIENTED_EDGE ( 'NONE', *, *, #156, .F. ) ;
#249 = FACE_OUTER_BOUND ( 'NONE', #292, .T. ) ;
#250 = ORIENTED_EDGE ( 'NONE', *, *, #282, .T. ) ;
#251 = DIRECTION ( 'NONE',  ( 1.000000000000000000, 0.000000000000000000, 0.000000000000000000 ) ) ;
#252 = EDGE_CURVE ( 'NONE', #158, #103, #31, .T. ) ;
#253 = COORDINATED_UNIVERSAL_TIME_OFFSET ( 1, 0, .AHEAD. ) ;
#254 = LINE ( 'NONE', #53, #85 ) ;
#255 = SHAPE_DEFINITION_REPRESENTATION ( #111, #234 ) ;
#256 = FACE_BOUND ( 'NONE', #3, .T. ) ;
#257 = LINE ( 'NONE', #28, #312 ) ;
#258 = PLANE ( 'NONE',  #16 ) ;
#259 = ADVANCED_FACE ( 'NONE', ( #314 ), #6, .F. ) ;
#260 = CYLINDRICAL_SURFACE ( 'NONE', #195, 3.000000000000000444 ) ;
#261 = AXIS2_PLACEMENT_3D ( 'NONE', #140, #160, #164 ) ;
#262 = FACE_OUTER_BOUND ( 'NONE', #321, .T. ) ;
#263 = EDGE_CURVE ( 'NONE', #132, #50, #257, .T. ) ;
#264 = CARTESIAN_POINT ( 'NONE',  ( 0.000000000000000000, 0.000000000000000000, 205.0000000000000284 ) ) ;
#265 = DIRECTION ( 'NONE',  ( 0.000000000000000000, 0.000000000000000000, 1.000000000000000000 ) ) ;
#266 = ORIENTED_EDGE ( 'NONE', *, *, #183, .F. ) ;
#267 = VERTEX_POINT ( 'NONE', #63 ) ;
#268 = VECTOR ( 'NONE', #41, 1000.000000000000000 ) ;
#269 = ORIENTED_EDGE ( 'NONE', *, *, #306, .F. ) ;
#270 = ADVANCED_FACE ( 'NONE', ( #112 ), #172, .T. ) ;
#271 = APPROVAL_DATE_TIME ( #178, #211 ) ;
#272 = VERTEX_POINT ( 'NONE', #62 ) ;
#273 = CARTESIAN_POINT ( 'NONE',  ( 0.000000000000000000, 0.000000000000000000, 5.000000000000000000 ) ) ;
#274 = VERTEX_POINT ( 'NONE', #201 ) ;
#275 = CC_DESIGN_DATE_AND_TIME_ASSIGNMENT ( #300, #332, ( #349 ) ) ;
#276 = DIRECTION ( 'NONE',  ( -1.000000000000000000, 0.000000000000000000, 0.000000000000000000 ) ) ;
#277 = PERSON_AND_ORGANIZATION ( #299, #37 ) ;
#278 = CARTESIAN_POINT ( 'NONE',  ( 0.000000000000000000, 0.000000000000000000, 205.0000000000000284 ) ) ;
#279 = FACE_OUTER_BOUND ( 'NONE', #301, .T. ) ;
#280 = DIRECTION ( 'NONE',  ( 1.000000000000000000, 0.000000000000000000, -0.000000000000000000 ) ) ;
#281 = DIRECTION ( 'NONE',  ( 1.000000000000000000, 0.000000000000000000, 0.000000000000000000 ) ) ;
#282 = EDGE_CURVE ( 'NONE', #318, #240, #153, .T. ) ;
#283 = DIRECTION ( 'NONE',  ( 0.000000000000000000, 0.000000000000000000, 1.000000000000000000 ) ) ;
#284 = DIRECTION ( 'NONE',  ( 1.000000000000000000, 0.000000000000000000, 0.000000000000000000 ) ) ;
#285 = CC_DESIGN_PERSON_AND_ORGANIZATION_ASSIGNMENT ( #362, #52, ( #237 ) ) ;
#286 = AXIS2_PLACEMENT_3D ( 'NONE', #222, #196, #251 ) ;
#287 = CARTESIAN_POINT ( 'NONE',  ( 1.750000000000000000, 2.143131898507868297E-16, 205.0000000000000284 ) ) ;
#288 =( NAMED_UNIT ( * ) SI_UNIT ( $, .STERADIAN. ) SOLID_ANGLE_UNIT ( ) );
#289 = CARTESIAN_POINT ( 'NONE',  ( -1.750000000000000000, 0.000000000000000000, 205.0000000000000284 ) ) ;
#290 = ORIENTED_EDGE ( 'NONE', *, *, #139, .T. ) ;
#291 = ADVANCED_FACE ( 'NONE', ( #262 ), #260, .T. ) ;
#292 = EDGE_LOOP ( 'NONE', ( #348, #219 ) ) ;
#293 = LOCAL_TIME ( 11, 14, 50.00000000000000000, #253 ) ;
#294 = CARTESIAN_POINT ( 'NONE',  ( 0.000000000000000000, 0.000000000000000000, 0.000000000000000000 ) ) ;
#295 = ORIENTED_EDGE ( 'NONE', *, *, #125, .F. ) ;
#296 = AXIS2_PLACEMENT_3D ( 'NONE', #170, #283, #171 ) ;
#297 = DIRECTION ( 'NONE',  ( 0.000000000000000000, 0.000000000000000000, -1.000000000000000000 ) ) ;
#298 = EDGE_LOOP ( 'NONE', ( #248, #43, #307, #9 ) ) ;
#299 = PERSON ( 'NEURÈENÝ', 'NEURÈENÝ', 'NEURÈENÝ', ('NEURÈENÝ'), ('NEURÈENÝ'), ('NEURÈENÝ') ) ;
#300 = DATE_AND_TIME ( #159, #218 ) ;
#301 = EDGE_LOOP ( 'NONE', ( #216, #328, #13, #290 ) ) ;
#302 = APPROVAL_PERSON_ORGANIZATION ( #368, #90, #135 ) ;
#303 = CYLINDRICAL_SURFACE ( 'NONE', #169, 6.000000000000000888 ) ;
#304 = COORDINATED_UNIVERSAL_TIME_OFFSET ( 1, 0, .AHEAD. ) ;
#305 = CARTESIAN_POINT ( 'NONE',  ( 0.000000000000000000, 0.000000000000000000, 205.0000000000000284 ) ) ;
#306 = EDGE_CURVE ( 'NONE', #272, #158, #24, .T. ) ;
#307 = ORIENTED_EDGE ( 'NONE', *, *, #205, .T. ) ;
#308 = DATE_AND_TIME ( #49, #146 ) ;
#309 = DIRECTION ( 'NONE',  ( 1.000000000000000000, 0.000000000000000000, 0.000000000000000000 ) ) ;
#310 = ORIENTED_EDGE ( 'NONE', *, *, #131, .F. ) ;
#311 = DIRECTION ( 'NONE',  ( 0.000000000000000000, 0.000000000000000000, 1.000000000000000000 ) ) ;
#312 = VECTOR ( 'NONE', #142, 1000.000000000000000 ) ;
#313 = EDGE_CURVE ( 'NONE', #318, #353, #121, .T. ) ;
#314 = FACE_OUTER_BOUND ( 'NONE', #246, .T. ) ;
#315 = DIRECTION ( 'NONE',  ( 1.000000000000000000, 0.000000000000000000, 0.000000000000000000 ) ) ;
#316 = AXIS2_PLACEMENT_3D ( 'NONE', #210, #235, #115 ) ;
#317 = PERSON_AND_ORGANIZATION_ROLE ( 'design_owner' ) ;
#318 = VERTEX_POINT ( 'NONE', #289 ) ;
#319 = EDGE_CURVE ( 'NONE', #267, #274, #5, .T. ) ;
#320 =( NAMED_UNIT ( * ) PLANE_ANGLE_UNIT ( ) SI_UNIT ( $, .RADIAN. ) );
#321 = EDGE_LOOP ( 'NONE', ( #187, #360, #357, #184 ) ) ;
#322 = AXIS2_PLACEMENT_3D ( 'NONE', #84, #65, #30 ) ;
#323 = CALENDAR_DATE ( 2022, 10, 7 ) ;
#324 = ORIENTED_EDGE ( 'NONE', *, *, #75, .F. ) ;
#325 = DATE_AND_TIME ( #217, #44 ) ;
#326 = ADVANCED_FACE ( 'NONE', ( #40 ), #71, .T. ) ;
#327 = MANIFOLD_SOLID_BREP ( 'Odebrat vysunutím3', #351 ) ;
#328 = ORIENTED_EDGE ( 'NONE', *, *, #26, .T. ) ;
#329 = DATE_TIME_ROLE ( 'creation_date' ) ;
#330 = FACE_OUTER_BOUND ( 'NONE', #7, .T. ) ;
#331 = DIRECTION ( 'NONE',  ( 0.000000000000000000, 0.000000000000000000, -1.000000000000000000 ) ) ;
#332 = DATE_TIME_ROLE ( 'classification_date' ) ;
#333 = AXIS2_PLACEMENT_3D ( 'NONE', #278, #109, #309 ) ;
#334 = FACE_OUTER_BOUND ( 'NONE', #80, .T. ) ;
#335 = DIRECTION ( 'NONE',  ( 1.000000000000000000, 0.000000000000000000, 0.000000000000000000 ) ) ;
#336 = CC_DESIGN_DATE_AND_TIME_ASSIGNMENT ( #325, #329, ( #342 ) ) ;
#337 = VECTOR ( 'NONE', #86, 1000.000000000000000 ) ;
#338 = DIRECTION ( 'NONE',  ( 0.000000000000000000, 0.000000000000000000, 1.000000000000000000 ) ) ;
#339 = CARTESIAN_POINT ( 'NONE',  ( 0.000000000000000000, 0.000000000000000000, 0.000000000000000000 ) ) ;
#340 = DIRECTION ( 'NONE',  ( 0.000000000000000000, 0.000000000000000000, -1.000000000000000000 ) ) ;
#341 = APPROVAL_PERSON_ORGANIZATION ( #97, #211, #215 ) ;
#342 = PRODUCT_DEFINITION ( 'NEZNÁMÝ', '', #237, #236 ) ;
#343 = AXIS2_PLACEMENT_3D ( 'NONE', #264, #340, #59 ) ;
#344 = CYLINDRICAL_SURFACE ( 'NONE', #343, 1.750000000000000000 ) ;
#345 = LINE ( 'NONE', #374, #337 ) ;
#346 = AXIS2_PLACEMENT_3D ( 'NONE', #82, #54, #363 ) ;
#347 = DIRECTION ( 'NONE',  ( 1.000000000000000000, 0.000000000000000000, 0.000000000000000000 ) ) ;
#348 = ORIENTED_EDGE ( 'NONE', *, *, #125, .T. ) ;
#349 = SECURITY_CLASSIFICATION ( '', '', #14 ) ;
#350 = VERTEX_POINT ( 'NONE', #157 ) ;
#351 = CLOSED_SHELL ( 'NONE', ( #244, #61, #291, #326, #96, #56, #192, #270, #18, #259, #70 ) ) ;
#352 = PERSON_AND_ORGANIZATION ( #299, #37 ) ;
#353 = VERTEX_POINT ( 'NONE', #359 ) ;
#354 = TOROIDAL_SURFACE ( 'NONE', #261, 3.300000000000000266, 0.2999999999999999889 ) ;
#355 = EDGE_CURVE ( 'NONE', #103, #158, #57, .T. ) ;
#356 = CARTESIAN_POINT ( 'NONE',  ( 3.300000000000000266, 0.000000000000000000, 5.299999999999998934 ) ) ;
#357 = ORIENTED_EDGE ( 'NONE', *, *, #378, .T. ) ;
#358 = LOCAL_TIME ( 11, 14, 50.00000000000000000, #67 ) ;
#359 = CARTESIAN_POINT ( 'NONE',  ( -1.750000000000000000, 0.000000000000000000, 0.000000000000000000 ) ) ;
#360 = ORIENTED_EDGE ( 'NONE', *, *, #183, .T. ) ;
#361 = CYLINDRICAL_SURFACE ( 'NONE', #120, 1.750000000000000000 ) ;
#362 = PERSON_AND_ORGANIZATION ( #299, #37 ) ;
#363 = DIRECTION ( 'NONE',  ( 1.000000000000000000, 0.000000000000000000, 0.000000000000000000 ) ) ;
#364 = APPLICATION_CONTEXT ( 'configuration controlled 3d designs of mechanical parts and assemblies' ) ;
#365 = CC_DESIGN_SECURITY_CLASSIFICATION ( #349, ( #237 ) ) ;
#366 = FACE_OUTER_BOUND ( 'NONE', #55, .T. ) ;
#367 = DIRECTION ( 'NONE',  ( 0.000000000000000000, 0.000000000000000000, -1.000000000000000000 ) ) ;
#368 = PERSON_AND_ORGANIZATION ( #299, #37 ) ;
#369 = DIRECTION ( 'NONE',  ( 1.000000000000000000, 0.000000000000000000, 0.000000000000000000 ) ) ;
#370 = CARTESIAN_POINT ( 'NONE',  ( 3.300000000000000266, 0.000000000000000000, 4.999999999999999112 ) ) ;
#371 = AXIS2_PLACEMENT_3D ( 'NONE', #175, #207, #315 ) ;
#372 = DIRECTION ( 'NONE',  ( 0.000000000000000000, 0.000000000000000000, 1.000000000000000000 ) ) ;
#373 = CIRCLE ( 'NONE', #10, 0.2999999999999999334 ) ;
#374 = CARTESIAN_POINT ( 'NONE',  ( 3.000000000000000444, 3.673940397442060361E-16, 205.0000000000000284 ) ) ;
#375 = CARTESIAN_POINT ( 'NONE',  ( 0.000000000000000000, 0.000000000000000000, 205.0000000000000284 ) ) ;
#376 = AXIS2_PLACEMENT_3D ( 'NONE', #128, #213, #94 ) ;
#377 = CARTESIAN_POINT ( 'NONE',  ( 0.000000000000000000, 0.000000000000000000, 5.299999999999998934 ) ) ;
#378 = EDGE_CURVE ( 'NONE', #272, #50, #124, .T. ) ;
#379 = APPLICATION_PROTOCOL_DEFINITION ( 'international standard', 'config_control_design', 1994, #364 ) ;
#380 = CIRCLE ( 'NONE', #168, 3.000000000000000444 ) ;
#381 = EDGE_LOOP ( 'NONE', ( #250, #243, #72, #77 ) ) ;
ENDSEC;
END-ISO-10303-21;
