ISO-10303-21;
HEADER;
FILE_DESCRIPTION (( 'STEP AP203' ),
    '1' );
FILE_NAME ('3abe.STEP',
    '2022-07-10T09:15:53',
    ( '' ),
    ( '' ),
    'SwSTEP 2.0',
    'SolidWorks 2019',
    '' );
FILE_SCHEMA (( 'CONFIG_CONTROL_DESIGN' ));
ENDSEC;

DATA;
#1 = DATE_AND_TIME ( #88, #26 ) ;
#2 = ORIENTED_EDGE ( 'NONE', *, *, #288, .F. ) ;
#3 = DIRECTION ( 'NONE',  ( 1.000000000000000000, 0.000000000000000000, 0.000000000000000000 ) ) ;
#4 = ORIENTED_EDGE ( 'NONE', *, *, #283, .F. ) ;
#5 = AXIS2_PLACEMENT_3D ( 'NONE', #116, #317, #287 ) ;
#6 = CARTESIAN_POINT ( 'NONE',  ( -5.000000000000000000, 0.000000000000000000, 3.000000000000000000 ) ) ;
#7 = PERSON_AND_ORGANIZATION_ROLE ( 'creator' ) ;
#8 = CARTESIAN_POINT ( 'NONE',  ( -1.600000000000000089, 0.000000000000000000, 0.000000000000000000 ) ) ;
#9 = VECTOR ( 'NONE', #327, 1000.000000000000000 ) ;
#10 = VERTEX_POINT ( 'NONE', #84 ) ;
#11 = CC_DESIGN_PERSON_AND_ORGANIZATION_ASSIGNMENT ( #147, #7, ( #296 ) ) ;
#12 = DIRECTION ( 'NONE',  ( 0.000000000000000000, 0.000000000000000000, 1.000000000000000000 ) ) ;
#13 = VERTEX_POINT ( 'NONE', #352 ) ;
#14 = AXIS2_PLACEMENT_3D ( 'NONE', #108, #45, #102 ) ;
#15 = APPROVAL ( #208, 'NEURÈENÝ' ) ;
#16 = DIRECTION ( 'NONE',  ( -0.000000000000000000, -0.000000000000000000, -1.000000000000000000 ) ) ;
#17 = EDGE_LOOP ( 'NONE', ( #157, #163, #140, #336 ) ) ;
#18 = DIRECTION ( 'NONE',  ( -0.000000000000000000, -0.000000000000000000, -1.000000000000000000 ) ) ;
#19 = ORIENTED_EDGE ( 'NONE', *, *, #87, .F. ) ;
#20 = DIRECTION ( 'NONE',  ( 1.000000000000000000, 0.000000000000000000, 0.000000000000000000 ) ) ;
#21 = AXIS2_PLACEMENT_3D ( 'NONE', #260, #128, #367 ) ;
#22 = CARTESIAN_POINT ( 'NONE',  ( 0.000000000000000000, 0.000000000000000000, 3.000000000000000000 ) ) ;
#23 = CARTESIAN_POINT ( 'NONE',  ( 0.000000000000000000, 0.000000000000000000, 0.000000000000000000 ) ) ;
#24 = DIRECTION ( 'NONE',  ( 1.000000000000000000, 0.000000000000000000, -0.000000000000000000 ) ) ;
#25 = ORIENTED_EDGE ( 'NONE', *, *, #69, .F. ) ;
#26 = LOCAL_TIME ( 11, 15, 53.00000000000000000, #351 ) ;
#27 = PERSON_AND_ORGANIZATION ( #71, #143 ) ;
#28 = PERSON_AND_ORGANIZATION ( #71, #143 ) ;
#29 = CARTESIAN_POINT ( 'NONE',  ( 0.000000000000000000, 0.000000000000000000, 203.0000000000000000 ) ) ;
#30 = DIRECTION ( 'NONE',  ( 1.000000000000000000, 0.000000000000000000, 0.000000000000000000 ) ) ;
#31 = LOCAL_TIME ( 11, 15, 53.00000000000000000, #33 ) ;
#32 = ADVANCED_FACE ( 'NONE', ( #269 ), #243, .F. ) ;
#33 = COORDINATED_UNIVERSAL_TIME_OFFSET ( 1, 0, .AHEAD. ) ;
#34 = PLANE ( 'NONE',  #219 ) ;
#35 = ORIENTED_EDGE ( 'NONE', *, *, #109, .T. ) ;
#36 = DIRECTION ( 'NONE',  ( 1.000000000000000000, 0.000000000000000000, 0.000000000000000000 ) ) ;
#37 = ORIENTED_EDGE ( 'NONE', *, *, #349, .T. ) ;
#38 = FACE_OUTER_BOUND ( 'NONE', #293, .T. ) ;
#39 = EDGE_CURVE ( 'NONE', #251, #316, #77, .T. ) ;
#40 = ORIENTED_EDGE ( 'NONE', *, *, #370, .T. ) ;
#41 = EDGE_LOOP ( 'NONE', ( #37, #303 ) ) ;
#42 = DIRECTION ( 'NONE',  ( 0.000000000000000000, 0.000000000000000000, 1.000000000000000000 ) ) ;
#43 = CIRCLE ( 'NONE', #304, 2.500000000000000000 ) ;
#44 = ADVANCED_FACE ( 'NONE', ( #38 ), #100, .T. ) ;
#45 = DIRECTION ( 'NONE',  ( -0.000000000000000000, -0.000000000000000000, -1.000000000000000000 ) ) ;
#46 = DIRECTION ( 'NONE',  ( 1.000000000000000000, 0.000000000000000000, 0.000000000000000000 ) ) ;
#47 = CLOSED_SHELL ( 'NONE', ( #354, #115, #98, #44, #238, #137, #381, #315, #331, #306, #32 ) ) ;
#48 = DIRECTION ( 'NONE',  ( 1.000000000000000000, 0.000000000000000000, 0.000000000000000000 ) ) ;
#49 = CIRCLE ( 'NONE', #86, 1.600000000000000089 ) ;
#50 =( LENGTH_UNIT ( ) NAMED_UNIT ( * ) SI_UNIT ( .MILLI., .METRE. ) );
#51 = EDGE_CURVE ( 'NONE', #81, #368, #372, .T. ) ;
#52 = FACE_BOUND ( 'NONE', #56, .T. ) ;
#53 = AXIS2_PLACEMENT_3D ( 'NONE', #93, #180, #274 ) ;
#54 = DIRECTION ( 'NONE',  ( 1.000000000000000000, 0.000000000000000000, -0.000000000000000000 ) ) ;
#55 = SECURITY_CLASSIFICATION ( '', '', #297 ) ;
#56 = EDGE_LOOP ( 'NONE', ( #361, #25 ) ) ;
#57 = APPROVAL_STATUS ( 'not_yet_approved' ) ;
#58 = CARTESIAN_POINT ( 'NONE',  ( 0.000000000000000000, 0.000000000000000000, 203.0000000000000000 ) ) ;
#59 = CYLINDRICAL_SURFACE ( 'NONE', #215, 2.500000000000000000 ) ;
#60 = ORIENTED_EDGE ( 'NONE', *, *, #320, .F. ) ;
#61 = CC_DESIGN_PERSON_AND_ORGANIZATION_ASSIGNMENT ( #28, #275, ( #159 ) ) ;
#62 = DATE_TIME_ROLE ( 'creation_date' ) ;
#63 = FACE_OUTER_BOUND ( 'NONE', #41, .T. ) ;
#64 = CIRCLE ( 'NONE', #228, 1.600000000000000089 ) ;
#65 = EDGE_LOOP ( 'NONE', ( #319, #217, #70, #294 ) ) ;
#66 = COORDINATED_UNIVERSAL_TIME_OFFSET ( 1, 0, .AHEAD. ) ;
#67 = CARTESIAN_POINT ( 'NONE',  ( 0.000000000000000000, 0.000000000000000000, 3.000000000000000000 ) ) ;
#68 = ORIENTED_EDGE ( 'NONE', *, *, #277, .T. ) ;
#69 = EDGE_CURVE ( 'NONE', #314, #232, #161, .T. ) ;
#70 = ORIENTED_EDGE ( 'NONE', *, *, #341, .T. ) ;
#71 = PERSON ( 'NEURÈENÝ', 'NEURÈENÝ', 'NEURÈENÝ', ('NEURÈENÝ'), ('NEURÈENÝ'), ('NEURÈENÝ') ) ;
#72 = DIRECTION ( 'NONE',  ( 0.000000000000000000, 0.000000000000000000, 1.000000000000000000 ) ) ;
#73 = ORIENTED_EDGE ( 'NONE', *, *, #349, .F. ) ;
#74 = CIRCLE ( 'NONE', #285, 2.500000000000000000 ) ;
#75 = CARTESIAN_POINT ( 'NONE',  ( 2.500000000000000000, 3.061616997868383141E-16, 203.0000000000000000 ) ) ;
#76 = CARTESIAN_POINT ( 'NONE',  ( 0.000000000000000000, 0.000000000000000000, 3.000000000000000000 ) ) ;
#77 = CIRCLE ( 'NONE', #365, 2.500000000000000000 ) ;
#78 = DIRECTION ( 'NONE',  ( -1.000000000000000000, 0.000000000000000000, 0.000000000000000000 ) ) ;
#79 =( GEOMETRIC_REPRESENTATION_CONTEXT ( 3 ) GLOBAL_UNCERTAINTY_ASSIGNED_CONTEXT ( ( #364 ) ) GLOBAL_UNIT_ASSIGNED_CONTEXT ( ( #50, #353, #211 ) ) REPRESENTATION_CONTEXT ( 'NONE', 'WORKASPACE' ) );
#80 = CYLINDRICAL_SURFACE ( 'NONE', #14, 5.000000000000000000 ) ;
#81 = VERTEX_POINT ( 'NONE', #8 ) ;
#82 = EDGE_CURVE ( 'NONE', #316, #133, #153, .T. ) ;
#83 = CARTESIAN_POINT ( 'NONE',  ( -2.799999999999999822, 3.429011037612589276E-16, 2.999999999999998668 ) ) ;
#84 = CARTESIAN_POINT ( 'NONE',  ( 5.000000000000000000, 6.123233995736766282E-16, 0.000000000000000000 ) ) ;
#85 = PERSON_AND_ORGANIZATION ( #71, #143 ) ;
#86 = AXIS2_PLACEMENT_3D ( 'NONE', #253, #16, #46 ) ;
#87 = EDGE_CURVE ( 'NONE', #13, #10, #270, .T. ) ;
#88 = CALENDAR_DATE ( 2022, 10, 7 ) ;
#89 = DIRECTION ( 'NONE',  ( 0.000000000000000000, 0.000000000000000000, -1.000000000000000000 ) ) ;
#90 = PERSON_AND_ORGANIZATION_ROLE ( 'design_supplier' ) ;
#91 = FACE_OUTER_BOUND ( 'NONE', #17, .T. ) ;
#92 = LOCAL_TIME ( 11, 15, 53.00000000000000000, #96 ) ;
#93 = CARTESIAN_POINT ( 'NONE',  ( 0.000000000000000000, 0.000000000000000000, 0.000000000000000000 ) ) ;
#94 = CALENDAR_DATE ( 2022, 10, 7 ) ;
#95 = FACE_OUTER_BOUND ( 'NONE', #376, .T. ) ;
#96 = COORDINATED_UNIVERSAL_TIME_OFFSET ( 1, 0, .AHEAD. ) ;
#97 = AXIS2_PLACEMENT_3D ( 'NONE', #23, #142, #113 ) ;
#98 = ADVANCED_FACE ( 'NONE', ( #91 ), #59, .T. ) ;
#99 = SHAPE_DEFINITION_REPRESENTATION ( #158, #236 ) ;
#100 = CYLINDRICAL_SURFACE ( 'NONE', #148, 5.000000000000000000 ) ;
#101 = ORIENTED_EDGE ( 'NONE', *, *, #176, .F. ) ;
#102 = DIRECTION ( 'NONE',  ( -1.000000000000000000, 0.000000000000000000, 0.000000000000000000 ) ) ;
#103 = AXIS2_PLACEMENT_3D ( 'NONE', #177, #89, #117 ) ;
#104 = CARTESIAN_POINT ( 'NONE',  ( 5.000000000000000000, 6.123233995736766282E-16, 3.000000000000000000 ) ) ;
#105 = AXIS2_PLACEMENT_3D ( 'NONE', #369, #130, #224 ) ;
#106 = CYLINDRICAL_SURFACE ( 'NONE', #273, 2.500000000000000000 ) ;
#107 = ORIENTED_EDGE ( 'NONE', *, *, #39, .T. ) ;
#108 = CARTESIAN_POINT ( 'NONE',  ( 0.000000000000000000, 0.000000000000000000, 3.000000000000000000 ) ) ;
#109 = EDGE_CURVE ( 'NONE', #10, #13, #233, .T. ) ;
#110 = TOROIDAL_SURFACE ( 'NONE', #121, 2.799999999999999822, 0.2999999999999999889 ) ;
#111 = CARTESIAN_POINT ( 'NONE',  ( 0.000000000000000000, 0.000000000000000000, 203.0000000000000000 ) ) ;
#112 = AXIS2_PLACEMENT_3D ( 'NONE', #313, #286, #169 ) ;
#113 = DIRECTION ( 'NONE',  ( 1.000000000000000000, 0.000000000000000000, 0.000000000000000000 ) ) ;
#114 = VERTEX_POINT ( 'NONE', #6 ) ;
#115 = ADVANCED_FACE ( 'NONE', ( #95 ), #168, .F. ) ;
#116 = CARTESIAN_POINT ( 'NONE',  ( 0.000000000000000000, 0.000000000000000000, 203.0000000000000000 ) ) ;
#117 = DIRECTION ( 'NONE',  ( -1.000000000000000000, 0.000000000000000000, 0.000000000000000000 ) ) ;
#118 = APPROVAL ( #57, 'NEURÈENÝ' ) ;
#119 = COORDINATED_UNIVERSAL_TIME_OFFSET ( 1, 0, .AHEAD. ) ;
#120 = DIRECTION ( 'NONE',  ( -0.000000000000000000, -0.000000000000000000, -1.000000000000000000 ) ) ;
#121 = AXIS2_PLACEMENT_3D ( 'NONE', #201, #72, #255 ) ;
#122 = LINE ( 'NONE', #334, #149 ) ;
#123 = APPROVAL_ROLE ( '' ) ;
#124 = CARTESIAN_POINT ( 'NONE',  ( 0.000000000000000000, 0.000000000000000000, 3.000000000000000000 ) ) ;
#125 = CARTESIAN_POINT ( 'NONE',  ( 0.000000000000000000, 0.000000000000000000, 3.299999999999997158 ) ) ;
#126 = APPROVAL_PERSON_ORGANIZATION ( #305, #118, #123 ) ;
#127 = ORIENTED_EDGE ( 'NONE', *, *, #320, .T. ) ;
#128 = DIRECTION ( 'NONE',  ( 1.224646799147353207E-16, 1.000000000000000000, -0.000000000000000000 ) ) ;
#129 = ORIENTED_EDGE ( 'NONE', *, *, #252, .T. ) ;
#130 = DIRECTION ( 'NONE',  ( 0.000000000000000000, 0.000000000000000000, 1.000000000000000000 ) ) ;
#131 = EDGE_CURVE ( 'NONE', #114, #13, #122, .T. ) ;
#132 = DIRECTION ( 'NONE',  ( 1.000000000000000000, 0.000000000000000000, 0.000000000000000000 ) ) ;
#133 = VERTEX_POINT ( 'NONE', #279 ) ;
#134 = VECTOR ( 'NONE', #321, 1000.000000000000000 ) ;
#135 = DIRECTION ( 'NONE',  ( 1.000000000000000000, 0.000000000000000000, -0.000000000000000000 ) ) ;
#136 = DIRECTION ( 'NONE',  ( 1.000000000000000000, 0.000000000000000000, 0.000000000000000000 ) ) ;
#137 = ADVANCED_FACE ( 'NONE', ( #213, #63 ), #34, .T. ) ;
#138 = VERTEX_POINT ( 'NONE', #231 ) ;
#139 = CARTESIAN_POINT ( 'NONE',  ( 5.000000000000000000, 6.123233995736766282E-16, 3.000000000000000000 ) ) ;
#140 = ORIENTED_EDGE ( 'NONE', *, *, #185, .T. ) ;
#141 = PERSON_AND_ORGANIZATION ( #71, #143 ) ;
#142 = DIRECTION ( 'NONE',  ( 0.000000000000000000, 0.000000000000000000, 1.000000000000000000 ) ) ;
#143 = ORGANIZATION ( 'NEURÈENÝ', 'NEURÈENÝ', '' ) ;
#144 = LINE ( 'NONE', #268, #134 ) ;
#145 = EDGE_LOOP ( 'NONE', ( #190, #73, #333, #380 ) ) ;
#146 = CC_DESIGN_DATE_AND_TIME_ASSIGNMENT ( #328, #62, ( #159 ) ) ;
#147 = PERSON_AND_ORGANIZATION ( #71, #143 ) ;
#148 = AXIS2_PLACEMENT_3D ( 'NONE', #67, #308, #244 ) ;
#149 = VECTOR ( 'NONE', #329, 1000.000000000000000 ) ;
#150 = CIRCLE ( 'NONE', #105, 2.500000000000000000 ) ;
#151 = EDGE_CURVE ( 'NONE', #363, #10, #281, .T. ) ;
#152 = DIRECTION ( 'NONE',  ( -0.000000000000000000, -0.000000000000000000, -1.000000000000000000 ) ) ;
#153 = LINE ( 'NONE', #271, #9 ) ;
#154 = CC_DESIGN_APPROVAL ( #266, ( #55 ) ) ;
#155 = EDGE_LOOP ( 'NONE', ( #205, #129 ) ) ;
#156 = CARTESIAN_POINT ( 'NONE',  ( 0.000000000000000000, 0.000000000000000000, 3.000000000000000000 ) ) ;
#157 = ORIENTED_EDGE ( 'NONE', *, *, #39, .F. ) ;
#158 = PRODUCT_DEFINITION_SHAPE ( 'NONE', 'NONE',  #159 ) ;
#159 = PRODUCT_DEFINITION ( 'NEZNÁMÝ', '', #296, #198 ) ;
#160 = FACE_OUTER_BOUND ( 'NONE', #145, .T. ) ;
#161 = CIRCLE ( 'NONE', #295, 1.600000000000000089 ) ;
#162 = FACE_OUTER_BOUND ( 'NONE', #209, .T. ) ;
#163 = ORIENTED_EDGE ( 'NONE', *, *, #210, .T. ) ;
#164 = AXIS2_PLACEMENT_3D ( 'NONE', #377, #379, #54 ) ;
#165 = EDGE_CURVE ( 'NONE', #133, #358, #150, .T. ) ;
#166 = FACE_OUTER_BOUND ( 'NONE', #330, .T. ) ;
#167 = DIRECTION ( 'NONE',  ( -0.000000000000000000, -0.000000000000000000, -1.000000000000000000 ) ) ;
#168 = TOROIDAL_SURFACE ( 'NONE', #225, 2.799999999999999822, 0.2999999999999999889 ) ;
#169 = DIRECTION ( 'NONE',  ( 0.000000000000000000, 0.000000000000000000, -1.000000000000000000 ) ) ;
#170 = CIRCLE ( 'NONE', #267, 5.000000000000000000 ) ;
#171 = MECHANICAL_CONTEXT ( 'NONE', #292, 'mechanical' ) ;
#172 = CYLINDRICAL_SURFACE ( 'NONE', #5, 1.600000000000000089 ) ;
#173 = CARTESIAN_POINT ( 'NONE',  ( 0.000000000000000000, 0.000000000000000000, 203.0000000000000000 ) ) ;
#174 = LOCAL_TIME ( 11, 15, 53.00000000000000000, #119 ) ;
#175 = CALENDAR_DATE ( 2022, 10, 7 ) ;
#176 = EDGE_CURVE ( 'NONE', #316, #251, #43, .T. ) ;
#177 = CARTESIAN_POINT ( 'NONE',  ( 0.000000000000000000, 0.000000000000000000, 203.0000000000000000 ) ) ;
#178 = PERSON_AND_ORGANIZATION_ROLE ( 'classification_officer' ) ;
#179 = MANIFOLD_SOLID_BREP ( 'Odebrat vysunutím3', #47 ) ;
#180 = DIRECTION ( 'NONE',  ( 0.000000000000000000, 0.000000000000000000, 1.000000000000000000 ) ) ;
#181 = ORIENTED_EDGE ( 'NONE', *, *, #165, .T. ) ;
#182 = APPROVAL_ROLE ( '' ) ;
#183 = AXIS2_PLACEMENT_3D ( 'NONE', #173, #322, #24 ) ;
#184 = ORIENTED_EDGE ( 'NONE', *, *, #151, .T. ) ;
#185 = EDGE_CURVE ( 'NONE', #358, #133, #74, .T. ) ;
#186 = DATE_TIME_ROLE ( 'classification_date' ) ;
#187 = DIRECTION ( 'NONE',  ( 1.000000000000000000, 0.000000000000000000, 0.000000000000000000 ) ) ;
#188 = ORIENTED_EDGE ( 'NONE', *, *, #341, .F. ) ;
#189 = DIRECTION ( 'NONE',  ( 0.000000000000000000, 0.000000000000000000, 1.000000000000000000 ) ) ;
#190 = ORIENTED_EDGE ( 'NONE', *, *, #151, .F. ) ;
#191 = APPLICATION_CONTEXT ( 'configuration controlled 3d designs of mechanical parts and assemblies' ) ;
#192 = DIRECTION ( 'NONE',  ( 1.000000000000000000, 0.000000000000000000, 0.000000000000000000 ) ) ;
#193 = LINE ( 'NONE', #310, #291 ) ;
#194 = EDGE_LOOP ( 'NONE', ( #248, #2 ) ) ;
#195 = CARTESIAN_POINT ( 'NONE',  ( 0.000000000000000000, 0.000000000000000000, 203.0000000000000000 ) ) ;
#196 = EDGE_LOOP ( 'NONE', ( #19, #202 ) ) ;
#197 = PRODUCT_RELATED_PRODUCT_CATEGORY ( 'detail', '', ( #326 ) ) ;
#198 = DESIGN_CONTEXT ( 'detailed design', #191, 'design' ) ;
#199 = CARTESIAN_POINT ( 'NONE',  ( -2.500000000000000000, 0.000000000000000000, 203.0000000000000000 ) ) ;
#200 = APPROVAL_PERSON_ORGANIZATION ( #85, #15, #207 ) ;
#201 = CARTESIAN_POINT ( 'NONE',  ( 0.000000000000000000, 0.000000000000000000, 3.299999999999997158 ) ) ;
#202 = ORIENTED_EDGE ( 'NONE', *, *, #109, .F. ) ;
#203 = FACE_BOUND ( 'NONE', #194, .T. ) ;
#204 = APPLICATION_PROTOCOL_DEFINITION ( 'international standard', 'config_control_design', 1994, #292 ) ;
#205 = ORIENTED_EDGE ( 'NONE', *, *, #259, .T. ) ;
#206 = CIRCLE ( 'NONE', #256, 5.000000000000000000 ) ;
#207 = APPROVAL_ROLE ( '' ) ;
#208 = APPROVAL_STATUS ( 'not_yet_approved' ) ;
#209 = EDGE_LOOP ( 'NONE', ( #4, #226, #127, #230 ) ) ;
#210 = EDGE_CURVE ( 'NONE', #251, #358, #312, .T. ) ;
#211 =( NAMED_UNIT ( * ) SI_UNIT ( $, .STERADIAN. ) SOLID_ANGLE_UNIT ( ) );
#212 = CALENDAR_DATE ( 2022, 10, 7 ) ;
#213 = FACE_BOUND ( 'NONE', #155, .T. ) ;
#214 = APPROVAL_DATE_TIME ( #332, #118 ) ;
#215 = AXIS2_PLACEMENT_3D ( 'NONE', #29, #120, #222 ) ;
#216 = DIRECTION ( 'NONE',  ( 0.000000000000000000, 0.000000000000000000, 1.000000000000000000 ) ) ;
#217 = ORIENTED_EDGE ( 'NONE', *, *, #69, .T. ) ;
#218 = CC_DESIGN_DATE_AND_TIME_ASSIGNMENT ( #249, #186, ( #55 ) ) ;
#219 = AXIS2_PLACEMENT_3D ( 'NONE', #124, #258, #135 ) ;
#220 = CARTESIAN_POINT ( 'NONE',  ( 0.000000000000000000, 0.000000000000000000, 0.000000000000000000 ) ) ;
#221 = CALENDAR_DATE ( 2022, 10, 7 ) ;
#222 = DIRECTION ( 'NONE',  ( -1.000000000000000000, 0.000000000000000000, 0.000000000000000000 ) ) ;
#223 = CC_DESIGN_PERSON_AND_ORGANIZATION_ASSIGNMENT ( #141, #264, ( #326 ) ) ;
#224 = DIRECTION ( 'NONE',  ( 1.000000000000000000, 0.000000000000000000, 0.000000000000000000 ) ) ;
#225 = AXIS2_PLACEMENT_3D ( 'NONE', #125, #307, #187 ) ;
#226 = ORIENTED_EDGE ( 'NONE', *, *, #185, .F. ) ;
#227 = DIRECTION ( 'NONE',  ( 1.000000000000000000, 0.000000000000000000, 0.000000000000000000 ) ) ;
#228 = AXIS2_PLACEMENT_3D ( 'NONE', #111, #237, #48 ) ;
#229 = DIRECTION ( 'NONE',  ( -0.000000000000000000, -0.000000000000000000, -1.000000000000000000 ) ) ;
#230 = ORIENTED_EDGE ( 'NONE', *, *, #252, .F. ) ;
#231 = CARTESIAN_POINT ( 'NONE',  ( 2.799999999999999822, 0.000000000000000000, 2.999999999999998668 ) ) ;
#232 = VERTEX_POINT ( 'NONE', #284 ) ;
#233 = CIRCLE ( 'NONE', #53, 5.000000000000000000 ) ;
#234 = DIRECTION ( 'NONE',  ( -0.000000000000000000, -0.000000000000000000, -1.000000000000000000 ) ) ;
#235 = CC_DESIGN_APPROVAL ( #118, ( #296 ) ) ;
#236 = ADVANCED_BREP_SHAPE_REPRESENTATION ( '3abe', ( #179, #97 ), #79 ) ;
#237 = DIRECTION ( 'NONE',  ( 0.000000000000000000, 0.000000000000000000, 1.000000000000000000 ) ) ;
#238 = ADVANCED_FACE ( 'NONE', ( #160 ), #80, .T. ) ;
#239 = FACE_OUTER_BOUND ( 'NONE', #272, .T. ) ;
#240 = DIRECTION ( 'NONE',  ( 0.000000000000000000, 0.000000000000000000, 1.000000000000000000 ) ) ;
#241 = CIRCLE ( 'NONE', #362, 2.799999999999999822 ) ;
#242 = ORIENTED_EDGE ( 'NONE', *, *, #259, .F. ) ;
#243 = CYLINDRICAL_SURFACE ( 'NONE', #103, 1.600000000000000089 ) ;
#244 = DIRECTION ( 'NONE',  ( -1.000000000000000000, 0.000000000000000000, 0.000000000000000000 ) ) ;
#245 = VECTOR ( 'NONE', #167, 1000.000000000000000 ) ;
#246 = CARTESIAN_POINT ( 'NONE',  ( 0.000000000000000000, 0.000000000000000000, 0.000000000000000000 ) ) ;
#247 = DATE_AND_TIME ( #212, #92 ) ;
#248 = ORIENTED_EDGE ( 'NONE', *, *, #51, .F. ) ;
#249 = DATE_AND_TIME ( #221, #278 ) ;
#250 = CC_DESIGN_APPROVAL ( #15, ( #159 ) ) ;
#251 = VERTEX_POINT ( 'NONE', #75 ) ;
#252 = EDGE_CURVE ( 'NONE', #323, #138, #343, .T. ) ;
#253 = CARTESIAN_POINT ( 'NONE',  ( 0.000000000000000000, 0.000000000000000000, 0.000000000000000000 ) ) ;
#254 = CARTESIAN_POINT ( 'NONE',  ( 0.000000000000000000, 0.000000000000000000, 3.299999999999997158 ) ) ;
#255 = DIRECTION ( 'NONE',  ( 1.000000000000000000, 0.000000000000000000, 0.000000000000000000 ) ) ;
#256 = AXIS2_PLACEMENT_3D ( 'NONE', #76, #12, #132 ) ;
#257 = ORIENTED_EDGE ( 'NONE', *, *, #165, .F. ) ;
#258 = DIRECTION ( 'NONE',  ( 0.000000000000000000, 0.000000000000000000, 1.000000000000000000 ) ) ;
#259 = EDGE_CURVE ( 'NONE', #138, #323, #241, .T. ) ;
#260 = CARTESIAN_POINT ( 'NONE',  ( -2.799999999999999822, 3.429011037612588783E-16, 3.299999999999997158 ) ) ;
#261 = EDGE_LOOP ( 'NONE', ( #280, #107 ) ) ;
#262 = CC_DESIGN_PERSON_AND_ORGANIZATION_ASSIGNMENT ( #301, #178, ( #55 ) ) ;
#263 = PLANE ( 'NONE',  #164 ) ;
#264 = PERSON_AND_ORGANIZATION_ROLE ( 'design_owner' ) ;
#265 = PLANE ( 'NONE',  #183 ) ;
#266 = APPROVAL ( #355, 'NEURÈENÝ' ) ;
#267 = AXIS2_PLACEMENT_3D ( 'NONE', #22, #240, #20 ) ;
#268 = CARTESIAN_POINT ( 'NONE',  ( -1.600000000000000089, 0.000000000000000000, 203.0000000000000000 ) ) ;
#269 = FACE_OUTER_BOUND ( 'NONE', #65, .T. ) ;
#270 = CIRCLE ( 'NONE', #345, 5.000000000000000000 ) ;
#271 = CARTESIAN_POINT ( 'NONE',  ( -2.500000000000000000, 0.000000000000000000, 203.0000000000000000 ) ) ;
#272 = EDGE_LOOP ( 'NONE', ( #40, #68, #290, #188 ) ) ;
#273 = AXIS2_PLACEMENT_3D ( 'NONE', #195, #234, #78 ) ;
#274 = DIRECTION ( 'NONE',  ( 1.000000000000000000, 0.000000000000000000, 0.000000000000000000 ) ) ;
#275 = PERSON_AND_ORGANIZATION_ROLE ( 'creator' ) ;
#276 = ORIENTED_EDGE ( 'NONE', *, *, #82, .T. ) ;
#277 = EDGE_CURVE ( 'NONE', #314, #368, #193, .T. ) ;
#278 = LOCAL_TIME ( 11, 15, 53.00000000000000000, #66 ) ;
#279 = CARTESIAN_POINT ( 'NONE',  ( -2.500000000000000000, 0.000000000000000000, 3.299999999999997158 ) ) ;
#280 = ORIENTED_EDGE ( 'NONE', *, *, #176, .T. ) ;
#281 = LINE ( 'NONE', #104, #245 ) ;
#282 = DIRECTION ( 'NONE',  ( -0.000000000000000000, -0.000000000000000000, -1.000000000000000000 ) ) ;
#283 = EDGE_CURVE ( 'NONE', #133, #323, #350, .T. ) ;
#284 = CARTESIAN_POINT ( 'NONE',  ( -1.600000000000000089, 0.000000000000000000, 203.0000000000000000 ) ) ;
#285 = AXIS2_PLACEMENT_3D ( 'NONE', #254, #42, #227 ) ;
#286 = DIRECTION ( 'NONE',  ( 0.000000000000000000, -1.000000000000000000, 0.000000000000000000 ) ) ;
#287 = DIRECTION ( 'NONE',  ( -1.000000000000000000, 0.000000000000000000, 0.000000000000000000 ) ) ;
#288 = EDGE_CURVE ( 'NONE', #368, #81, #49, .T. ) ;
#289 = FACE_OUTER_BOUND ( 'NONE', #261, .T. ) ;
#290 = ORIENTED_EDGE ( 'NONE', *, *, #288, .T. ) ;
#291 = VECTOR ( 'NONE', #340, 1000.000000000000000 ) ;
#292 = APPLICATION_CONTEXT ( 'configuration controlled 3d designs of mechanical parts and assemblies' ) ;
#293 = EDGE_LOOP ( 'NONE', ( #347, #184, #35, #311 ) ) ;
#294 = ORIENTED_EDGE ( 'NONE', *, *, #51, .T. ) ;
#295 = AXIS2_PLACEMENT_3D ( 'NONE', #58, #356, #359 ) ;
#296 = PRODUCT_DEFINITION_FORMATION_WITH_SPECIFIED_SOURCE ( 'LIBOVOLNÝ', '', #326, .NOT_KNOWN. ) ;
#297 = SECURITY_CLASSIFICATION_LEVEL ( 'unclassified' ) ;
#298 = APPROVAL_DATE_TIME ( #1, #15 ) ;
#299 = EDGE_CURVE ( 'NONE', #363, #114, #206, .T. ) ;
#300 = AXIS2_PLACEMENT_3D ( 'NONE', #246, #152, #3 ) ;
#301 = PERSON_AND_ORGANIZATION ( #71, #143 ) ;
#302 = CARTESIAN_POINT ( 'NONE',  ( 0.000000000000000000, 0.000000000000000000, 203.0000000000000000 ) ) ;
#303 = ORIENTED_EDGE ( 'NONE', *, *, #299, .T. ) ;
#304 = AXIS2_PLACEMENT_3D ( 'NONE', #309, #339, #192 ) ;
#305 = PERSON_AND_ORGANIZATION ( #71, #143 ) ;
#306 = ADVANCED_FACE ( 'NONE', ( #162 ), #110, .F. ) ;
#307 = DIRECTION ( 'NONE',  ( 0.000000000000000000, 0.000000000000000000, 1.000000000000000000 ) ) ;
#308 = DIRECTION ( 'NONE',  ( -0.000000000000000000, -0.000000000000000000, -1.000000000000000000 ) ) ;
#309 = CARTESIAN_POINT ( 'NONE',  ( 0.000000000000000000, 0.000000000000000000, 203.0000000000000000 ) ) ;
#310 = CARTESIAN_POINT ( 'NONE',  ( 1.600000000000000089, 1.959434878635764737E-16, 203.0000000000000000 ) ) ;
#311 = ORIENTED_EDGE ( 'NONE', *, *, #131, .F. ) ;
#312 = LINE ( 'NONE', #335, #348 ) ;
#313 = CARTESIAN_POINT ( 'NONE',  ( 2.799999999999999822, 0.000000000000000000, 3.299999999999997158 ) ) ;
#314 = VERTEX_POINT ( 'NONE', #371 ) ;
#315 = ADVANCED_FACE ( 'NONE', ( #166 ), #106, .T. ) ;
#316 = VERTEX_POINT ( 'NONE', #199 ) ;
#317 = DIRECTION ( 'NONE',  ( 0.000000000000000000, 0.000000000000000000, -1.000000000000000000 ) ) ;
#318 = FACE_OUTER_BOUND ( 'NONE', #196, .T. ) ;
#319 = ORIENTED_EDGE ( 'NONE', *, *, #277, .F. ) ;
#320 = EDGE_CURVE ( 'NONE', #358, #138, #337, .T. ) ;
#321 = DIRECTION ( 'NONE',  ( 0.000000000000000000, 0.000000000000000000, -1.000000000000000000 ) ) ;
#322 = DIRECTION ( 'NONE',  ( 0.000000000000000000, 0.000000000000000000, 1.000000000000000000 ) ) ;
#323 = VERTEX_POINT ( 'NONE', #83 ) ;
#324 = APPROVAL_PERSON_ORGANIZATION ( #360, #266, #182 ) ;
#325 = CC_DESIGN_PERSON_AND_ORGANIZATION_ASSIGNMENT ( #27, #90, ( #296 ) ) ;
#326 = PRODUCT ( '3abe', '3abe', '', ( #171 ) ) ;
#327 = DIRECTION ( 'NONE',  ( -0.000000000000000000, -0.000000000000000000, -1.000000000000000000 ) ) ;
#328 = DATE_AND_TIME ( #94, #31 ) ;
#329 = DIRECTION ( 'NONE',  ( -0.000000000000000000, -0.000000000000000000, -1.000000000000000000 ) ) ;
#330 = EDGE_LOOP ( 'NONE', ( #378, #101, #276, #181 ) ) ;
#331 = ADVANCED_FACE ( 'NONE', ( #52, #289 ), #265, .T. ) ;
#332 = DATE_AND_TIME ( #175, #174 ) ;
#333 = ORIENTED_EDGE ( 'NONE', *, *, #131, .T. ) ;
#334 = CARTESIAN_POINT ( 'NONE',  ( -5.000000000000000000, 0.000000000000000000, 3.000000000000000000 ) ) ;
#335 = CARTESIAN_POINT ( 'NONE',  ( 2.500000000000000000, 3.061616997868383141E-16, 203.0000000000000000 ) ) ;
#336 = ORIENTED_EDGE ( 'NONE', *, *, #82, .F. ) ;
#337 = CIRCLE ( 'NONE', #112, 0.2999999999999999334 ) ;
#338 = DIRECTION ( 'NONE',  ( 1.000000000000000000, 0.000000000000000000, 0.000000000000000000 ) ) ;
#339 = DIRECTION ( 'NONE',  ( 0.000000000000000000, 0.000000000000000000, 1.000000000000000000 ) ) ;
#340 = DIRECTION ( 'NONE',  ( 0.000000000000000000, 0.000000000000000000, -1.000000000000000000 ) ) ;
#341 = EDGE_CURVE ( 'NONE', #232, #81, #144, .T. ) ;
#342 = CARTESIAN_POINT ( 'NONE',  ( 0.000000000000000000, 0.000000000000000000, 3.000000000000000000 ) ) ;
#343 = CIRCLE ( 'NONE', #366, 2.799999999999999822 ) ;
#344 = CARTESIAN_POINT ( 'NONE',  ( 2.500000000000000000, 3.061616997868383141E-16, 3.299999999999997158 ) ) ;
#345 = AXIS2_PLACEMENT_3D ( 'NONE', #220, #216, #30 ) ;
#346 = APPLICATION_PROTOCOL_DEFINITION ( 'international standard', 'config_control_design', 1994, #191 ) ;
#347 = ORIENTED_EDGE ( 'NONE', *, *, #299, .F. ) ;
#348 = VECTOR ( 'NONE', #18, 1000.000000000000000 ) ;
#349 = EDGE_CURVE ( 'NONE', #114, #363, #170, .T. ) ;
#350 = CIRCLE ( 'NONE', #21, 0.2999999999999999334 ) ;
#351 = COORDINATED_UNIVERSAL_TIME_OFFSET ( 1, 0, .AHEAD. ) ;
#352 = CARTESIAN_POINT ( 'NONE',  ( -5.000000000000000000, 0.000000000000000000, 0.000000000000000000 ) ) ;
#353 =( NAMED_UNIT ( * ) PLANE_ANGLE_UNIT ( ) SI_UNIT ( $, .RADIAN. ) );
#354 = ADVANCED_FACE ( 'NONE', ( #239 ), #172, .F. ) ;
#355 = APPROVAL_STATUS ( 'not_yet_approved' ) ;
#356 = DIRECTION ( 'NONE',  ( 0.000000000000000000, 0.000000000000000000, 1.000000000000000000 ) ) ;
#357 = APPROVAL_DATE_TIME ( #247, #266 ) ;
#358 = VERTEX_POINT ( 'NONE', #344 ) ;
#359 = DIRECTION ( 'NONE',  ( 1.000000000000000000, 0.000000000000000000, 0.000000000000000000 ) ) ;
#360 = PERSON_AND_ORGANIZATION ( #71, #143 ) ;
#361 = ORIENTED_EDGE ( 'NONE', *, *, #370, .F. ) ;
#362 = AXIS2_PLACEMENT_3D ( 'NONE', #156, #282, #136 ) ;
#363 = VERTEX_POINT ( 'NONE', #139 ) ;
#364 = UNCERTAINTY_MEASURE_WITH_UNIT (LENGTH_MEASURE( 1.000000000000000082E-05 ), #50, 'distance_accuracy_value', 'NONE');
#365 = AXIS2_PLACEMENT_3D ( 'NONE', #302, #189, #36 ) ;
#366 = AXIS2_PLACEMENT_3D ( 'NONE', #342, #229, #338 ) ;
#367 = DIRECTION ( 'NONE',  ( -1.000000000000000000, 1.224646799147353207E-16, 0.000000000000000000 ) ) ;
#368 = VERTEX_POINT ( 'NONE', #374 ) ;
#369 = CARTESIAN_POINT ( 'NONE',  ( 0.000000000000000000, 0.000000000000000000, 3.299999999999997158 ) ) ;
#370 = EDGE_CURVE ( 'NONE', #232, #314, #64, .T. ) ;
#371 = CARTESIAN_POINT ( 'NONE',  ( 1.600000000000000089, 1.959434878635764737E-16, 203.0000000000000000 ) ) ;
#372 = CIRCLE ( 'NONE', #300, 1.600000000000000089 ) ;
#373 = ORIENTED_EDGE ( 'NONE', *, *, #283, .T. ) ;
#374 = CARTESIAN_POINT ( 'NONE',  ( 1.600000000000000089, 1.959434878635764737E-16, 0.000000000000000000 ) ) ;
#375 = CC_DESIGN_SECURITY_CLASSIFICATION ( #55, ( #296 ) ) ;
#376 = EDGE_LOOP ( 'NONE', ( #257, #373, #242, #60 ) ) ;
#377 = CARTESIAN_POINT ( 'NONE',  ( 0.000000000000000000, 0.000000000000000000, 0.000000000000000000 ) ) ;
#378 = ORIENTED_EDGE ( 'NONE', *, *, #210, .F. ) ;
#379 = DIRECTION ( 'NONE',  ( 0.000000000000000000, 0.000000000000000000, 1.000000000000000000 ) ) ;
#380 = ORIENTED_EDGE ( 'NONE', *, *, #87, .T. ) ;
#381 = ADVANCED_FACE ( 'NONE', ( #203, #318 ), #263, .F. ) ;
ENDSEC;
END-ISO-10303-21;
