ISO-10303-21;
HEADER;
FILE_DESCRIPTION (( 'STEP AP203' ),
    '1' );
FILE_NAME ('1e14.STEP',
    '2022-07-10T09:17:13',
    ( '' ),
    ( '' ),
    'SwSTEP 2.0',
    'SolidWorks 2019',
    '' );
FILE_SCHEMA (( 'CONFIG_CONTROL_DESIGN' ));
ENDSEC;

DATA;
#1 = ORIENTED_EDGE ( 'NONE', *, *, #58, .T. ) ;
#2 = AXIS2_PLACEMENT_3D ( 'NONE', #108, #344, #104 ) ;
#3 = EDGE_LOOP ( 'NONE', ( #140, #288 ) ) ;
#4 = EDGE_CURVE ( 'NONE', #242, #172, #219, .T. ) ;
#5 = DIRECTION ( 'NONE',  ( 1.224646799147353207E-16, 1.000000000000000000, -0.000000000000000000 ) ) ;
#6 = VERTEX_POINT ( 'NONE', #208 ) ;
#7 = DIRECTION ( 'NONE',  ( 0.000000000000000000, 0.000000000000000000, 1.000000000000000000 ) ) ;
#8 = VERTEX_POINT ( 'NONE', #184 ) ;
#9 = DIRECTION ( 'NONE',  ( 1.000000000000000000, 0.000000000000000000, 0.000000000000000000 ) ) ;
#10 = LOCAL_TIME ( 11, 17, 13.00000000000000000, #216 ) ;
#11 = DIRECTION ( 'NONE',  ( 0.000000000000000000, 0.000000000000000000, 1.000000000000000000 ) ) ;
#12 = DIRECTION ( 'NONE',  ( 1.000000000000000000, 0.000000000000000000, 0.000000000000000000 ) ) ;
#13 = CLOSED_SHELL ( 'NONE', ( #54, #292, #24, #274, #378, #189, #322, #30, #302, #131, #228 ) ) ;
#14 = ORIENTED_EDGE ( 'NONE', *, *, #259, .F. ) ;
#15 = APPROVAL_DATE_TIME ( #129, #319 ) ;
#16 = DIRECTION ( 'NONE',  ( 1.000000000000000000, 0.000000000000000000, 0.000000000000000000 ) ) ;
#17 = LOCAL_TIME ( 11, 17, 13.00000000000000000, #105 ) ;
#18 = LINE ( 'NONE', #124, #289 ) ;
#19 = CARTESIAN_POINT ( 'NONE',  ( 2.500000000000000000, 3.061616997868383141E-16, 3.299999999999997158 ) ) ;
#20 = FACE_OUTER_BOUND ( 'NONE', #173, .T. ) ;
#21 = CIRCLE ( 'NONE', #251, 2.500000000000000000 ) ;
#22 = DIRECTION ( 'NONE',  ( 1.000000000000000000, 0.000000000000000000, 0.000000000000000000 ) ) ;
#23 = DIRECTION ( 'NONE',  ( -0.000000000000000000, -0.000000000000000000, -1.000000000000000000 ) ) ;
#24 = ADVANCED_FACE ( 'NONE', ( #364 ), #209, .T. ) ;
#25 = AXIS2_PLACEMENT_3D ( 'NONE', #72, #79, #43 ) ;
#26 = DIRECTION ( 'NONE',  ( 1.000000000000000000, 0.000000000000000000, 0.000000000000000000 ) ) ;
#27 = VERTEX_POINT ( 'NONE', #305 ) ;
#28 = ORIENTED_EDGE ( 'NONE', *, *, #94, .T. ) ;
#29 = ORIENTED_EDGE ( 'NONE', *, *, #141, .F. ) ;
#30 = ADVANCED_FACE ( 'NONE', ( #78 ), #338, .T. ) ;
#31 = EDGE_LOOP ( 'NONE', ( #334, #142, #230, #196 ) ) ;
#32 = APPROVAL_PERSON_ORGANIZATION ( #243, #150, #190 ) ;
#33 = PERSON_AND_ORGANIZATION_ROLE ( 'design_owner' ) ;
#34 = ORIENTED_EDGE ( 'NONE', *, *, #306, .F. ) ;
#35 = DIRECTION ( 'NONE',  ( -0.000000000000000000, -0.000000000000000000, -1.000000000000000000 ) ) ;
#36 = AXIS2_PLACEMENT_3D ( 'NONE', #103, #11, #276 ) ;
#37 = DIRECTION ( 'NONE',  ( 1.000000000000000000, 0.000000000000000000, 0.000000000000000000 ) ) ;
#38 = DIRECTION ( 'NONE',  ( -0.000000000000000000, -0.000000000000000000, -1.000000000000000000 ) ) ;
#39 = AXIS2_PLACEMENT_3D ( 'NONE', #137, #87, #26 ) ;
#40 = CARTESIAN_POINT ( 'NONE',  ( -5.000000000000000000, 0.000000000000000000, 3.000000000000000000 ) ) ;
#41 = DIRECTION ( 'NONE',  ( 0.000000000000000000, 0.000000000000000000, -1.000000000000000000 ) ) ;
#42 = DATE_AND_TIME ( #246, #17 ) ;
#43 = DIRECTION ( 'NONE',  ( -1.000000000000000000, 0.000000000000000000, 0.000000000000000000 ) ) ;
#44 = DATE_AND_TIME ( #51, #63 ) ;
#45 = DIRECTION ( 'NONE',  ( 0.000000000000000000, 0.000000000000000000, 1.000000000000000000 ) ) ;
#46 = COORDINATED_UNIVERSAL_TIME_OFFSET ( 1, 0, .AHEAD. ) ;
#47 = LOCAL_TIME ( 11, 17, 13.00000000000000000, #46 ) ;
#48 = DIRECTION ( 'NONE',  ( 0.000000000000000000, 0.000000000000000000, -1.000000000000000000 ) ) ;
#49 = CALENDAR_DATE ( 2022, 10, 7 ) ;
#50 = DIRECTION ( 'NONE',  ( 0.000000000000000000, 0.000000000000000000, 1.000000000000000000 ) ) ;
#51 = CALENDAR_DATE ( 2022, 10, 7 ) ;
#52 = DIRECTION ( 'NONE',  ( 1.000000000000000000, 0.000000000000000000, -0.000000000000000000 ) ) ;
#53 = VECTOR ( 'NONE', #222, 1000.000000000000000 ) ;
#54 = ADVANCED_FACE ( 'NONE', ( #272 ), #301, .F. ) ;
#55 = DIRECTION ( 'NONE',  ( -0.000000000000000000, -0.000000000000000000, -1.000000000000000000 ) ) ;
#56 = CC_DESIGN_APPROVAL ( #179, ( #235 ) ) ;
#57 = CARTESIAN_POINT ( 'NONE',  ( 0.000000000000000000, 0.000000000000000000, 3.000000000000000000 ) ) ;
#58 = EDGE_CURVE ( 'NONE', #353, #325, #229, .T. ) ;
#59 = AXIS2_PLACEMENT_3D ( 'NONE', #178, #38, #151 ) ;
#60 = CARTESIAN_POINT ( 'NONE',  ( 0.000000000000000000, 0.000000000000000000, 3.299999999999997158 ) ) ;
#61 = AXIS2_PLACEMENT_3D ( 'NONE', #145, #234, #327 ) ;
#62 = ORIENTED_EDGE ( 'NONE', *, *, #226, .F. ) ;
#63 = LOCAL_TIME ( 11, 17, 13.00000000000000000, #249 ) ;
#64 = ORIENTED_EDGE ( 'NONE', *, *, #4, .F. ) ;
#65 = AXIS2_PLACEMENT_3D ( 'NONE', #181, #99, #37 ) ;
#66 = EDGE_LOOP ( 'NONE', ( #64, #267 ) ) ;
#67 = ADVANCED_BREP_SHAPE_REPRESENTATION ( '1e14', ( #304, #121 ), #262 ) ;
#68 = DIRECTION ( 'NONE',  ( 1.000000000000000000, 0.000000000000000000, 0.000000000000000000 ) ) ;
#69 = VERTEX_POINT ( 'NONE', #146 ) ;
#70 = VECTOR ( 'NONE', #191, 1000.000000000000000 ) ;
#71 = CYLINDRICAL_SURFACE ( 'NONE', #283, 5.000000000000000000 ) ;
#72 = CARTESIAN_POINT ( 'NONE',  ( 0.000000000000000000, 0.000000000000000000, 163.0000000000000000 ) ) ;
#73 = DIRECTION ( 'NONE',  ( -1.000000000000000000, 1.224646799147353207E-16, 0.000000000000000000 ) ) ;
#74 = ORIENTED_EDGE ( 'NONE', *, *, #141, .T. ) ;
#75 = FACE_BOUND ( 'NONE', #324, .T. ) ;
#76 = ORIENTED_EDGE ( 'NONE', *, *, #337, .T. ) ;
#77 = TOROIDAL_SURFACE ( 'NONE', #252, 2.799999999999999822, 0.2999999999999999889 ) ;
#78 = FACE_OUTER_BOUND ( 'NONE', #176, .T. ) ;
#79 = DIRECTION ( 'NONE',  ( -0.000000000000000000, -0.000000000000000000, -1.000000000000000000 ) ) ;
#80 = PERSON_AND_ORGANIZATION ( #372, #328 ) ;
#81 = DIRECTION ( 'NONE',  ( 1.000000000000000000, 0.000000000000000000, -0.000000000000000000 ) ) ;
#82 = CARTESIAN_POINT ( 'NONE',  ( -1.500000000000000222, 0.000000000000000000, 163.0000000000000000 ) ) ;
#83 = CC_DESIGN_PERSON_AND_ORGANIZATION_ASSIGNMENT ( #210, #84, ( #284 ) ) ;
#84 = PERSON_AND_ORGANIZATION_ROLE ( 'design_supplier' ) ;
#85 = FACE_OUTER_BOUND ( 'NONE', #293, .T. ) ;
#86 = DIRECTION ( 'NONE',  ( 0.000000000000000000, 0.000000000000000000, 1.000000000000000000 ) ) ;
#87 = DIRECTION ( 'NONE',  ( 0.000000000000000000, 0.000000000000000000, 1.000000000000000000 ) ) ;
#88 = FACE_OUTER_BOUND ( 'NONE', #224, .T. ) ;
#89 = ORIENTED_EDGE ( 'NONE', *, *, #197, .T. ) ;
#90 = PRODUCT_DEFINITION_SHAPE ( 'NONE', 'NONE',  #235 ) ;
#91 = AXIS2_PLACEMENT_3D ( 'NONE', #60, #359, #68 ) ;
#92 = ORIENTED_EDGE ( 'NONE', *, *, #205, .T. ) ;
#93 = AXIS2_PLACEMENT_3D ( 'NONE', #177, #45, #119 ) ;
#94 = EDGE_CURVE ( 'NONE', #8, #356, #239, .T. ) ;
#95 = ORIENTED_EDGE ( 'NONE', *, *, #161, .T. ) ;
#96 = DATE_AND_TIME ( #264, #215 ) ;
#97 = CARTESIAN_POINT ( 'NONE',  ( 5.000000000000000000, 6.123233995736766282E-16, 3.000000000000000000 ) ) ;
#98 = DIRECTION ( 'NONE',  ( -0.000000000000000000, -0.000000000000000000, -1.000000000000000000 ) ) ;
#99 = DIRECTION ( 'NONE',  ( 0.000000000000000000, 0.000000000000000000, 1.000000000000000000 ) ) ;
#100 = EDGE_CURVE ( 'NONE', #207, #69, #323, .T. ) ;
#101 = EDGE_LOOP ( 'NONE', ( #29, #89, #263, #291 ) ) ;
#102 = PERSON_AND_ORGANIZATION ( #372, #328 ) ;
#103 = CARTESIAN_POINT ( 'NONE',  ( 0.000000000000000000, 0.000000000000000000, 0.000000000000000000 ) ) ;
#104 = DIRECTION ( 'NONE',  ( 1.000000000000000000, 0.000000000000000000, 0.000000000000000000 ) ) ;
#105 = COORDINATED_UNIVERSAL_TIME_OFFSET ( 1, 0, .AHEAD. ) ;
#106 = AXIS2_PLACEMENT_3D ( 'NONE', #139, #5, #73 ) ;
#107 = LINE ( 'NONE', #136, #70 ) ;
#108 = CARTESIAN_POINT ( 'NONE',  ( 0.000000000000000000, 0.000000000000000000, 0.000000000000000000 ) ) ;
#109 = EDGE_CURVE ( 'NONE', #318, #6, #297, .T. ) ;
#110 = CIRCLE ( 'NONE', #61, 0.2999999999999999334 ) ;
#111 = DIRECTION ( 'NONE',  ( 0.000000000000000000, 0.000000000000000000, -1.000000000000000000 ) ) ;
#112 = DIRECTION ( 'NONE',  ( -0.000000000000000000, -0.000000000000000000, -1.000000000000000000 ) ) ;
#113 = ORIENTED_EDGE ( 'NONE', *, *, #245, .F. ) ;
#114 = ORIENTED_EDGE ( 'NONE', *, *, #313, .T. ) ;
#115 = ORIENTED_EDGE ( 'NONE', *, *, #100, .F. ) ;
#116 = ORIENTED_EDGE ( 'NONE', *, *, #259, .T. ) ;
#117 = CARTESIAN_POINT ( 'NONE',  ( 0.000000000000000000, 0.000000000000000000, 0.000000000000000000 ) ) ;
#118 = FACE_OUTER_BOUND ( 'NONE', #329, .T. ) ;
#119 = DIRECTION ( 'NONE',  ( 1.000000000000000000, 0.000000000000000000, 0.000000000000000000 ) ) ;
#120 = CIRCLE ( 'NONE', #201, 2.500000000000000000 ) ;
#121 = AXIS2_PLACEMENT_3D ( 'NONE', #180, #351, #9 ) ;
#122 = CARTESIAN_POINT ( 'NONE',  ( 2.500000000000000000, 3.061616997868383141E-16, 163.0000000000000000 ) ) ;
#123 = EDGE_CURVE ( 'NONE', #195, #27, #331, .T. ) ;
#124 = CARTESIAN_POINT ( 'NONE',  ( 5.000000000000000000, 6.123233995736766282E-16, 3.000000000000000000 ) ) ;
#125 = CARTESIAN_POINT ( 'NONE',  ( 0.000000000000000000, 0.000000000000000000, 163.0000000000000000 ) ) ;
#126 = CC_DESIGN_PERSON_AND_ORGANIZATION_ASSIGNMENT ( #367, #275, ( #175 ) ) ;
#127 = SECURITY_CLASSIFICATION_LEVEL ( 'unclassified' ) ;
#128 = DIRECTION ( 'NONE',  ( 0.000000000000000000, 0.000000000000000000, 1.000000000000000000 ) ) ;
#129 = DATE_AND_TIME ( #49, #10 ) ;
#130 = DIRECTION ( 'NONE',  ( -0.000000000000000000, -0.000000000000000000, -1.000000000000000000 ) ) ;
#131 = ADVANCED_FACE ( 'NONE', ( #363 ), #232, .F. ) ;
#132 = CARTESIAN_POINT ( 'NONE',  ( -2.500000000000000000, 0.000000000000000000, 3.299999999999997158 ) ) ;
#133 = FACE_BOUND ( 'NONE', #66, .T. ) ;
#134 = FACE_OUTER_BOUND ( 'NONE', #101, .T. ) ;
#135 = EDGE_CURVE ( 'NONE', #353, #207, #18, .T. ) ;
#136 = CARTESIAN_POINT ( 'NONE',  ( -1.500000000000000222, 0.000000000000000000, 163.0000000000000000 ) ) ;
#137 = CARTESIAN_POINT ( 'NONE',  ( 0.000000000000000000, 0.000000000000000000, 163.0000000000000000 ) ) ;
#138 = AXIS2_PLACEMENT_3D ( 'NONE', #348, #86, #52 ) ;
#139 = CARTESIAN_POINT ( 'NONE',  ( -2.799999999999999822, 3.429011037612588783E-16, 3.299999999999997158 ) ) ;
#140 = ORIENTED_EDGE ( 'NONE', *, *, #183, .T. ) ;
#141 = EDGE_CURVE ( 'NONE', #172, #27, #282, .T. ) ;
#142 = ORIENTED_EDGE ( 'NONE', *, *, #135, .T. ) ;
#143 = ORIENTED_EDGE ( 'NONE', *, *, #376, .F. ) ;
#144 = ORIENTED_EDGE ( 'NONE', *, *, #123, .F. ) ;
#145 = CARTESIAN_POINT ( 'NONE',  ( 2.799999999999999822, 0.000000000000000000, 3.299999999999997158 ) ) ;
#146 = CARTESIAN_POINT ( 'NONE',  ( -5.000000000000000000, 0.000000000000000000, 0.000000000000000000 ) ) ;
#147 = EDGE_LOOP ( 'NONE', ( #265, #143, #114, #211 ) ) ;
#148 = CIRCLE ( 'NONE', #375, 1.500000000000000222 ) ;
#149 = CC_DESIGN_APPROVAL ( #319, ( #284 ) ) ;
#150 = APPROVAL ( #185, 'NEURÈENÝ' ) ;
#151 = DIRECTION ( 'NONE',  ( 1.000000000000000000, 0.000000000000000000, 0.000000000000000000 ) ) ;
#152 = PERSON_AND_ORGANIZATION_ROLE ( 'creator' ) ;
#153 = DIRECTION ( 'NONE',  ( -1.000000000000000000, 0.000000000000000000, 0.000000000000000000 ) ) ;
#154 = DIRECTION ( 'NONE',  ( 1.000000000000000000, 0.000000000000000000, 0.000000000000000000 ) ) ;
#155 = VECTOR ( 'NONE', #48, 1000.000000000000000 ) ;
#156 = DATE_TIME_ROLE ( 'classification_date' ) ;
#157 = CARTESIAN_POINT ( 'NONE',  ( 0.000000000000000000, 0.000000000000000000, 3.299999999999997158 ) ) ;
#158 = DATE_TIME_ROLE ( 'creation_date' ) ;
#159 = CARTESIAN_POINT ( 'NONE',  ( 2.500000000000000000, 3.061616997868383141E-16, 163.0000000000000000 ) ) ;
#160 = CALENDAR_DATE ( 2022, 10, 7 ) ;
#161 = EDGE_CURVE ( 'NONE', #69, #207, #380, .T. ) ;
#162 = LINE ( 'NONE', #217, #53 ) ;
#163 = PRODUCT_RELATED_PRODUCT_CATEGORY ( 'detail', '', ( #166 ) ) ;
#164 = DIRECTION ( 'NONE',  ( 0.000000000000000000, 0.000000000000000000, 1.000000000000000000 ) ) ;
#165 = DIRECTION ( 'NONE',  ( 0.000000000000000000, 0.000000000000000000, 1.000000000000000000 ) ) ;
#166 = PRODUCT ( '1e14', '1e14', '', ( #361 ) ) ;
#167 = CARTESIAN_POINT ( 'NONE',  ( 0.000000000000000000, 0.000000000000000000, 3.000000000000000000 ) ) ;
#168 = ORIENTED_EDGE ( 'NONE', *, *, #337, .F. ) ;
#169 = CC_DESIGN_DATE_AND_TIME_ASSIGNMENT ( #44, #158, ( #235 ) ) ;
#170 = AXIS2_PLACEMENT_3D ( 'NONE', #57, #192, #287 ) ;
#171 = EDGE_LOOP ( 'NONE', ( #28, #298 ) ) ;
#172 = VERTEX_POINT ( 'NONE', #312 ) ;
#173 = EDGE_LOOP ( 'NONE', ( #357, #261, #290, #198 ) ) ;
#174 = COORDINATED_UNIVERSAL_TIME_OFFSET ( 1, 0, .AHEAD. ) ;
#175 = SECURITY_CLASSIFICATION ( '', '', #127 ) ;
#176 = EDGE_LOOP ( 'NONE', ( #34, #355, #260, #202 ) ) ;
#177 = CARTESIAN_POINT ( 'NONE',  ( 0.000000000000000000, 0.000000000000000000, 3.000000000000000000 ) ) ;
#178 = CARTESIAN_POINT ( 'NONE',  ( 0.000000000000000000, 0.000000000000000000, 3.000000000000000000 ) ) ;
#179 = APPROVAL ( #315, 'NEURÈENÝ' ) ;
#180 = CARTESIAN_POINT ( 'NONE',  ( 0.000000000000000000, 0.000000000000000000, 0.000000000000000000 ) ) ;
#181 = CARTESIAN_POINT ( 'NONE',  ( 0.000000000000000000, 0.000000000000000000, 163.0000000000000000 ) ) ;
#182 = VECTOR ( 'NONE', #374, 1000.000000000000000 ) ;
#183 = EDGE_CURVE ( 'NONE', #6, #318, #120, .T. ) ;
#184 = CARTESIAN_POINT ( 'NONE',  ( 2.799999999999999822, 0.000000000000000000, 2.999999999999998668 ) ) ;
#185 = APPROVAL_STATUS ( 'not_yet_approved' ) ;
#186 = LINE ( 'NONE', #159, #182 ) ;
#187 = AXIS2_PLACEMENT_3D ( 'NONE', #339, #164, #188 ) ;
#188 = DIRECTION ( 'NONE',  ( 1.000000000000000000, 0.000000000000000000, 0.000000000000000000 ) ) ;
#189 = ADVANCED_FACE ( 'NONE', ( #250, #85 ), #311, .T. ) ;
#190 = APPROVAL_ROLE ( '' ) ;
#191 = DIRECTION ( 'NONE',  ( 0.000000000000000000, 0.000000000000000000, -1.000000000000000000 ) ) ;
#192 = DIRECTION ( 'NONE',  ( -0.000000000000000000, -0.000000000000000000, -1.000000000000000000 ) ) ;
#193 = PLANE ( 'NONE',  #214 ) ;
#194 = PERSON_AND_ORGANIZATION ( #372, #328 ) ;
#195 = VERTEX_POINT ( 'NONE', #220 ) ;
#196 = ORIENTED_EDGE ( 'NONE', *, *, #205, .F. ) ;
#197 = EDGE_CURVE ( 'NONE', #172, #242, #358, .T. ) ;
#198 = ORIENTED_EDGE ( 'NONE', *, *, #313, .F. ) ;
#199 = ORIENTED_EDGE ( 'NONE', *, *, #306, .T. ) ;
#200 = APPROVAL_DATE_TIME ( #96, #179 ) ;
#201 = AXIS2_PLACEMENT_3D ( 'NONE', #279, #213, #22 ) ;
#202 = ORIENTED_EDGE ( 'NONE', *, *, #345, .T. ) ;
#203 = CARTESIAN_POINT ( 'NONE',  ( -2.799999999999999822, 3.429011037612589276E-16, 2.999999999999998668 ) ) ;
#204 = ORIENTED_EDGE ( 'NONE', *, *, #161, .F. ) ;
#205 = EDGE_CURVE ( 'NONE', #325, #69, #162, .T. ) ;
#206 = AXIS2_PLACEMENT_3D ( 'NONE', #247, #98, #154 ) ;
#207 = VERTEX_POINT ( 'NONE', #346 ) ;
#208 = CARTESIAN_POINT ( 'NONE',  ( -2.500000000000000000, 0.000000000000000000, 163.0000000000000000 ) ) ;
#209 = CYLINDRICAL_SURFACE ( 'NONE', #255, 2.500000000000000000 ) ;
#210 = PERSON_AND_ORGANIZATION ( #372, #328 ) ;
#211 = ORIENTED_EDGE ( 'NONE', *, *, #221, .F. ) ;
#212 = APPROVAL_STATUS ( 'not_yet_approved' ) ;
#213 = DIRECTION ( 'NONE',  ( 0.000000000000000000, 0.000000000000000000, 1.000000000000000000 ) ) ;
#214 = AXIS2_PLACEMENT_3D ( 'NONE', #281, #50, #81 ) ;
#215 = LOCAL_TIME ( 11, 17, 13.00000000000000000, #174 ) ;
#216 = COORDINATED_UNIVERSAL_TIME_OFFSET ( 1, 0, .AHEAD. ) ;
#217 = CARTESIAN_POINT ( 'NONE',  ( -5.000000000000000000, 0.000000000000000000, 3.000000000000000000 ) ) ;
#218 = CC_DESIGN_DATE_AND_TIME_ASSIGNMENT ( #309, #156, ( #175 ) ) ;
#219 = CIRCLE ( 'NONE', #65, 1.500000000000000222 ) ;
#220 = CARTESIAN_POINT ( 'NONE',  ( -1.500000000000000222, 0.000000000000000000, 0.000000000000000000 ) ) ;
#221 = EDGE_CURVE ( 'NONE', #356, #8, #354, .T. ) ;
#222 = DIRECTION ( 'NONE',  ( -0.000000000000000000, -0.000000000000000000, -1.000000000000000000 ) ) ;
#223 = CARTESIAN_POINT ( 'NONE',  ( 0.000000000000000000, 0.000000000000000000, 3.299999999999997158 ) ) ;
#224 = EDGE_LOOP ( 'NONE', ( #204, #115 ) ) ;
#225 = VERTEX_POINT ( 'NONE', #19 ) ;
#226 = EDGE_CURVE ( 'NONE', #242, #195, #107, .T. ) ;
#227 = VERTEX_POINT ( 'NONE', #132 ) ;
#228 = ADVANCED_FACE ( 'NONE', ( #134 ), #341, .F. ) ;
#229 = CIRCLE ( 'NONE', #93, 5.000000000000000000 ) ;
#230 = ORIENTED_EDGE ( 'NONE', *, *, #100, .T. ) ;
#231 =( LENGTH_UNIT ( ) NAMED_UNIT ( * ) SI_UNIT ( .MILLI., .METRE. ) );
#232 = TOROIDAL_SURFACE ( 'NONE', #335, 2.799999999999999822, 0.2999999999999999889 ) ;
#233 = ORIENTED_EDGE ( 'NONE', *, *, #135, .F. ) ;
#234 = DIRECTION ( 'NONE',  ( 0.000000000000000000, -1.000000000000000000, 0.000000000000000000 ) ) ;
#235 = PRODUCT_DEFINITION ( 'NEZNÁMÝ', '', #284, #362 ) ;
#236 = DIRECTION ( 'NONE',  ( 0.000000000000000000, 0.000000000000000000, 1.000000000000000000 ) ) ;
#237 = APPLICATION_PROTOCOL_DEFINITION ( 'international standard', 'config_control_design', 1994, #303 ) ;
#238 = CARTESIAN_POINT ( 'NONE',  ( 0.000000000000000000, 0.000000000000000000, 3.299999999999997158 ) ) ;
#239 = CIRCLE ( 'NONE', #59, 2.799999999999999822 ) ;
#240 = APPROVAL_ROLE ( '' ) ;
#241 = APPLICATION_CONTEXT ( 'configuration controlled 3d designs of mechanical parts and assemblies' ) ;
#242 = VERTEX_POINT ( 'NONE', #82 ) ;
#243 = PERSON_AND_ORGANIZATION ( #372, #328 ) ;
#244 = CARTESIAN_POINT ( 'NONE',  ( 0.000000000000000000, 0.000000000000000000, 163.0000000000000000 ) ) ;
#245 = EDGE_CURVE ( 'NONE', #6, #227, #254, .T. ) ;
#246 = CALENDAR_DATE ( 2022, 10, 7 ) ;
#247 = CARTESIAN_POINT ( 'NONE',  ( 0.000000000000000000, 0.000000000000000000, 0.000000000000000000 ) ) ;
#248 = CARTESIAN_POINT ( 'NONE',  ( 0.000000000000000000, 0.000000000000000000, 163.0000000000000000 ) ) ;
#249 = COORDINATED_UNIVERSAL_TIME_OFFSET ( 1, 0, .AHEAD. ) ;
#250 = FACE_BOUND ( 'NONE', #171, .T. ) ;
#251 = AXIS2_PLACEMENT_3D ( 'NONE', #223, #258, #350 ) ;
#252 = AXIS2_PLACEMENT_3D ( 'NONE', #157, #165, #314 ) ;
#253 = APPROVAL_PERSON_ORGANIZATION ( #340, #319, #240 ) ;
#254 = LINE ( 'NONE', #377, #300 ) ;
#255 = AXIS2_PLACEMENT_3D ( 'NONE', #336, #130, #366 ) ;
#256 = CYLINDRICAL_SURFACE ( 'NONE', #342, 5.000000000000000000 ) ;
#257 = FACE_OUTER_BOUND ( 'NONE', #3, .T. ) ;
#258 = DIRECTION ( 'NONE',  ( 0.000000000000000000, 0.000000000000000000, 1.000000000000000000 ) ) ;
#259 = EDGE_CURVE ( 'NONE', #325, #353, #326, .T. ) ;
#260 = ORIENTED_EDGE ( 'NONE', *, *, #245, .T. ) ;
#261 = ORIENTED_EDGE ( 'NONE', *, *, #316, .T. ) ;
#262 =( GEOMETRIC_REPRESENTATION_CONTEXT ( 3 ) GLOBAL_UNCERTAINTY_ASSIGNED_CONTEXT ( ( #269 ) ) GLOBAL_UNIT_ASSIGNED_CONTEXT ( ( #231, #268, #330 ) ) REPRESENTATION_CONTEXT ( 'NONE', 'WORKASPACE' ) );
#263 = ORIENTED_EDGE ( 'NONE', *, *, #226, .T. ) ;
#264 = CALENDAR_DATE ( 2022, 10, 7 ) ;
#265 = ORIENTED_EDGE ( 'NONE', *, *, #316, .F. ) ;
#266 = PLANE ( 'NONE',  #320 ) ;
#267 = ORIENTED_EDGE ( 'NONE', *, *, #197, .F. ) ;
#268 =( NAMED_UNIT ( * ) PLANE_ANGLE_UNIT ( ) SI_UNIT ( $, .RADIAN. ) );
#269 = UNCERTAINTY_MEASURE_WITH_UNIT (LENGTH_MEASURE( 1.000000000000000082E-05 ), #231, 'distance_accuracy_value', 'NONE');
#270 = CIRCLE ( 'NONE', #106, 0.2999999999999999334 ) ;
#271 = CC_DESIGN_SECURITY_CLASSIFICATION ( #175, ( #284 ) ) ;
#272 = FACE_OUTER_BOUND ( 'NONE', #332, .T. ) ;
#273 = CARTESIAN_POINT ( 'NONE',  ( 0.000000000000000000, 0.000000000000000000, 0.000000000000000000 ) ) ;
#274 = ADVANCED_FACE ( 'NONE', ( #307 ), #256, .T. ) ;
#275 = PERSON_AND_ORGANIZATION_ROLE ( 'classification_officer' ) ;
#276 = DIRECTION ( 'NONE',  ( 1.000000000000000000, 0.000000000000000000, 0.000000000000000000 ) ) ;
#277 = DIRECTION ( 'NONE',  ( 1.000000000000000000, 0.000000000000000000, 0.000000000000000000 ) ) ;
#278 = AXIS2_PLACEMENT_3D ( 'NONE', #248, #111, #379 ) ;
#279 = CARTESIAN_POINT ( 'NONE',  ( 0.000000000000000000, 0.000000000000000000, 163.0000000000000000 ) ) ;
#280 = AXIS2_PLACEMENT_3D ( 'NONE', #125, #236, #16 ) ;
#281 = CARTESIAN_POINT ( 'NONE',  ( 0.000000000000000000, 0.000000000000000000, 163.0000000000000000 ) ) ;
#282 = LINE ( 'NONE', #371, #155 ) ;
#283 = AXIS2_PLACEMENT_3D ( 'NONE', #167, #112, #294 ) ;
#284 = PRODUCT_DEFINITION_FORMATION_WITH_SPECIFIED_SOURCE ( 'LIBOVOLNÝ', '', #166, .NOT_KNOWN. ) ;
#285 = CARTESIAN_POINT ( 'NONE',  ( 0.000000000000000000, 0.000000000000000000, 3.000000000000000000 ) ) ;
#286 = AXIS2_PLACEMENT_3D ( 'NONE', #244, #41, #153 ) ;
#287 = DIRECTION ( 'NONE',  ( 1.000000000000000000, 0.000000000000000000, 0.000000000000000000 ) ) ;
#288 = ORIENTED_EDGE ( 'NONE', *, *, #109, .T. ) ;
#289 = VECTOR ( 'NONE', #369, 1000.000000000000000 ) ;
#290 = ORIENTED_EDGE ( 'NONE', *, *, #94, .F. ) ;
#291 = ORIENTED_EDGE ( 'NONE', *, *, #123, .T. ) ;
#292 = ADVANCED_FACE ( 'NONE', ( #20 ), #77, .F. ) ;
#293 = EDGE_LOOP ( 'NONE', ( #116, #1 ) ) ;
#294 = DIRECTION ( 'NONE',  ( -1.000000000000000000, 0.000000000000000000, 0.000000000000000000 ) ) ;
#295 = EDGE_LOOP ( 'NONE', ( #352, #199, #321, #113 ) ) ;
#296 = ORIENTED_EDGE ( 'NONE', *, *, #4, .T. ) ;
#297 = CIRCLE ( 'NONE', #280, 2.500000000000000000 ) ;
#298 = ORIENTED_EDGE ( 'NONE', *, *, #221, .T. ) ;
#299 = APPLICATION_PROTOCOL_DEFINITION ( 'international standard', 'config_control_design', 1994, #241 ) ;
#300 = VECTOR ( 'NONE', #55, 1000.000000000000000 ) ;
#301 = CYLINDRICAL_SURFACE ( 'NONE', #286, 1.500000000000000222 ) ;
#302 = ADVANCED_FACE ( 'NONE', ( #133, #257 ), #193, .T. ) ;
#303 = APPLICATION_CONTEXT ( 'configuration controlled 3d designs of mechanical parts and assemblies' ) ;
#304 = MANIFOLD_SOLID_BREP ( 'Odebrat vysunutím3', #13 ) ;
#305 = CARTESIAN_POINT ( 'NONE',  ( 1.500000000000000222, 1.836970198721030181E-16, 0.000000000000000000 ) ) ;
#306 = EDGE_CURVE ( 'NONE', #318, #225, #186, .T. ) ;
#307 = FACE_OUTER_BOUND ( 'NONE', #31, .T. ) ;
#308 = CC_DESIGN_PERSON_AND_ORGANIZATION_ASSIGNMENT ( #333, #33, ( #166 ) ) ;
#309 = DATE_AND_TIME ( #160, #47 ) ;
#310 = DIRECTION ( 'NONE',  ( -1.000000000000000000, 0.000000000000000000, 0.000000000000000000 ) ) ;
#311 = PLANE ( 'NONE',  #138 ) ;
#312 = CARTESIAN_POINT ( 'NONE',  ( 1.500000000000000222, 1.836970198721030181E-16, 163.0000000000000000 ) ) ;
#313 = EDGE_CURVE ( 'NONE', #225, #8, #110, .T. ) ;
#314 = DIRECTION ( 'NONE',  ( 1.000000000000000000, 0.000000000000000000, 0.000000000000000000 ) ) ;
#315 = APPROVAL_STATUS ( 'not_yet_approved' ) ;
#316 = EDGE_CURVE ( 'NONE', #227, #356, #270, .T. ) ;
#317 = APPROVAL_ROLE ( '' ) ;
#318 = VERTEX_POINT ( 'NONE', #122 ) ;
#319 = APPROVAL ( #212, 'NEURÈENÝ' ) ;
#320 = AXIS2_PLACEMENT_3D ( 'NONE', #273, #7, #381 ) ;
#321 = ORIENTED_EDGE ( 'NONE', *, *, #376, .T. ) ;
#322 = ADVANCED_FACE ( 'NONE', ( #75, #88 ), #266, .F. ) ;
#323 = CIRCLE ( 'NONE', #36, 5.000000000000000000 ) ;
#324 = EDGE_LOOP ( 'NONE', ( #144, #168 ) ) ;
#325 = VERTEX_POINT ( 'NONE', #40 ) ;
#326 = CIRCLE ( 'NONE', #187, 5.000000000000000000 ) ;
#327 = DIRECTION ( 'NONE',  ( 0.000000000000000000, 0.000000000000000000, -1.000000000000000000 ) ) ;
#328 = ORGANIZATION ( 'NEURÈENÝ', 'NEURÈENÝ', '' ) ;
#329 = EDGE_LOOP ( 'NONE', ( #233, #14, #92, #95 ) ) ;
#330 =( NAMED_UNIT ( * ) SI_UNIT ( $, .STERADIAN. ) SOLID_ANGLE_UNIT ( ) );
#331 = CIRCLE ( 'NONE', #206, 1.500000000000000222 ) ;
#332 = EDGE_LOOP ( 'NONE', ( #296, #74, #76, #62 ) ) ;
#333 = PERSON_AND_ORGANIZATION ( #372, #328 ) ;
#334 = ORIENTED_EDGE ( 'NONE', *, *, #58, .F. ) ;
#335 = AXIS2_PLACEMENT_3D ( 'NONE', #238, #128, #277 ) ;
#336 = CARTESIAN_POINT ( 'NONE',  ( 0.000000000000000000, 0.000000000000000000, 163.0000000000000000 ) ) ;
#337 = EDGE_CURVE ( 'NONE', #27, #195, #148, .T. ) ;
#338 = CYLINDRICAL_SURFACE ( 'NONE', #25, 2.500000000000000000 ) ;
#339 = CARTESIAN_POINT ( 'NONE',  ( 0.000000000000000000, 0.000000000000000000, 3.000000000000000000 ) ) ;
#340 = PERSON_AND_ORGANIZATION ( #372, #328 ) ;
#341 = CYLINDRICAL_SURFACE ( 'NONE', #278, 1.500000000000000222 ) ;
#342 = AXIS2_PLACEMENT_3D ( 'NONE', #285, #23, #310 ) ;
#343 = APPROVAL_DATE_TIME ( #42, #150 ) ;
#344 = DIRECTION ( 'NONE',  ( 0.000000000000000000, 0.000000000000000000, 1.000000000000000000 ) ) ;
#345 = EDGE_CURVE ( 'NONE', #227, #225, #21, .T. ) ;
#346 = CARTESIAN_POINT ( 'NONE',  ( 5.000000000000000000, 6.123233995736766282E-16, 0.000000000000000000 ) ) ;
#347 = CC_DESIGN_PERSON_AND_ORGANIZATION_ASSIGNMENT ( #102, #370, ( #284 ) ) ;
#348 = CARTESIAN_POINT ( 'NONE',  ( 0.000000000000000000, 0.000000000000000000, 3.000000000000000000 ) ) ;
#349 = APPROVAL_PERSON_ORGANIZATION ( #194, #179, #317 ) ;
#350 = DIRECTION ( 'NONE',  ( 1.000000000000000000, 0.000000000000000000, 0.000000000000000000 ) ) ;
#351 = DIRECTION ( 'NONE',  ( 0.000000000000000000, 0.000000000000000000, 1.000000000000000000 ) ) ;
#352 = ORIENTED_EDGE ( 'NONE', *, *, #109, .F. ) ;
#353 = VERTEX_POINT ( 'NONE', #97 ) ;
#354 = CIRCLE ( 'NONE', #170, 2.799999999999999822 ) ;
#355 = ORIENTED_EDGE ( 'NONE', *, *, #183, .F. ) ;
#356 = VERTEX_POINT ( 'NONE', #203 ) ;
#357 = ORIENTED_EDGE ( 'NONE', *, *, #345, .F. ) ;
#358 = CIRCLE ( 'NONE', #39, 1.500000000000000222 ) ;
#359 = DIRECTION ( 'NONE',  ( 0.000000000000000000, 0.000000000000000000, 1.000000000000000000 ) ) ;
#360 = CC_DESIGN_APPROVAL ( #150, ( #175 ) ) ;
#361 = MECHANICAL_CONTEXT ( 'NONE', #303, 'mechanical' ) ;
#362 = DESIGN_CONTEXT ( 'detailed design', #241, 'design' ) ;
#363 = FACE_OUTER_BOUND ( 'NONE', #147, .T. ) ;
#364 = FACE_OUTER_BOUND ( 'NONE', #295, .T. ) ;
#365 = CIRCLE ( 'NONE', #91, 2.500000000000000000 ) ;
#366 = DIRECTION ( 'NONE',  ( -1.000000000000000000, 0.000000000000000000, 0.000000000000000000 ) ) ;
#367 = PERSON_AND_ORGANIZATION ( #372, #328 ) ;
#368 = CC_DESIGN_PERSON_AND_ORGANIZATION_ASSIGNMENT ( #80, #152, ( #235 ) ) ;
#369 = DIRECTION ( 'NONE',  ( -0.000000000000000000, -0.000000000000000000, -1.000000000000000000 ) ) ;
#370 = PERSON_AND_ORGANIZATION_ROLE ( 'creator' ) ;
#371 = CARTESIAN_POINT ( 'NONE',  ( 1.500000000000000222, 1.836970198721030181E-16, 163.0000000000000000 ) ) ;
#372 = PERSON ( 'NEURÈENÝ', 'NEURÈENÝ', 'NEURÈENÝ', ('NEURÈENÝ'), ('NEURÈENÝ'), ('NEURÈENÝ') ) ;
#373 = SHAPE_DEFINITION_REPRESENTATION ( #90, #67 ) ;
#374 = DIRECTION ( 'NONE',  ( -0.000000000000000000, -0.000000000000000000, -1.000000000000000000 ) ) ;
#375 = AXIS2_PLACEMENT_3D ( 'NONE', #117, #35, #12 ) ;
#376 = EDGE_CURVE ( 'NONE', #225, #227, #365, .T. ) ;
#377 = CARTESIAN_POINT ( 'NONE',  ( -2.500000000000000000, 0.000000000000000000, 163.0000000000000000 ) ) ;
#378 = ADVANCED_FACE ( 'NONE', ( #118 ), #71, .T. ) ;
#379 = DIRECTION ( 'NONE',  ( -1.000000000000000000, 0.000000000000000000, 0.000000000000000000 ) ) ;
#380 = CIRCLE ( 'NONE', #2, 5.000000000000000000 ) ;
#381 = DIRECTION ( 'NONE',  ( 1.000000000000000000, 0.000000000000000000, -0.000000000000000000 ) ) ;
ENDSEC;
END-ISO-10303-21;
