ISO-10303-21;
HEADER;
FILE_DESCRIPTION (( 'STEP AP203' ),
    '1' );
FILE_NAME ('07cc.STEP',
    '2022-07-10T09:13:54',
    ( '' ),
    ( '' ),
    'SwSTEP 2.0',
    'SolidWorks 2019',
    '' );
FILE_SCHEMA (( 'CONFIG_CONTROL_DESIGN' ));
ENDSEC;

DATA;
#1 = CARTESIAN_POINT ( 'NONE',  ( 3.000000000000000444, 3.673940397442060361E-16, 155.0000000000000000 ) ) ;
#2 = DIRECTION ( 'NONE',  ( -1.000000000000000000, 0.000000000000000000, 0.000000000000000000 ) ) ;
#3 = AXIS2_PLACEMENT_3D ( 'NONE', #360, #172, #63 ) ;
#4 = EDGE_CURVE ( 'NONE', #157, #120, #196, .T. ) ;
#5 = EDGE_LOOP ( 'NONE', ( #7, #294 ) ) ;
#6 = ORIENTED_EDGE ( 'NONE', *, *, #121, .F. ) ;
#7 = ORIENTED_EDGE ( 'NONE', *, *, #22, .F. ) ;
#8 = AXIS2_PLACEMENT_3D ( 'NONE', #38, #238, #244 ) ;
#9 = DIRECTION ( 'NONE',  ( 0.000000000000000000, 0.000000000000000000, -1.000000000000000000 ) ) ;
#10 = ORIENTED_EDGE ( 'NONE', *, *, #278, .F. ) ;
#11 = APPLICATION_PROTOCOL_DEFINITION ( 'international standard', 'config_control_design', 1994, #36 ) ;
#12 = ORIENTED_EDGE ( 'NONE', *, *, #293, .F. ) ;
#13 = CIRCLE ( 'NONE', #111, 6.000000000000000888 ) ;
#14 =( NAMED_UNIT ( * ) SI_UNIT ( $, .STERADIAN. ) SOLID_ANGLE_UNIT ( ) );
#15 = ORIENTED_EDGE ( 'NONE', *, *, #22, .T. ) ;
#16 = ORIENTED_EDGE ( 'NONE', *, *, #278, .T. ) ;
#17 = APPROVAL_STATUS ( 'not_yet_approved' ) ;
#18 = EDGE_LOOP ( 'NONE', ( #73, #290 ) ) ;
#19 = AXIS2_PLACEMENT_3D ( 'NONE', #122, #115, #289 ) ;
#20 = CARTESIAN_POINT ( 'NONE',  ( -3.500000000000000444, 4.286263797015737088E-16, 5.500000000000005329 ) ) ;
#21 = CARTESIAN_POINT ( 'NONE',  ( 0.000000000000000000, 0.000000000000000000, 155.0000000000000000 ) ) ;
#22 = EDGE_CURVE ( 'NONE', #142, #66, #153, .T. ) ;
#23 = DIRECTION ( 'NONE',  ( 0.000000000000000000, 0.000000000000000000, 1.000000000000000000 ) ) ;
#24 = ORIENTED_EDGE ( 'NONE', *, *, #125, .F. ) ;
#25 = CARTESIAN_POINT ( 'NONE',  ( 0.000000000000000000, 0.000000000000000000, 5.000000000000000000 ) ) ;
#26 = VERTEX_POINT ( 'NONE', #152 ) ;
#27 = AXIS2_PLACEMENT_3D ( 'NONE', #185, #332, #207 ) ;
#28 = AXIS2_PLACEMENT_3D ( 'NONE', #265, #42, #362 ) ;
#29 = EDGE_CURVE ( 'NONE', #66, #142, #377, .T. ) ;
#30 = FACE_OUTER_BOUND ( 'NONE', #295, .T. ) ;
#31 = EDGE_LOOP ( 'NONE', ( #24, #100, #45, #12 ) ) ;
#32 = APPROVAL_DATE_TIME ( #381, #65 ) ;
#33 = DIRECTION ( 'NONE',  ( -0.000000000000000000, -0.000000000000000000, -1.000000000000000000 ) ) ;
#34 = ORIENTED_EDGE ( 'NONE', *, *, #315, .T. ) ;
#35 = LINE ( 'NONE', #263, #299 ) ;
#36 = APPLICATION_CONTEXT ( 'configuration controlled 3d designs of mechanical parts and assemblies' ) ;
#37 = AXIS2_PLACEMENT_3D ( 'NONE', #21, #87, #250 ) ;
#38 = CARTESIAN_POINT ( 'NONE',  ( 0.000000000000000000, 0.000000000000000000, 155.0000000000000000 ) ) ;
#39 = VERTEX_POINT ( 'NONE', #211 ) ;
#40 = DIRECTION ( 'NONE',  ( 1.000000000000000000, 0.000000000000000000, -0.000000000000000000 ) ) ;
#41 = EDGE_CURVE ( 'NONE', #120, #181, #335, .T. ) ;
#42 = DIRECTION ( 'NONE',  ( 0.000000000000000000, 0.000000000000000000, 1.000000000000000000 ) ) ;
#43 = ORIENTED_EDGE ( 'NONE', *, *, #301, .F. ) ;
#44 = ORIENTED_EDGE ( 'NONE', *, *, #4, .T. ) ;
#45 = ORIENTED_EDGE ( 'NONE', *, *, #348, .T. ) ;
#46 = PERSON_AND_ORGANIZATION ( #331, #221 ) ;
#47 = DIRECTION ( 'NONE',  ( 0.000000000000000000, 0.000000000000000000, 1.000000000000000000 ) ) ;
#48 = ADVANCED_FACE ( 'NONE', ( #76, #159 ), #239, .T. ) ;
#49 = PERSON_AND_ORGANIZATION_ROLE ( 'classification_officer' ) ;
#50 = AXIS2_PLACEMENT_3D ( 'NONE', #322, #60, #285 ) ;
#51 = FACE_OUTER_BOUND ( 'NONE', #173, .T. ) ;
#52 = CIRCLE ( 'NONE', #264, 6.000000000000000888 ) ;
#53 = FACE_OUTER_BOUND ( 'NONE', #261, .T. ) ;
#54 = ADVANCED_FACE ( 'NONE', ( #266 ), #165, .F. ) ;
#55 = DIRECTION ( 'NONE',  ( 1.224646799147353207E-16, 1.000000000000000000, -0.000000000000000000 ) ) ;
#56 = CARTESIAN_POINT ( 'NONE',  ( 6.000000000000000888, 7.347880794884120722E-16, 0.000000000000000000 ) ) ;
#57 = AXIS2_PLACEMENT_3D ( 'NONE', #20, #55, #162 ) ;
#58 = LOCAL_TIME ( 11, 13, 54.00000000000000000, #309 ) ;
#59 = UNCERTAINTY_MEASURE_WITH_UNIT (LENGTH_MEASURE( 1.000000000000000082E-05 ), #327, 'distance_accuracy_value', 'NONE');
#60 = DIRECTION ( 'NONE',  ( 0.000000000000000000, 0.000000000000000000, 1.000000000000000000 ) ) ;
#61 = ORIENTED_EDGE ( 'NONE', *, *, #315, .F. ) ;
#62 = CALENDAR_DATE ( 2022, 10, 7 ) ;
#63 = DIRECTION ( 'NONE',  ( 1.000000000000000000, 0.000000000000000000, 0.000000000000000000 ) ) ;
#64 = ORIENTED_EDGE ( 'NONE', *, *, #308, .T. ) ;
#65 = APPROVAL ( #291, 'NEURÈENÝ' ) ;
#66 = VERTEX_POINT ( 'NONE', #241 ) ;
#67 = CC_DESIGN_APPROVAL ( #222, ( #364 ) ) ;
#68 = FACE_OUTER_BOUND ( 'NONE', #231, .T. ) ;
#69 = ORIENTED_EDGE ( 'NONE', *, *, #144, .F. ) ;
#70 = CYLINDRICAL_SURFACE ( 'NONE', #220, 2.000000000000000000 ) ;
#71 = ORIENTED_EDGE ( 'NONE', *, *, #125, .T. ) ;
#72 = FACE_OUTER_BOUND ( 'NONE', #233, .T. ) ;
#73 = ORIENTED_EDGE ( 'NONE', *, *, #41, .T. ) ;
#74 = LOCAL_TIME ( 11, 13, 54.00000000000000000, #135 ) ;
#75 =( NAMED_UNIT ( * ) PLANE_ANGLE_UNIT ( ) SI_UNIT ( $, .RADIAN. ) );
#76 = FACE_BOUND ( 'NONE', #18, .T. ) ;
#77 = ORIENTED_EDGE ( 'NONE', *, *, #262, .F. ) ;
#78 = ORIENTED_EDGE ( 'NONE', *, *, #86, .F. ) ;
#79 = CC_DESIGN_SECURITY_CLASSIFICATION ( #183, ( #252 ) ) ;
#80 = DIRECTION ( 'NONE',  ( 0.000000000000000000, 0.000000000000000000, 1.000000000000000000 ) ) ;
#81 = DIRECTION ( 'NONE',  ( 0.000000000000000000, 0.000000000000000000, -1.000000000000000000 ) ) ;
#82 = DATE_AND_TIME ( #338, #359 ) ;
#83 = FACE_BOUND ( 'NONE', #5, .T. ) ;
#84 = SECURITY_CLASSIFICATION_LEVEL ( 'unclassified' ) ;
#85 = CARTESIAN_POINT ( 'NONE',  ( 3.000000000000000444, 3.673940397442060361E-16, 5.500000000000005329 ) ) ;
#86 = EDGE_CURVE ( 'NONE', #324, #283, #201, .T. ) ;
#87 = DIRECTION ( 'NONE',  ( -0.000000000000000000, -0.000000000000000000, -1.000000000000000000 ) ) ;
#88 = DIRECTION ( 'NONE',  ( 0.000000000000000000, 0.000000000000000000, 1.000000000000000000 ) ) ;
#89 = AXIS2_PLACEMENT_3D ( 'NONE', #380, #114, #371 ) ;
#90 = CARTESIAN_POINT ( 'NONE',  ( -6.000000000000000888, 0.000000000000000000, 5.000000000000000000 ) ) ;
#91 = CC_DESIGN_PERSON_AND_ORGANIZATION_ASSIGNMENT ( #304, #49, ( #183 ) ) ;
#92 = EDGE_LOOP ( 'NONE', ( #69, #139 ) ) ;
#93 = CARTESIAN_POINT ( 'NONE',  ( -2.000000000000000000, 0.000000000000000000, 155.0000000000000000 ) ) ;
#94 = VERTEX_POINT ( 'NONE', #56 ) ;
#95 = ORIENTED_EDGE ( 'NONE', *, *, #297, .F. ) ;
#96 = CC_DESIGN_APPROVAL ( #321, ( #252 ) ) ;
#97 = EDGE_CURVE ( 'NONE', #351, #94, #138, .T. ) ;
#98 = DIRECTION ( 'NONE',  ( -0.000000000000000000, -0.000000000000000000, -1.000000000000000000 ) ) ;
#99 = ORIENTED_EDGE ( 'NONE', *, *, #86, .T. ) ;
#100 = ORIENTED_EDGE ( 'NONE', *, *, #97, .T. ) ;
#101 = DIRECTION ( 'NONE',  ( 0.000000000000000000, 0.000000000000000000, 1.000000000000000000 ) ) ;
#102 =( GEOMETRIC_REPRESENTATION_CONTEXT ( 3 ) GLOBAL_UNCERTAINTY_ASSIGNED_CONTEXT ( ( #59 ) ) GLOBAL_UNIT_ASSIGNED_CONTEXT ( ( #327, #75, #14 ) ) REPRESENTATION_CONTEXT ( 'NONE', 'WORKASPACE' ) );
#103 = EDGE_CURVE ( 'NONE', #39, #181, #123, .T. ) ;
#104 = APPLICATION_PROTOCOL_DEFINITION ( 'international standard', 'config_control_design', 1994, #212 ) ;
#105 = DIRECTION ( 'NONE',  ( 0.000000000000000000, 0.000000000000000000, 1.000000000000000000 ) ) ;
#106 = CLOSED_SHELL ( 'NONE', ( #369, #284, #188, #344, #247, #48, #117, #150, #179, #54, #251 ) ) ;
#107 = CALENDAR_DATE ( 2022, 10, 7 ) ;
#108 = CARTESIAN_POINT ( 'NONE',  ( -3.000000000000000444, 0.000000000000000000, 155.0000000000000000 ) ) ;
#109 = CARTESIAN_POINT ( 'NONE',  ( -2.000000000000000000, 0.000000000000000000, 155.0000000000000000 ) ) ;
#110 = PLANE ( 'NONE',  #214 ) ;
#111 = AXIS2_PLACEMENT_3D ( 'NONE', #25, #23, #292 ) ;
#112 = PERSON_AND_ORGANIZATION ( #331, #221 ) ;
#113 = CARTESIAN_POINT ( 'NONE',  ( 3.500000000000000444, 0.000000000000000000, 5.000000000000002665 ) ) ;
#114 = DIRECTION ( 'NONE',  ( 0.000000000000000000, 0.000000000000000000, 1.000000000000000000 ) ) ;
#115 = DIRECTION ( 'NONE',  ( 0.000000000000000000, 0.000000000000000000, 1.000000000000000000 ) ) ;
#116 = APPROVAL_ROLE ( '' ) ;
#117 = ADVANCED_FACE ( 'NONE', ( #253, #134 ), #248, .F. ) ;
#118 = CARTESIAN_POINT ( 'NONE',  ( -3.000000000000000444, 0.000000000000000000, 155.0000000000000000 ) ) ;
#119 = CARTESIAN_POINT ( 'NONE',  ( -6.000000000000000888, 0.000000000000000000, 0.000000000000000000 ) ) ;
#120 = VERTEX_POINT ( 'NONE', #113 ) ;
#121 = EDGE_CURVE ( 'NONE', #283, #39, #375, .T. ) ;
#122 = CARTESIAN_POINT ( 'NONE',  ( 0.000000000000000000, 0.000000000000000000, 155.0000000000000000 ) ) ;
#123 = CIRCLE ( 'NONE', #57, 0.4999999999999995559 ) ;
#124 = ORIENTED_EDGE ( 'NONE', *, *, #144, .T. ) ;
#125 = EDGE_CURVE ( 'NONE', #351, #302, #182, .T. ) ;
#126 = AXIS2_PLACEMENT_3D ( 'NONE', #260, #319, #2 ) ;
#127 = DIRECTION ( 'NONE',  ( -0.000000000000000000, -0.000000000000000000, -1.000000000000000000 ) ) ;
#128 = EDGE_LOOP ( 'NONE', ( #200, #356, #44, #43 ) ) ;
#129 = CYLINDRICAL_SURFACE ( 'NONE', #8, 2.000000000000000000 ) ;
#130 = CC_DESIGN_PERSON_AND_ORGANIZATION_ASSIGNMENT ( #112, #340, ( #252 ) ) ;
#131 = CYLINDRICAL_SURFACE ( 'NONE', #226, 3.000000000000000444 ) ;
#132 = AXIS2_PLACEMENT_3D ( 'NONE', #298, #105, #365 ) ;
#133 = PERSON_AND_ORGANIZATION ( #331, #221 ) ;
#134 = FACE_OUTER_BOUND ( 'NONE', #92, .T. ) ;
#135 = COORDINATED_UNIVERSAL_TIME_OFFSET ( 1, 0, .AHEAD. ) ;
#136 = FACE_OUTER_BOUND ( 'NONE', #353, .T. ) ;
#137 = AXIS2_PLACEMENT_3D ( 'NONE', #270, #240, #81 ) ;
#138 = LINE ( 'NONE', #163, #357 ) ;
#139 = ORIENTED_EDGE ( 'NONE', *, *, #348, .F. ) ;
#140 = CYLINDRICAL_SURFACE ( 'NONE', #126, 6.000000000000000888 ) ;
#141 = CIRCLE ( 'NONE', #281, 6.000000000000000888 ) ;
#142 = VERTEX_POINT ( 'NONE', #109 ) ;
#143 = FACE_OUTER_BOUND ( 'NONE', #31, .T. ) ;
#144 = EDGE_CURVE ( 'NONE', #296, #94, #141, .T. ) ;
#145 = ORIENTED_EDGE ( 'NONE', *, *, #262, .T. ) ;
#146 = SHAPE_DEFINITION_REPRESENTATION ( #225, #155 ) ;
#147 = ORIENTED_EDGE ( 'NONE', *, *, #103, .T. ) ;
#148 = CIRCLE ( 'NONE', #288, 2.000000000000000000 ) ;
#149 = VERTEX_POINT ( 'NONE', #166 ) ;
#150 = ADVANCED_FACE ( 'NONE', ( #51 ), #131, .T. ) ;
#151 = PERSON_AND_ORGANIZATION ( #331, #221 ) ;
#152 = CARTESIAN_POINT ( 'NONE',  ( -2.000000000000000000, 0.000000000000000000, 0.000000000000000000 ) ) ;
#153 = CIRCLE ( 'NONE', #132, 2.000000000000000000 ) ;
#154 = AXIS2_PLACEMENT_3D ( 'NONE', #314, #33, #350 ) ;
#155 = ADVANCED_BREP_SHAPE_REPRESENTATION ( '07cc', ( #358, #28 ), #102 ) ;
#156 = CC_DESIGN_PERSON_AND_ORGANIZATION_ASSIGNMENT ( #303, #215, ( #364 ) ) ;
#157 = VERTEX_POINT ( 'NONE', #85 ) ;
#158 = CALENDAR_DATE ( 2022, 10, 7 ) ;
#159 = FACE_OUTER_BOUND ( 'NONE', #326, .T. ) ;
#160 = COORDINATED_UNIVERSAL_TIME_OFFSET ( 1, 0, .AHEAD. ) ;
#161 = AXIS2_PLACEMENT_3D ( 'NONE', #190, #312, #339 ) ;
#162 = DIRECTION ( 'NONE',  ( -1.000000000000000000, 1.224646799147354440E-16, 0.000000000000000000 ) ) ;
#163 = CARTESIAN_POINT ( 'NONE',  ( 6.000000000000000888, 7.347880794884120722E-16, 5.000000000000000000 ) ) ;
#164 = CARTESIAN_POINT ( 'NONE',  ( 0.000000000000000000, 0.000000000000000000, 155.0000000000000000 ) ) ;
#165 = TOROIDAL_SURFACE ( 'NONE', #287, 3.500000000000000444, 0.5000000000000000000 ) ;
#166 = CARTESIAN_POINT ( 'NONE',  ( 2.000000000000000000, 2.449293598294706414E-16, 0.000000000000000000 ) ) ;
#167 = CARTESIAN_POINT ( 'NONE',  ( -6.000000000000000888, 0.000000000000000000, 5.000000000000000000 ) ) ;
#168 = AXIS2_PLACEMENT_3D ( 'NONE', #178, #177, #40 ) ;
#169 = CARTESIAN_POINT ( 'NONE',  ( 3.000000000000000444, 3.673940397442060361E-16, 155.0000000000000000 ) ) ;
#170 = ORIENTED_EDGE ( 'NONE', *, *, #175, .T. ) ;
#171 = DIRECTION ( 'NONE',  ( -0.000000000000000000, -0.000000000000000000, -1.000000000000000000 ) ) ;
#172 = DIRECTION ( 'NONE',  ( -0.000000000000000000, -0.000000000000000000, -1.000000000000000000 ) ) ;
#173 = EDGE_LOOP ( 'NONE', ( #363, #77, #361, #170 ) ) ;
#174 = ORIENTED_EDGE ( 'NONE', *, *, #354, .T. ) ;
#175 = EDGE_CURVE ( 'NONE', #39, #157, #366, .T. ) ;
#176 = DIRECTION ( 'NONE',  ( -1.000000000000000000, 0.000000000000000000, 0.000000000000000000 ) ) ;
#177 = DIRECTION ( 'NONE',  ( 0.000000000000000000, 0.000000000000000000, 1.000000000000000000 ) ) ;
#178 = CARTESIAN_POINT ( 'NONE',  ( 0.000000000000000000, 0.000000000000000000, 5.000000000000000000 ) ) ;
#179 = ADVANCED_FACE ( 'NONE', ( #83, #136 ), #110, .T. ) ;
#180 = CARTESIAN_POINT ( 'NONE',  ( 0.000000000000000000, 0.000000000000000000, 5.000000000000000000 ) ) ;
#181 = VERTEX_POINT ( 'NONE', #310 ) ;
#182 = CIRCLE ( 'NONE', #234, 6.000000000000000888 ) ;
#183 = SECURITY_CLASSIFICATION ( '', '', #84 ) ;
#184 = DATE_TIME_ROLE ( 'classification_date' ) ;
#185 = CARTESIAN_POINT ( 'NONE',  ( 0.000000000000000000, 0.000000000000000000, 5.000000000000000000 ) ) ;
#186 = APPROVAL_ROLE ( '' ) ;
#187 = DIRECTION ( 'NONE',  ( 1.000000000000000000, 0.000000000000000000, 0.000000000000000000 ) ) ;
#188 = ADVANCED_FACE ( 'NONE', ( #53 ), #279, .T. ) ;
#189 = AXIS2_PLACEMENT_3D ( 'NONE', #330, #101, #328 ) ;
#190 = CARTESIAN_POINT ( 'NONE',  ( 0.000000000000000000, 0.000000000000000000, 5.500000000000005329 ) ) ;
#191 = CALENDAR_DATE ( 2022, 10, 7 ) ;
#192 = LINE ( 'NONE', #1, #313 ) ;
#193 = CC_DESIGN_DATE_AND_TIME_ASSIGNMENT ( #82, #249, ( #364 ) ) ;
#194 = DIRECTION ( 'NONE',  ( -1.000000000000000000, 0.000000000000000000, 0.000000000000000000 ) ) ;
#195 = DESIGN_CONTEXT ( 'detailed design', #212, 'design' ) ;
#196 = CIRCLE ( 'NONE', #137, 0.5000000000000004441 ) ;
#197 = DIRECTION ( 'NONE',  ( 1.000000000000000000, 0.000000000000000000, 0.000000000000000000 ) ) ;
#198 = CARTESIAN_POINT ( 'NONE',  ( 0.000000000000000000, 0.000000000000000000, 5.500000000000005329 ) ) ;
#199 = DIRECTION ( 'NONE',  ( 0.000000000000000000, 0.000000000000000000, -1.000000000000000000 ) ) ;
#200 = ORIENTED_EDGE ( 'NONE', *, *, #103, .F. ) ;
#201 = CIRCLE ( 'NONE', #306, 3.000000000000000444 ) ;
#202 = AXIS2_PLACEMENT_3D ( 'NONE', #180, #127, #176 ) ;
#203 = ORIENTED_EDGE ( 'NONE', *, *, #293, .T. ) ;
#204 = DIRECTION ( 'NONE',  ( 0.000000000000000000, 0.000000000000000000, -1.000000000000000000 ) ) ;
#205 = ORIENTED_EDGE ( 'NONE', *, *, #175, .F. ) ;
#206 = EDGE_LOOP ( 'NONE', ( #10, #259 ) ) ;
#207 = DIRECTION ( 'NONE',  ( 1.000000000000000000, 0.000000000000000000, 0.000000000000000000 ) ) ;
#208 = TOROIDAL_SURFACE ( 'NONE', #50, 3.500000000000000444, 0.5000000000000000000 ) ;
#209 = PRODUCT_RELATED_PRODUCT_CATEGORY ( 'detail', '', ( #246 ) ) ;
#210 = DIRECTION ( 'NONE',  ( 1.000000000000000000, 0.000000000000000000, 0.000000000000000000 ) ) ;
#211 = CARTESIAN_POINT ( 'NONE',  ( -3.000000000000000444, 0.000000000000000000, 5.500000000000005329 ) ) ;
#212 = APPLICATION_CONTEXT ( 'configuration controlled 3d designs of mechanical parts and assemblies' ) ;
#213 = ORIENTED_EDGE ( 'NONE', *, *, #217, .T. ) ;
#214 = AXIS2_PLACEMENT_3D ( 'NONE', #164, #219, #343 ) ;
#215 = PERSON_AND_ORGANIZATION_ROLE ( 'creator' ) ;
#216 = CARTESIAN_POINT ( 'NONE',  ( 0.000000000000000000, 0.000000000000000000, 0.000000000000000000 ) ) ;
#217 = EDGE_CURVE ( 'NONE', #324, #157, #192, .T. ) ;
#218 = DIRECTION ( 'NONE',  ( 0.000000000000000000, 0.000000000000000000, 1.000000000000000000 ) ) ;
#219 = DIRECTION ( 'NONE',  ( 0.000000000000000000, 0.000000000000000000, 1.000000000000000000 ) ) ;
#220 = AXIS2_PLACEMENT_3D ( 'NONE', #352, #204, #323 ) ;
#221 = ORGANIZATION ( 'NEURÈENÝ', 'NEURÈENÝ', '' ) ;
#222 = APPROVAL ( #334, 'NEURÈENÝ' ) ;
#223 = PERSON_AND_ORGANIZATION_ROLE ( 'creator' ) ;
#224 = CARTESIAN_POINT ( 'NONE',  ( 0.000000000000000000, 0.000000000000000000, 5.000000000000000000 ) ) ;
#225 = PRODUCT_DEFINITION_SHAPE ( 'NONE', 'NONE',  #364 ) ;
#226 = AXIS2_PLACEMENT_3D ( 'NONE', #311, #276, #194 ) ;
#227 = COORDINATED_UNIVERSAL_TIME_OFFSET ( 1, 0, .AHEAD. ) ;
#228 = VECTOR ( 'NONE', #199, 1000.000000000000000 ) ;
#229 = LINE ( 'NONE', #167, #255 ) ;
#230 = LINE ( 'NONE', #93, #228 ) ;
#231 = EDGE_LOOP ( 'NONE', ( #318, #95, #203, #124 ) ) ;
#232 = CARTESIAN_POINT ( 'NONE',  ( 0.000000000000000000, 0.000000000000000000, 0.000000000000000000 ) ) ;
#233 = EDGE_LOOP ( 'NONE', ( #15, #174, #368, #61 ) ) ;
#234 = AXIS2_PLACEMENT_3D ( 'NONE', #224, #47, #282 ) ;
#235 = FACE_OUTER_BOUND ( 'NONE', #316, .T. ) ;
#236 = APPROVAL_PERSON_ORGANIZATION ( #370, #222, #186 ) ;
#237 = EDGE_CURVE ( 'NONE', #149, #26, #148, .T. ) ;
#238 = DIRECTION ( 'NONE',  ( 0.000000000000000000, 0.000000000000000000, -1.000000000000000000 ) ) ;
#239 = PLANE ( 'NONE',  #168 ) ;
#240 = DIRECTION ( 'NONE',  ( 0.000000000000000000, -1.000000000000000000, 0.000000000000000000 ) ) ;
#241 = CARTESIAN_POINT ( 'NONE',  ( 2.000000000000000000, 2.449293598294706414E-16, 155.0000000000000000 ) ) ;
#242 = VECTOR ( 'NONE', #346, 1000.000000000000000 ) ;
#243 = CC_DESIGN_APPROVAL ( #65, ( #183 ) ) ;
#244 = DIRECTION ( 'NONE',  ( -1.000000000000000000, 0.000000000000000000, 0.000000000000000000 ) ) ;
#245 = MECHANICAL_CONTEXT ( 'NONE', #36, 'mechanical' ) ;
#246 = PRODUCT ( '07cc', '07cc', '', ( #245 ) ) ;
#247 = ADVANCED_FACE ( 'NONE', ( #68 ), #140, .T. ) ;
#248 = PLANE ( 'NONE',  #89 ) ;
#249 = DATE_TIME_ROLE ( 'creation_date' ) ;
#250 = DIRECTION ( 'NONE',  ( -1.000000000000000000, 0.000000000000000000, 0.000000000000000000 ) ) ;
#251 = ADVANCED_FACE ( 'NONE', ( #235 ), #70, .F. ) ;
#252 = PRODUCT_DEFINITION_FORMATION_WITH_SPECIFIED_SOURCE ( 'LIBOVOLNÝ', '', #246, .NOT_KNOWN. ) ;
#253 = FACE_BOUND ( 'NONE', #206, .T. ) ;
#254 = DIRECTION ( 'NONE',  ( -0.000000000000000000, -0.000000000000000000, -1.000000000000000000 ) ) ;
#255 = VECTOR ( 'NONE', #171, 1000.000000000000000 ) ;
#256 = LOCAL_TIME ( 11, 13, 54.00000000000000000, #160 ) ;
#257 = DIRECTION ( 'NONE',  ( 1.000000000000000000, 0.000000000000000000, 0.000000000000000000 ) ) ;
#258 = ORIENTED_EDGE ( 'NONE', *, *, #4, .F. ) ;
#259 = ORIENTED_EDGE ( 'NONE', *, *, #237, .F. ) ;
#260 = CARTESIAN_POINT ( 'NONE',  ( 0.000000000000000000, 0.000000000000000000, 5.000000000000000000 ) ) ;
#261 = EDGE_LOOP ( 'NONE', ( #78, #213, #64, #6 ) ) ;
#262 = EDGE_CURVE ( 'NONE', #283, #324, #349, .T. ) ;
#263 = CARTESIAN_POINT ( 'NONE',  ( 2.000000000000000000, 2.449293598294706414E-16, 155.0000000000000000 ) ) ;
#264 = AXIS2_PLACEMENT_3D ( 'NONE', #325, #80, #210 ) ;
#265 = CARTESIAN_POINT ( 'NONE',  ( 0.000000000000000000, 0.000000000000000000, 0.000000000000000000 ) ) ;
#266 = FACE_OUTER_BOUND ( 'NONE', #128, .T. ) ;
#267 = PERSON_AND_ORGANIZATION_ROLE ( 'design_owner' ) ;
#268 = ORIENTED_EDGE ( 'NONE', *, *, #297, .T. ) ;
#269 = AXIS2_PLACEMENT_3D ( 'NONE', #198, #317, #257 ) ;
#270 = CARTESIAN_POINT ( 'NONE',  ( 3.500000000000000444, 0.000000000000000000, 5.500000000000005329 ) ) ;
#271 = CC_DESIGN_DATE_AND_TIME_ASSIGNMENT ( #379, #184, ( #183 ) ) ;
#272 = APPROVAL_DATE_TIME ( #300, #321 ) ;
#273 = DIRECTION ( 'NONE',  ( 0.000000000000000000, 0.000000000000000000, 1.000000000000000000 ) ) ;
#274 = CIRCLE ( 'NONE', #3, 2.000000000000000000 ) ;
#275 = COORDINATED_UNIVERSAL_TIME_OFFSET ( 1, 0, .AHEAD. ) ;
#276 = DIRECTION ( 'NONE',  ( -0.000000000000000000, -0.000000000000000000, -1.000000000000000000 ) ) ;
#277 = DATE_AND_TIME ( #107, #74 ) ;
#278 = EDGE_CURVE ( 'NONE', #26, #149, #274, .T. ) ;
#279 = CYLINDRICAL_SURFACE ( 'NONE', #37, 3.000000000000000444 ) ;
#280 = APPROVAL_DATE_TIME ( #277, #222 ) ;
#281 = AXIS2_PLACEMENT_3D ( 'NONE', #216, #273, #305 ) ;
#282 = DIRECTION ( 'NONE',  ( 1.000000000000000000, 0.000000000000000000, 0.000000000000000000 ) ) ;
#283 = VERTEX_POINT ( 'NONE', #118 ) ;
#284 = ADVANCED_FACE ( 'NONE', ( #30 ), #208, .F. ) ;
#285 = DIRECTION ( 'NONE',  ( 1.000000000000000000, 0.000000000000000000, 0.000000000000000000 ) ) ;
#286 = ORIENTED_EDGE ( 'NONE', *, *, #41, .F. ) ;
#287 = AXIS2_PLACEMENT_3D ( 'NONE', #373, #88, #347 ) ;
#288 = AXIS2_PLACEMENT_3D ( 'NONE', #232, #254, #197 ) ;
#289 = DIRECTION ( 'NONE',  ( 1.000000000000000000, 0.000000000000000000, 0.000000000000000000 ) ) ;
#290 = ORIENTED_EDGE ( 'NONE', *, *, #301, .T. ) ;
#291 = APPROVAL_STATUS ( 'not_yet_approved' ) ;
#292 = DIRECTION ( 'NONE',  ( 1.000000000000000000, 0.000000000000000000, 0.000000000000000000 ) ) ;
#293 = EDGE_CURVE ( 'NONE', #302, #296, #229, .T. ) ;
#294 = ORIENTED_EDGE ( 'NONE', *, *, #29, .F. ) ;
#295 = EDGE_LOOP ( 'NONE', ( #205, #147, #286, #258 ) ) ;
#296 = VERTEX_POINT ( 'NONE', #119 ) ;
#297 = EDGE_CURVE ( 'NONE', #302, #351, #13, .T. ) ;
#298 = CARTESIAN_POINT ( 'NONE',  ( 0.000000000000000000, 0.000000000000000000, 155.0000000000000000 ) ) ;
#299 = VECTOR ( 'NONE', #9, 1000.000000000000000 ) ;
#300 = DATE_AND_TIME ( #191, #256 ) ;
#301 = EDGE_CURVE ( 'NONE', #181, #120, #337, .T. ) ;
#302 = VERTEX_POINT ( 'NONE', #90 ) ;
#303 = PERSON_AND_ORGANIZATION ( #331, #221 ) ;
#304 = PERSON_AND_ORGANIZATION ( #331, #221 ) ;
#305 = DIRECTION ( 'NONE',  ( 1.000000000000000000, 0.000000000000000000, 0.000000000000000000 ) ) ;
#306 = AXIS2_PLACEMENT_3D ( 'NONE', #341, #218, #187 ) ;
#307 = APPROVAL_PERSON_ORGANIZATION ( #46, #321, #342 ) ;
#308 = EDGE_CURVE ( 'NONE', #157, #39, #378, .T. ) ;
#309 = COORDINATED_UNIVERSAL_TIME_OFFSET ( 1, 0, .AHEAD. ) ;
#310 = CARTESIAN_POINT ( 'NONE',  ( -3.500000000000000444, 4.286263797015737088E-16, 5.000000000000002665 ) ) ;
#311 = CARTESIAN_POINT ( 'NONE',  ( 0.000000000000000000, 0.000000000000000000, 155.0000000000000000 ) ) ;
#312 = DIRECTION ( 'NONE',  ( 0.000000000000000000, 0.000000000000000000, 1.000000000000000000 ) ) ;
#313 = VECTOR ( 'NONE', #98, 1000.000000000000000 ) ;
#314 = CARTESIAN_POINT ( 'NONE',  ( 0.000000000000000000, 0.000000000000000000, 5.000000000000000000 ) ) ;
#315 = EDGE_CURVE ( 'NONE', #142, #26, #230, .T. ) ;
#316 = EDGE_LOOP ( 'NONE', ( #320, #336, #34, #16 ) ) ;
#317 = DIRECTION ( 'NONE',  ( 0.000000000000000000, 0.000000000000000000, 1.000000000000000000 ) ) ;
#318 = ORIENTED_EDGE ( 'NONE', *, *, #97, .F. ) ;
#319 = DIRECTION ( 'NONE',  ( -0.000000000000000000, -0.000000000000000000, -1.000000000000000000 ) ) ;
#320 = ORIENTED_EDGE ( 'NONE', *, *, #354, .F. ) ;
#321 = APPROVAL ( #17, 'NEURÈENÝ' ) ;
#322 = CARTESIAN_POINT ( 'NONE',  ( 0.000000000000000000, 0.000000000000000000, 5.500000000000005329 ) ) ;
#323 = DIRECTION ( 'NONE',  ( -1.000000000000000000, 0.000000000000000000, 0.000000000000000000 ) ) ;
#324 = VERTEX_POINT ( 'NONE', #169 ) ;
#325 = CARTESIAN_POINT ( 'NONE',  ( 0.000000000000000000, 0.000000000000000000, 0.000000000000000000 ) ) ;
#326 = EDGE_LOOP ( 'NONE', ( #268, #71 ) ) ;
#327 =( LENGTH_UNIT ( ) NAMED_UNIT ( * ) SI_UNIT ( .MILLI., .METRE. ) );
#328 = DIRECTION ( 'NONE',  ( 1.000000000000000000, 0.000000000000000000, 0.000000000000000000 ) ) ;
#329 = CARTESIAN_POINT ( 'NONE',  ( 6.000000000000000888, 7.347880794884120722E-16, 5.000000000000000000 ) ) ;
#330 = CARTESIAN_POINT ( 'NONE',  ( 0.000000000000000000, 0.000000000000000000, 155.0000000000000000 ) ) ;
#331 = PERSON ( 'NEURÈENÝ', 'NEURÈENÝ', 'NEURÈENÝ', ('NEURÈENÝ'), ('NEURÈENÝ'), ('NEURÈENÝ') ) ;
#332 = DIRECTION ( 'NONE',  ( -0.000000000000000000, -0.000000000000000000, -1.000000000000000000 ) ) ;
#333 = CC_DESIGN_PERSON_AND_ORGANIZATION_ASSIGNMENT ( #133, #223, ( #252 ) ) ;
#334 = APPROVAL_STATUS ( 'not_yet_approved' ) ;
#335 = CIRCLE ( 'NONE', #27, 3.500000000000000444 ) ;
#336 = ORIENTED_EDGE ( 'NONE', *, *, #29, .T. ) ;
#337 = CIRCLE ( 'NONE', #154, 3.500000000000000444 ) ;
#338 = CALENDAR_DATE ( 2022, 10, 7 ) ;
#339 = DIRECTION ( 'NONE',  ( 1.000000000000000000, 0.000000000000000000, 0.000000000000000000 ) ) ;
#340 = PERSON_AND_ORGANIZATION_ROLE ( 'design_supplier' ) ;
#341 = CARTESIAN_POINT ( 'NONE',  ( 0.000000000000000000, 0.000000000000000000, 155.0000000000000000 ) ) ;
#342 = APPROVAL_ROLE ( '' ) ;
#343 = DIRECTION ( 'NONE',  ( 1.000000000000000000, 0.000000000000000000, -0.000000000000000000 ) ) ;
#344 = ADVANCED_FACE ( 'NONE', ( #143 ), #355, .T. ) ;
#345 = PERSON_AND_ORGANIZATION ( #331, #221 ) ;
#346 = DIRECTION ( 'NONE',  ( -0.000000000000000000, -0.000000000000000000, -1.000000000000000000 ) ) ;
#347 = DIRECTION ( 'NONE',  ( 1.000000000000000000, 0.000000000000000000, 0.000000000000000000 ) ) ;
#348 = EDGE_CURVE ( 'NONE', #94, #296, #52, .T. ) ;
#349 = CIRCLE ( 'NONE', #19, 3.000000000000000444 ) ;
#350 = DIRECTION ( 'NONE',  ( 1.000000000000000000, 0.000000000000000000, 0.000000000000000000 ) ) ;
#351 = VERTEX_POINT ( 'NONE', #329 ) ;
#352 = CARTESIAN_POINT ( 'NONE',  ( 0.000000000000000000, 0.000000000000000000, 155.0000000000000000 ) ) ;
#353 = EDGE_LOOP ( 'NONE', ( #145, #99 ) ) ;
#354 = EDGE_CURVE ( 'NONE', #66, #149, #35, .T. ) ;
#355 = CYLINDRICAL_SURFACE ( 'NONE', #202, 6.000000000000000888 ) ;
#356 = ORIENTED_EDGE ( 'NONE', *, *, #308, .F. ) ;
#357 = VECTOR ( 'NONE', #376, 1000.000000000000000 ) ;
#358 = MANIFOLD_SOLID_BREP ( 'Odebrat vysunutím3', #106 ) ;
#359 = LOCAL_TIME ( 11, 13, 54.00000000000000000, #275 ) ;
#360 = CARTESIAN_POINT ( 'NONE',  ( 0.000000000000000000, 0.000000000000000000, 0.000000000000000000 ) ) ;
#361 = ORIENTED_EDGE ( 'NONE', *, *, #121, .T. ) ;
#362 = DIRECTION ( 'NONE',  ( 1.000000000000000000, 0.000000000000000000, 0.000000000000000000 ) ) ;
#363 = ORIENTED_EDGE ( 'NONE', *, *, #217, .F. ) ;
#364 = PRODUCT_DEFINITION ( 'NEZNÁMÝ', '', #252, #195 ) ;
#365 = DIRECTION ( 'NONE',  ( 1.000000000000000000, 0.000000000000000000, 0.000000000000000000 ) ) ;
#366 = CIRCLE ( 'NONE', #161, 3.000000000000000444 ) ;
#367 = LOCAL_TIME ( 11, 13, 54.00000000000000000, #227 ) ;
#368 = ORIENTED_EDGE ( 'NONE', *, *, #237, .T. ) ;
#369 = ADVANCED_FACE ( 'NONE', ( #72 ), #129, .F. ) ;
#370 = PERSON_AND_ORGANIZATION ( #331, #221 ) ;
#371 = DIRECTION ( 'NONE',  ( 1.000000000000000000, 0.000000000000000000, -0.000000000000000000 ) ) ;
#372 = APPROVAL_PERSON_ORGANIZATION ( #345, #65, #116 ) ;
#373 = CARTESIAN_POINT ( 'NONE',  ( 0.000000000000000000, 0.000000000000000000, 5.500000000000005329 ) ) ;
#374 = CC_DESIGN_PERSON_AND_ORGANIZATION_ASSIGNMENT ( #151, #267, ( #246 ) ) ;
#375 = LINE ( 'NONE', #108, #242 ) ;
#376 = DIRECTION ( 'NONE',  ( -0.000000000000000000, -0.000000000000000000, -1.000000000000000000 ) ) ;
#377 = CIRCLE ( 'NONE', #189, 2.000000000000000000 ) ;
#378 = CIRCLE ( 'NONE', #269, 3.000000000000000444 ) ;
#379 = DATE_AND_TIME ( #158, #58 ) ;
#380 = CARTESIAN_POINT ( 'NONE',  ( 0.000000000000000000, 0.000000000000000000, 0.000000000000000000 ) ) ;
#381 = DATE_AND_TIME ( #62, #367 ) ;
ENDSEC;
END-ISO-10303-21;
