ISO-10303-21;
HEADER;
FILE_DESCRIPTION (( 'STEP AP203' ),
    '1' );
FILE_NAME ('fd6b.STEP',
    '2022-07-10T09:12:24',
    ( '' ),
    ( '' ),
    'SwSTEP 2.0',
    'SolidWorks 2019',
    '' );
FILE_SCHEMA (( 'CONFIG_CONTROL_DESIGN' ));
ENDSEC;

DATA;
#1 = AXIS2_PLACEMENT_3D ( 'NONE', #16, #179, #365 ) ;
#2 = PRODUCT_DEFINITION ( 'NEZNÁMÝ', '', #133, #154 ) ;
#3 = DATE_AND_TIME ( #328, #285 ) ;
#4 = CYLINDRICAL_SURFACE ( 'NONE', #163, 7.000000000000000000 ) ;
#5 = ADVANCED_BREP_SHAPE_REPRESENTATION ( 'fd6b', ( #88, #226 ), #167 ) ;
#6 = VERTEX_POINT ( 'NONE', #147 ) ;
#7 = PLANE ( 'NONE',  #187 ) ;
#8 = AXIS2_PLACEMENT_3D ( 'NONE', #263, #200, #215 ) ;
#9 = CARTESIAN_POINT ( 'NONE',  ( 0.000000000000000000, 0.000000000000000000, 165.0000000000000000 ) ) ;
#10 = FACE_OUTER_BOUND ( 'NONE', #186, .T. ) ;
#11 = CARTESIAN_POINT ( 'NONE',  ( 2.100000000000000089, 2.571758278209441957E-16, 0.000000000000000000 ) ) ;
#12 = CARTESIAN_POINT ( 'NONE',  ( 0.000000000000000000, 0.000000000000000000, 165.0000000000000000 ) ) ;
#13 = DIRECTION ( 'NONE',  ( 0.000000000000000000, 0.000000000000000000, -1.000000000000000000 ) ) ;
#14 = DIRECTION ( 'NONE',  ( 1.000000000000000000, 0.000000000000000000, 0.000000000000000000 ) ) ;
#15 = AXIS2_PLACEMENT_3D ( 'NONE', #127, #185, #276 ) ;
#16 = CARTESIAN_POINT ( 'NONE',  ( 0.000000000000000000, 0.000000000000000000, 5.000000000000000000 ) ) ;
#17 = EDGE_LOOP ( 'NONE', ( #362, #132 ) ) ;
#18 = VERTEX_POINT ( 'NONE', #236 ) ;
#19 = FACE_OUTER_BOUND ( 'NONE', #48, .T. ) ;
#20 = VECTOR ( 'NONE', #277, 1000.000000000000000 ) ;
#21 = EDGE_CURVE ( 'NONE', #6, #349, #267, .T. ) ;
#22 = APPROVAL_DATE_TIME ( #379, #313 ) ;
#23 = ORIENTED_EDGE ( 'NONE', *, *, #178, .F. ) ;
#24 = DATE_AND_TIME ( #116, #305 ) ;
#25 = CIRCLE ( 'NONE', #78, 4.000000000000000000 ) ;
#26 = DIRECTION ( 'NONE',  ( 1.000000000000000000, 0.000000000000000000, 0.000000000000000000 ) ) ;
#27 = CARTESIAN_POINT ( 'NONE',  ( -4.000000000000000000, 0.000000000000000000, 165.0000000000000000 ) ) ;
#28 = ORIENTED_EDGE ( 'NONE', *, *, #283, .F. ) ;
#29 = DIRECTION ( 'NONE',  ( 1.224646799147353207E-16, 1.000000000000000000, -0.000000000000000000 ) ) ;
#30 = ORIENTED_EDGE ( 'NONE', *, *, #330, .T. ) ;
#31 = CC_DESIGN_PERSON_AND_ORGANIZATION_ASSIGNMENT ( #289, #46, ( #130 ) ) ;
#32 = PERSON_AND_ORGANIZATION_ROLE ( 'design_supplier' ) ;
#33 = AXIS2_PLACEMENT_3D ( 'NONE', #344, #38, #67 ) ;
#34 = CARTESIAN_POINT ( 'NONE',  ( 2.100000000000000089, 2.571758278209441957E-16, 165.0000000000000000 ) ) ;
#35 = CARTESIAN_POINT ( 'NONE',  ( 0.000000000000000000, 0.000000000000000000, 165.0000000000000000 ) ) ;
#36 = DIRECTION ( 'NONE',  ( 0.000000000000000000, 0.000000000000000000, -1.000000000000000000 ) ) ;
#37 = CIRCLE ( 'NONE', #252, 7.000000000000000000 ) ;
#38 = DIRECTION ( 'NONE',  ( -0.000000000000000000, -0.000000000000000000, -1.000000000000000000 ) ) ;
#39 = AXIS2_PLACEMENT_3D ( 'NONE', #137, #353, #281 ) ;
#40 = CIRCLE ( 'NONE', #128, 4.000000000000000000 ) ;
#41 = DIRECTION ( 'NONE',  ( 1.000000000000000000, 0.000000000000000000, 0.000000000000000000 ) ) ;
#42 = FACE_OUTER_BOUND ( 'NONE', #191, .T. ) ;
#43 = CARTESIAN_POINT ( 'NONE',  ( -2.100000000000000089, 0.000000000000000000, 0.000000000000000000 ) ) ;
#44 = AXIS2_PLACEMENT_3D ( 'NONE', #9, #210, #235 ) ;
#45 = ORIENTED_EDGE ( 'NONE', *, *, #197, .T. ) ;
#46 = PERSON_AND_ORGANIZATION_ROLE ( 'design_owner' ) ;
#47 = ORIENTED_EDGE ( 'NONE', *, *, #197, .F. ) ;
#48 = EDGE_LOOP ( 'NONE', ( #251, #314, #331, #105 ) ) ;
#49 = APPROVAL_ROLE ( '' ) ;
#50 = CIRCLE ( 'NONE', #216, 2.100000000000000089 ) ;
#51 = CC_DESIGN_SECURITY_CLASSIFICATION ( #181, ( #133 ) ) ;
#52 =( NAMED_UNIT ( * ) PLANE_ANGLE_UNIT ( ) SI_UNIT ( $, .RADIAN. ) );
#53 = FACE_OUTER_BOUND ( 'NONE', #75, .T. ) ;
#54 = APPROVAL_STATUS ( 'not_yet_approved' ) ;
#55 = DIRECTION ( 'NONE',  ( 0.000000000000000000, 0.000000000000000000, 1.000000000000000000 ) ) ;
#56 = ORGANIZATION ( 'NEURÈENÝ', 'NEURÈENÝ', '' ) ;
#57 = DIRECTION ( 'NONE',  ( -0.000000000000000000, -0.000000000000000000, -1.000000000000000000 ) ) ;
#58 = ORIENTED_EDGE ( 'NONE', *, *, #201, .T. ) ;
#59 = PERSON_AND_ORGANIZATION_ROLE ( 'creator' ) ;
#60 = CARTESIAN_POINT ( 'NONE',  ( 7.000000000000000000, 8.572527594031473190E-16, 5.000000000000000000 ) ) ;
#61 = ORIENTED_EDGE ( 'NONE', *, *, #126, .F. ) ;
#62 = PERSON_AND_ORGANIZATION ( #207, #56 ) ;
#63 = FACE_OUTER_BOUND ( 'NONE', #280, .T. ) ;
#64 = ORIENTED_EDGE ( 'NONE', *, *, #201, .F. ) ;
#65 = DIRECTION ( 'NONE',  ( 0.000000000000000000, 0.000000000000000000, 1.000000000000000000 ) ) ;
#66 = EDGE_CURVE ( 'NONE', #282, #150, #152, .T. ) ;
#67 = DIRECTION ( 'NONE',  ( -1.000000000000000000, 0.000000000000000000, 0.000000000000000000 ) ) ;
#68 = CARTESIAN_POINT ( 'NONE',  ( 0.000000000000000000, 0.000000000000000000, 5.500000000000005329 ) ) ;
#69 = LINE ( 'NONE', #94, #92 ) ;
#70 = DIRECTION ( 'NONE',  ( 1.000000000000000000, 0.000000000000000000, 0.000000000000000000 ) ) ;
#71 = FACE_BOUND ( 'NONE', #118, .T. ) ;
#72 = CARTESIAN_POINT ( 'NONE',  ( 0.000000000000000000, 0.000000000000000000, 0.000000000000000000 ) ) ;
#73 = ORIENTED_EDGE ( 'NONE', *, *, #97, .F. ) ;
#74 = TOROIDAL_SURFACE ( 'NONE', #290, 4.500000000000000888, 0.5000000000000000000 ) ;
#75 = EDGE_LOOP ( 'NONE', ( #64, #23, #255, #373 ) ) ;
#76 = VERTEX_POINT ( 'NONE', #198 ) ;
#77 =( NAMED_UNIT ( * ) SI_UNIT ( $, .STERADIAN. ) SOLID_ANGLE_UNIT ( ) );
#78 = AXIS2_PLACEMENT_3D ( 'NONE', #361, #355, #260 ) ;
#79 = EDGE_LOOP ( 'NONE', ( #311, #131 ) ) ;
#80 = CARTESIAN_POINT ( 'NONE',  ( 0.000000000000000000, 0.000000000000000000, 0.000000000000000000 ) ) ;
#81 = EDGE_LOOP ( 'NONE', ( #47, #168 ) ) ;
#82 = CARTESIAN_POINT ( 'NONE',  ( 4.000000000000000000, 4.898587196589412829E-16, 5.500000000000005329 ) ) ;
#83 = CARTESIAN_POINT ( 'NONE',  ( -4.500000000000000888, 5.510910596163089556E-16, 5.500000000000005329 ) ) ;
#84 = ADVANCED_FACE ( 'NONE', ( #245 ), #203, .F. ) ;
#85 = CC_DESIGN_APPROVAL ( #313, ( #2 ) ) ;
#86 = CALENDAR_DATE ( 2022, 10, 7 ) ;
#87 = DIRECTION ( 'NONE',  ( 1.000000000000000000, 0.000000000000000000, 0.000000000000000000 ) ) ;
#88 = MANIFOLD_SOLID_BREP ( 'Odebrat vysunutím3', #273 ) ;
#89 = CARTESIAN_POINT ( 'NONE',  ( -4.000000000000000000, 0.000000000000000000, 5.500000000000005329 ) ) ;
#90 = EDGE_LOOP ( 'NONE', ( #140, #258 ) ) ;
#91 = DIRECTION ( 'NONE',  ( -1.000000000000000000, 0.000000000000000000, 0.000000000000000000 ) ) ;
#92 = VECTOR ( 'NONE', #36, 1000.000000000000000 ) ;
#93 = LOCAL_TIME ( 11, 12, 24.00000000000000000, #293 ) ;
#94 = CARTESIAN_POINT ( 'NONE',  ( -2.100000000000000089, 0.000000000000000000, 165.0000000000000000 ) ) ;
#95 = EDGE_CURVE ( 'NONE', #6, #162, #37, .T. ) ;
#96 = PLANE ( 'NONE',  #15 ) ;
#97 = EDGE_CURVE ( 'NONE', #135, #18, #357, .T. ) ;
#98 = CARTESIAN_POINT ( 'NONE',  ( 0.000000000000000000, 0.000000000000000000, 165.0000000000000000 ) ) ;
#99 = AXIS2_PLACEMENT_3D ( 'NONE', #72, #304, #70 ) ;
#100 = ADVANCED_FACE ( 'NONE', ( #294 ), #209, .T. ) ;
#101 = DIRECTION ( 'NONE',  ( 1.000000000000000000, 0.000000000000000000, 0.000000000000000000 ) ) ;
#102 = DIRECTION ( 'NONE',  ( -1.000000000000000000, 0.000000000000000000, 0.000000000000000000 ) ) ;
#103 = VECTOR ( 'NONE', #111, 1000.000000000000000 ) ;
#104 = APPROVAL_PERSON_ORGANIZATION ( #189, #313, #49 ) ;
#105 = ORIENTED_EDGE ( 'NONE', *, *, #340, .T. ) ;
#106 = CARTESIAN_POINT ( 'NONE',  ( -7.000000000000000000, 0.000000000000000000, 0.000000000000000000 ) ) ;
#107 = DIRECTION ( 'NONE',  ( 1.000000000000000000, 0.000000000000000000, 0.000000000000000000 ) ) ;
#108 = ORIENTED_EDGE ( 'NONE', *, *, #213, .F. ) ;
#109 = PERSON_AND_ORGANIZATION ( #207, #56 ) ;
#110 = AXIS2_PLACEMENT_3D ( 'NONE', #269, #55, #122 ) ;
#111 = DIRECTION ( 'NONE',  ( -0.000000000000000000, -0.000000000000000000, -1.000000000000000000 ) ) ;
#112 = ORIENTED_EDGE ( 'NONE', *, *, #346, .T. ) ;
#113 = APPROVAL_ROLE ( '' ) ;
#114 = VERTEX_POINT ( 'NONE', #27 ) ;
#115 = UNCERTAINTY_MEASURE_WITH_UNIT (LENGTH_MEASURE( 1.000000000000000082E-05 ), #229, 'distance_accuracy_value', 'NONE');
#116 = CALENDAR_DATE ( 2022, 10, 7 ) ;
#117 = CARTESIAN_POINT ( 'NONE',  ( 0.000000000000000000, 0.000000000000000000, 5.000000000000000000 ) ) ;
#118 = EDGE_LOOP ( 'NONE', ( #138, #28 ) ) ;
#119 = FACE_BOUND ( 'NONE', #81, .T. ) ;
#120 = EDGE_LOOP ( 'NONE', ( #257, #287, #160, #230 ) ) ;
#121 = PERSON_AND_ORGANIZATION ( #207, #56 ) ;
#122 = DIRECTION ( 'NONE',  ( 1.000000000000000000, 0.000000000000000000, 0.000000000000000000 ) ) ;
#123 = FACE_OUTER_BOUND ( 'NONE', #120, .T. ) ;
#124 = ADVANCED_FACE ( 'NONE', ( #119, #63 ), #7, .T. ) ;
#125 = FACE_OUTER_BOUND ( 'NONE', #90, .T. ) ;
#126 = EDGE_CURVE ( 'NONE', #316, #150, #144, .T. ) ;
#127 = CARTESIAN_POINT ( 'NONE',  ( 0.000000000000000000, 0.000000000000000000, 0.000000000000000000 ) ) ;
#128 = AXIS2_PLACEMENT_3D ( 'NONE', #183, #367, #14 ) ;
#129 = DIRECTION ( 'NONE',  ( -0.000000000000000000, -0.000000000000000000, -1.000000000000000000 ) ) ;
#130 = PRODUCT ( 'fd6b', 'fd6b', '', ( #249 ) ) ;
#131 = ORIENTED_EDGE ( 'NONE', *, *, #364, .F. ) ;
#132 = ORIENTED_EDGE ( 'NONE', *, *, #193, .T. ) ;
#133 = PRODUCT_DEFINITION_FORMATION_WITH_SPECIFIED_SOURCE ( 'LIBOVOLNÝ', '', #130, .NOT_KNOWN. ) ;
#134 = ORIENTED_EDGE ( 'NONE', *, *, #178, .T. ) ;
#135 = VERTEX_POINT ( 'NONE', #363 ) ;
#136 = APPROVAL ( #169, 'NEURÈENÝ' ) ;
#137 = CARTESIAN_POINT ( 'NONE',  ( 0.000000000000000000, 0.000000000000000000, 0.000000000000000000 ) ) ;
#138 = ORIENTED_EDGE ( 'NONE', *, *, #66, .F. ) ;
#139 = CIRCLE ( 'NONE', #242, 7.000000000000000000 ) ;
#140 = ORIENTED_EDGE ( 'NONE', *, *, #95, .T. ) ;
#141 = DIRECTION ( 'NONE',  ( 1.000000000000000000, 0.000000000000000000, 0.000000000000000000 ) ) ;
#142 = ORIENTED_EDGE ( 'NONE', *, *, #227, .F. ) ;
#143 = APPROVAL_DATE_TIME ( #3, #136 ) ;
#144 = LINE ( 'NONE', #34, #275 ) ;
#145 = CARTESIAN_POINT ( 'NONE',  ( 0.000000000000000000, 0.000000000000000000, 0.000000000000000000 ) ) ;
#146 = DIRECTION ( 'NONE',  ( -1.000000000000000000, 1.224646799147351482E-16, 0.000000000000000000 ) ) ;
#147 = CARTESIAN_POINT ( 'NONE',  ( -7.000000000000000000, 0.000000000000000000, 5.000000000000000000 ) ) ;
#148 = AXIS2_PLACEMENT_3D ( 'NONE', #98, #335, #155 ) ;
#149 = CARTESIAN_POINT ( 'NONE',  ( 0.000000000000000000, 0.000000000000000000, 165.0000000000000000 ) ) ;
#150 = VERTEX_POINT ( 'NONE', #11 ) ;
#151 = LINE ( 'NONE', #177, #205 ) ;
#152 = CIRCLE ( 'NONE', #372, 2.100000000000000089 ) ;
#153 = CIRCLE ( 'NONE', #369, 4.500000000000000888 ) ;
#154 = DESIGN_CONTEXT ( 'detailed design', #339, 'design' ) ;
#155 = DIRECTION ( 'NONE',  ( -1.000000000000000000, 0.000000000000000000, 0.000000000000000000 ) ) ;
#156 = CYLINDRICAL_SURFACE ( 'NONE', #300, 2.100000000000000089 ) ;
#157 = PLANE ( 'NONE',  #1 ) ;
#158 = AXIS2_PLACEMENT_3D ( 'NONE', #303, #336, #221 ) ;
#159 = LOCAL_TIME ( 11, 12, 24.00000000000000000, #356 ) ;
#160 = ORIENTED_EDGE ( 'NONE', *, *, #364, .T. ) ;
#161 = CC_DESIGN_PERSON_AND_ORGANIZATION_ASSIGNMENT ( #234, #214, ( #181 ) ) ;
#162 = VERTEX_POINT ( 'NONE', #60 ) ;
#163 = AXIS2_PLACEMENT_3D ( 'NONE', #265, #324, #91 ) ;
#164 = DIRECTION ( 'NONE',  ( 0.000000000000000000, 0.000000000000000000, 1.000000000000000000 ) ) ;
#165 = VERTEX_POINT ( 'NONE', #89 ) ;
#166 = CC_DESIGN_PERSON_AND_ORGANIZATION_ASSIGNMENT ( #109, #231, ( #2 ) ) ;
#167 =( GEOMETRIC_REPRESENTATION_CONTEXT ( 3 ) GLOBAL_UNCERTAINTY_ASSIGNED_CONTEXT ( ( #115 ) ) GLOBAL_UNIT_ASSIGNED_CONTEXT ( ( #229, #52, #77 ) ) REPRESENTATION_CONTEXT ( 'NONE', 'WORKASPACE' ) );
#168 = ORIENTED_EDGE ( 'NONE', *, *, #228, .F. ) ;
#169 = APPROVAL_STATUS ( 'not_yet_approved' ) ;
#170 = DIRECTION ( 'NONE',  ( -0.000000000000000000, -0.000000000000000000, -1.000000000000000000 ) ) ;
#171 = EDGE_LOOP ( 'NONE', ( #45, #380, #270, #264 ) ) ;
#172 = COORDINATED_UNIVERSAL_TIME_OFFSET ( 1, 0, .AHEAD. ) ;
#173 = DIRECTION ( 'NONE',  ( 1.000000000000000000, 0.000000000000000000, -0.000000000000000000 ) ) ;
#174 = APPROVAL_PERSON_ORGANIZATION ( #121, #377, #113 ) ;
#175 = DIRECTION ( 'NONE',  ( 1.000000000000000000, 0.000000000000000000, 0.000000000000000000 ) ) ;
#176 = EDGE_CURVE ( 'NONE', #162, #6, #323, .T. ) ;
#177 = CARTESIAN_POINT ( 'NONE',  ( 7.000000000000000000, 8.572527594031473190E-16, 5.000000000000000000 ) ) ;
#178 = EDGE_CURVE ( 'NONE', #188, #165, #25, .T. ) ;
#179 = DIRECTION ( 'NONE',  ( 0.000000000000000000, 0.000000000000000000, 1.000000000000000000 ) ) ;
#180 = APPROVAL_PERSON_ORGANIZATION ( #259, #136, #360 ) ;
#181 = SECURITY_CLASSIFICATION ( '', '', #320 ) ;
#182 = DIRECTION ( 'NONE',  ( -0.000000000000000000, -0.000000000000000000, -1.000000000000000000 ) ) ;
#183 = CARTESIAN_POINT ( 'NONE',  ( 0.000000000000000000, 0.000000000000000000, 165.0000000000000000 ) ) ;
#184 = CC_DESIGN_DATE_AND_TIME_ASSIGNMENT ( #326, #268, ( #181 ) ) ;
#185 = DIRECTION ( 'NONE',  ( 0.000000000000000000, 0.000000000000000000, 1.000000000000000000 ) ) ;
#186 = EDGE_LOOP ( 'NONE', ( #325, #351, #288, #112 ) ) ;
#187 = AXIS2_PLACEMENT_3D ( 'NONE', #35, #327, #173 ) ;
#188 = VERTEX_POINT ( 'NONE', #82 ) ;
#189 = PERSON_AND_ORGANIZATION ( #207, #56 ) ;
#190 = CC_DESIGN_PERSON_AND_ORGANIZATION_ASSIGNMENT ( #62, #59, ( #133 ) ) ;
#191 = EDGE_LOOP ( 'NONE', ( #61, #378, #30, #359 ) ) ;
#192 = APPLICATION_PROTOCOL_DEFINITION ( 'international standard', 'config_control_design', 1994, #348 ) ;
#193 = EDGE_CURVE ( 'NONE', #18, #135, #153, .T. ) ;
#194 = ORIENTED_EDGE ( 'NONE', *, *, #306, .T. ) ;
#195 = CALENDAR_DATE ( 2022, 10, 7 ) ;
#196 = CIRCLE ( 'NONE', #8, 0.5000000000000004441 ) ;
#197 = EDGE_CURVE ( 'NONE', #295, #316, #50, .T. ) ;
#198 = CARTESIAN_POINT ( 'NONE',  ( 7.000000000000000000, 8.572527594031473190E-16, 0.000000000000000000 ) ) ;
#199 = COORDINATED_UNIVERSAL_TIME_OFFSET ( 1, 0, .AHEAD. ) ;
#200 = DIRECTION ( 'NONE',  ( 0.000000000000000000, -1.000000000000000000, 0.000000000000000000 ) ) ;
#201 = EDGE_CURVE ( 'NONE', #165, #18, #375, .T. ) ;
#202 = LINE ( 'NONE', #329, #341 ) ;
#203 = TOROIDAL_SURFACE ( 'NONE', #204, 4.500000000000000888, 0.5000000000000000000 ) ;
#204 = AXIS2_PLACEMENT_3D ( 'NONE', #68, #238, #239 ) ;
#205 = VECTOR ( 'NONE', #182, 1000.000000000000000 ) ;
#206 = CARTESIAN_POINT ( 'NONE',  ( -7.000000000000000000, 0.000000000000000000, 5.000000000000000000 ) ) ;
#207 = PERSON ( 'NEURÈENÝ', 'NEURÈENÝ', 'NEURÈENÝ', ('NEURÈENÝ'), ('NEURÈENÝ'), ('NEURÈENÝ') ) ;
#208 = DATE_AND_TIME ( #296, #93 ) ;
#209 = CYLINDRICAL_SURFACE ( 'NONE', #44, 4.000000000000000000 ) ;
#210 = DIRECTION ( 'NONE',  ( -0.000000000000000000, -0.000000000000000000, -1.000000000000000000 ) ) ;
#211 = CC_DESIGN_DATE_AND_TIME_ASSIGNMENT ( #24, #237, ( #2 ) ) ;
#212 = DIRECTION ( 'NONE',  ( -0.000000000000000000, -0.000000000000000000, -1.000000000000000000 ) ) ;
#213 = EDGE_CURVE ( 'NONE', #114, #165, #202, .T. ) ;
#214 = PERSON_AND_ORGANIZATION_ROLE ( 'classification_officer' ) ;
#215 = DIRECTION ( 'NONE',  ( 0.000000000000000000, 0.000000000000000000, -1.000000000000000000 ) ) ;
#216 = AXIS2_PLACEMENT_3D ( 'NONE', #149, #297, #141 ) ;
#217 = CC_DESIGN_APPROVAL ( #377, ( #181 ) ) ;
#218 = ADVANCED_FACE ( 'NONE', ( #10 ), #4, .T. ) ;
#219 = CARTESIAN_POINT ( 'NONE',  ( 0.000000000000000000, 0.000000000000000000, 5.500000000000005329 ) ) ;
#220 = CARTESIAN_POINT ( 'NONE',  ( 0.000000000000000000, 0.000000000000000000, 5.000000000000000000 ) ) ;
#221 = DIRECTION ( 'NONE',  ( 1.000000000000000000, 0.000000000000000000, 0.000000000000000000 ) ) ;
#222 = CIRCLE ( 'NONE', #158, 4.000000000000000000 ) ;
#223 = CARTESIAN_POINT ( 'NONE',  ( -2.100000000000000089, 0.000000000000000000, 165.0000000000000000 ) ) ;
#224 = CYLINDRICAL_SURFACE ( 'NONE', #148, 2.100000000000000089 ) ;
#225 = DIRECTION ( 'NONE',  ( 1.000000000000000000, 0.000000000000000000, 0.000000000000000000 ) ) ;
#226 = AXIS2_PLACEMENT_3D ( 'NONE', #350, #164, #101 ) ;
#227 = EDGE_CURVE ( 'NONE', #188, #135, #196, .T. ) ;
#228 = EDGE_CURVE ( 'NONE', #316, #295, #334, .T. ) ;
#229 =( LENGTH_UNIT ( ) NAMED_UNIT ( * ) SI_UNIT ( .MILLI., .METRE. ) );
#230 = ORIENTED_EDGE ( 'NONE', *, *, #21, .F. ) ;
#231 = PERSON_AND_ORGANIZATION_ROLE ( 'creator' ) ;
#232 = AXIS2_PLACEMENT_3D ( 'NONE', #333, #65, #175 ) ;
#233 = EDGE_LOOP ( 'NONE', ( #370, #194, #134, #108 ) ) ;
#234 = PERSON_AND_ORGANIZATION ( #207, #56 ) ;
#235 = DIRECTION ( 'NONE',  ( -1.000000000000000000, 0.000000000000000000, 0.000000000000000000 ) ) ;
#236 = CARTESIAN_POINT ( 'NONE',  ( -4.500000000000000888, 5.510910596163088569E-16, 5.000000000000002665 ) ) ;
#237 = DATE_TIME_ROLE ( 'creation_date' ) ;
#238 = DIRECTION ( 'NONE',  ( 0.000000000000000000, 0.000000000000000000, 1.000000000000000000 ) ) ;
#239 = DIRECTION ( 'NONE',  ( 1.000000000000000000, 0.000000000000000000, 0.000000000000000000 ) ) ;
#240 = APPROVAL_DATE_TIME ( #208, #377 ) ;
#241 = FACE_BOUND ( 'NONE', #17, .T. ) ;
#242 = AXIS2_PLACEMENT_3D ( 'NONE', #80, #318, #225 ) ;
#243 = CARTESIAN_POINT ( 'NONE',  ( 4.000000000000000000, 4.898587196589412829E-16, 165.0000000000000000 ) ) ;
#244 = CYLINDRICAL_SURFACE ( 'NONE', #33, 7.000000000000000000 ) ;
#245 = FACE_OUTER_BOUND ( 'NONE', #322, .T. ) ;
#246 = PRODUCT_DEFINITION_SHAPE ( 'NONE', 'NONE',  #2 ) ;
#247 = AXIS2_PLACEMENT_3D ( 'NONE', #117, #358, #299 ) ;
#248 = VERTEX_POINT ( 'NONE', #321 ) ;
#249 = MECHANICAL_CONTEXT ( 'NONE', #348, 'mechanical' ) ;
#250 = EDGE_CURVE ( 'NONE', #114, #248, #222, .T. ) ;
#251 = ORIENTED_EDGE ( 'NONE', *, *, #306, .F. ) ;
#252 = AXIS2_PLACEMENT_3D ( 'NONE', #220, #272, #87 ) ;
#253 = LOCAL_TIME ( 11, 12, 24.00000000000000000, #286 ) ;
#254 = AXIS2_PLACEMENT_3D ( 'NONE', #219, #368, #41 ) ;
#255 = ORIENTED_EDGE ( 'NONE', *, *, #227, .T. ) ;
#256 = CARTESIAN_POINT ( 'NONE',  ( 0.000000000000000000, 0.000000000000000000, 5.500000000000005329 ) ) ;
#257 = ORIENTED_EDGE ( 'NONE', *, *, #176, .F. ) ;
#258 = ORIENTED_EDGE ( 'NONE', *, *, #176, .T. ) ;
#259 = PERSON_AND_ORGANIZATION ( #207, #56 ) ;
#260 = DIRECTION ( 'NONE',  ( 1.000000000000000000, 0.000000000000000000, 0.000000000000000000 ) ) ;
#261 = ORIENTED_EDGE ( 'NONE', *, *, #308, .T. ) ;
#262 = ADVANCED_FACE ( 'NONE', ( #42 ), #224, .F. ) ;
#263 = CARTESIAN_POINT ( 'NONE',  ( 4.500000000000000888, 0.000000000000000000, 5.500000000000005329 ) ) ;
#264 = ORIENTED_EDGE ( 'NONE', *, *, #330, .F. ) ;
#265 = CARTESIAN_POINT ( 'NONE',  ( 0.000000000000000000, 0.000000000000000000, 5.000000000000000000 ) ) ;
#266 = CIRCLE ( 'NONE', #99, 2.100000000000000089 ) ;
#267 = LINE ( 'NONE', #206, #103 ) ;
#268 = DATE_TIME_ROLE ( 'classification_date' ) ;
#269 = CARTESIAN_POINT ( 'NONE',  ( 0.000000000000000000, 0.000000000000000000, 5.000000000000000000 ) ) ;
#270 = ORIENTED_EDGE ( 'NONE', *, *, #283, .T. ) ;
#271 = ADVANCED_FACE ( 'NONE', ( #123 ), #244, .T. ) ;
#272 = DIRECTION ( 'NONE',  ( 0.000000000000000000, 0.000000000000000000, 1.000000000000000000 ) ) ;
#273 = CLOSED_SHELL ( 'NONE', ( #274, #84, #100, #271, #218, #319, #310, #343, #124, #381, #262 ) ) ;
#274 = ADVANCED_FACE ( 'NONE', ( #338 ), #156, .F. ) ;
#275 = VECTOR ( 'NONE', #354, 1000.000000000000000 ) ;
#276 = DIRECTION ( 'NONE',  ( 1.000000000000000000, 0.000000000000000000, -0.000000000000000000 ) ) ;
#277 = DIRECTION ( 'NONE',  ( -0.000000000000000000, -0.000000000000000000, -1.000000000000000000 ) ) ;
#278 = DIRECTION ( 'NONE',  ( -1.000000000000000000, 0.000000000000000000, 0.000000000000000000 ) ) ;
#279 = CIRCLE ( 'NONE', #254, 4.000000000000000000 ) ;
#280 = EDGE_LOOP ( 'NONE', ( #345, #261 ) ) ;
#281 = DIRECTION ( 'NONE',  ( 1.000000000000000000, 0.000000000000000000, 0.000000000000000000 ) ) ;
#282 = VERTEX_POINT ( 'NONE', #43 ) ;
#283 = EDGE_CURVE ( 'NONE', #150, #282, #266, .T. ) ;
#284 = ORIENTED_EDGE ( 'NONE', *, *, #340, .F. ) ;
#285 = LOCAL_TIME ( 11, 12, 24.00000000000000000, #172 ) ;
#286 = COORDINATED_UNIVERSAL_TIME_OFFSET ( 1, 0, .AHEAD. ) ;
#287 = ORIENTED_EDGE ( 'NONE', *, *, #292, .T. ) ;
#288 = ORIENTED_EDGE ( 'NONE', *, *, #21, .T. ) ;
#289 = PERSON_AND_ORGANIZATION ( #207, #56 ) ;
#290 = AXIS2_PLACEMENT_3D ( 'NONE', #256, #315, #107 ) ;
#291 = CARTESIAN_POINT ( 'NONE',  ( 0.000000000000000000, 0.000000000000000000, 5.000000000000000000 ) ) ;
#292 = EDGE_CURVE ( 'NONE', #162, #76, #151, .T. ) ;
#293 = COORDINATED_UNIVERSAL_TIME_OFFSET ( 1, 0, .AHEAD. ) ;
#294 = FACE_OUTER_BOUND ( 'NONE', #233, .T. ) ;
#295 = VERTEX_POINT ( 'NONE', #223 ) ;
#296 = CALENDAR_DATE ( 2022, 10, 7 ) ;
#297 = DIRECTION ( 'NONE',  ( 0.000000000000000000, 0.000000000000000000, 1.000000000000000000 ) ) ;
#298 = PERSON_AND_ORGANIZATION ( #207, #56 ) ;
#299 = DIRECTION ( 'NONE',  ( 1.000000000000000000, 0.000000000000000000, 0.000000000000000000 ) ) ;
#300 = AXIS2_PLACEMENT_3D ( 'NONE', #12, #13, #278 ) ;
#301 = CC_DESIGN_APPROVAL ( #136, ( #133 ) ) ;
#302 = DIRECTION ( 'NONE',  ( 1.000000000000000000, 0.000000000000000000, 0.000000000000000000 ) ) ;
#303 = CARTESIAN_POINT ( 'NONE',  ( 0.000000000000000000, 0.000000000000000000, 165.0000000000000000 ) ) ;
#304 = DIRECTION ( 'NONE',  ( -0.000000000000000000, -0.000000000000000000, -1.000000000000000000 ) ) ;
#305 = LOCAL_TIME ( 11, 12, 24.00000000000000000, #199 ) ;
#306 = EDGE_CURVE ( 'NONE', #248, #188, #342, .T. ) ;
#307 = FACE_OUTER_BOUND ( 'NONE', #79, .T. ) ;
#308 = EDGE_CURVE ( 'NONE', #248, #114, #40, .T. ) ;
#309 = CARTESIAN_POINT ( 'NONE',  ( 2.100000000000000089, 2.571758278209441957E-16, 165.0000000000000000 ) ) ;
#310 = ADVANCED_FACE ( 'NONE', ( #71, #307 ), #96, .F. ) ;
#311 = ORIENTED_EDGE ( 'NONE', *, *, #346, .F. ) ;
#312 = CIRCLE ( 'NONE', #39, 7.000000000000000000 ) ;
#313 = APPROVAL ( #317, 'NEURÈENÝ' ) ;
#314 = ORIENTED_EDGE ( 'NONE', *, *, #250, .F. ) ;
#315 = DIRECTION ( 'NONE',  ( 0.000000000000000000, 0.000000000000000000, 1.000000000000000000 ) ) ;
#316 = VERTEX_POINT ( 'NONE', #309 ) ;
#317 = APPROVAL_STATUS ( 'not_yet_approved' ) ;
#318 = DIRECTION ( 'NONE',  ( 0.000000000000000000, 0.000000000000000000, 1.000000000000000000 ) ) ;
#319 = ADVANCED_FACE ( 'NONE', ( #241, #125 ), #157, .T. ) ;
#320 = SECURITY_CLASSIFICATION_LEVEL ( 'unclassified' ) ;
#321 = CARTESIAN_POINT ( 'NONE',  ( 4.000000000000000000, 4.898587196589412829E-16, 165.0000000000000000 ) ) ;
#322 = EDGE_LOOP ( 'NONE', ( #284, #58, #73, #142 ) ) ;
#323 = CIRCLE ( 'NONE', #110, 7.000000000000000000 ) ;
#324 = DIRECTION ( 'NONE',  ( -0.000000000000000000, -0.000000000000000000, -1.000000000000000000 ) ) ;
#325 = ORIENTED_EDGE ( 'NONE', *, *, #292, .F. ) ;
#326 = DATE_AND_TIME ( #86, #159 ) ;
#327 = DIRECTION ( 'NONE',  ( 0.000000000000000000, 0.000000000000000000, 1.000000000000000000 ) ) ;
#328 = CALENDAR_DATE ( 2022, 10, 7 ) ;
#329 = CARTESIAN_POINT ( 'NONE',  ( -4.000000000000000000, 0.000000000000000000, 165.0000000000000000 ) ) ;
#330 = EDGE_CURVE ( 'NONE', #295, #282, #69, .T. ) ;
#331 = ORIENTED_EDGE ( 'NONE', *, *, #213, .T. ) ;
#332 = SHAPE_DEFINITION_REPRESENTATION ( #246, #5 ) ;
#333 = CARTESIAN_POINT ( 'NONE',  ( 0.000000000000000000, 0.000000000000000000, 165.0000000000000000 ) ) ;
#334 = CIRCLE ( 'NONE', #232, 2.100000000000000089 ) ;
#335 = DIRECTION ( 'NONE',  ( 0.000000000000000000, 0.000000000000000000, -1.000000000000000000 ) ) ;
#336 = DIRECTION ( 'NONE',  ( 0.000000000000000000, 0.000000000000000000, 1.000000000000000000 ) ) ;
#337 = PRODUCT_RELATED_PRODUCT_CATEGORY ( 'detail', '', ( #130 ) ) ;
#338 = FACE_OUTER_BOUND ( 'NONE', #171, .T. ) ;
#339 = APPLICATION_CONTEXT ( 'configuration controlled 3d designs of mechanical parts and assemblies' ) ;
#340 = EDGE_CURVE ( 'NONE', #165, #188, #279, .T. ) ;
#341 = VECTOR ( 'NONE', #57, 1000.000000000000000 ) ;
#342 = LINE ( 'NONE', #243, #20 ) ;
#343 = ADVANCED_FACE ( 'NONE', ( #19 ), #347, .T. ) ;
#344 = CARTESIAN_POINT ( 'NONE',  ( 0.000000000000000000, 0.000000000000000000, 5.000000000000000000 ) ) ;
#345 = ORIENTED_EDGE ( 'NONE', *, *, #250, .T. ) ;
#346 = EDGE_CURVE ( 'NONE', #349, #76, #312, .T. ) ;
#347 = CYLINDRICAL_SURFACE ( 'NONE', #366, 4.000000000000000000 ) ;
#348 = APPLICATION_CONTEXT ( 'configuration controlled 3d designs of mechanical parts and assemblies' ) ;
#349 = VERTEX_POINT ( 'NONE', #106 ) ;
#350 = CARTESIAN_POINT ( 'NONE',  ( 0.000000000000000000, 0.000000000000000000, 0.000000000000000000 ) ) ;
#351 = ORIENTED_EDGE ( 'NONE', *, *, #95, .F. ) ;
#352 = AXIS2_PLACEMENT_3D ( 'NONE', #83, #29, #146 ) ;
#353 = DIRECTION ( 'NONE',  ( 0.000000000000000000, 0.000000000000000000, 1.000000000000000000 ) ) ;
#354 = DIRECTION ( 'NONE',  ( 0.000000000000000000, 0.000000000000000000, -1.000000000000000000 ) ) ;
#355 = DIRECTION ( 'NONE',  ( 0.000000000000000000, 0.000000000000000000, 1.000000000000000000 ) ) ;
#356 = COORDINATED_UNIVERSAL_TIME_OFFSET ( 1, 0, .AHEAD. ) ;
#357 = CIRCLE ( 'NONE', #247, 4.500000000000000888 ) ;
#358 = DIRECTION ( 'NONE',  ( -0.000000000000000000, -0.000000000000000000, -1.000000000000000000 ) ) ;
#359 = ORIENTED_EDGE ( 'NONE', *, *, #66, .T. ) ;
#360 = APPROVAL_ROLE ( '' ) ;
#361 = CARTESIAN_POINT ( 'NONE',  ( 0.000000000000000000, 0.000000000000000000, 5.500000000000005329 ) ) ;
#362 = ORIENTED_EDGE ( 'NONE', *, *, #97, .T. ) ;
#363 = CARTESIAN_POINT ( 'NONE',  ( 4.500000000000000888, 0.000000000000000000, 5.000000000000002665 ) ) ;
#364 = EDGE_CURVE ( 'NONE', #76, #349, #139, .T. ) ;
#365 = DIRECTION ( 'NONE',  ( 1.000000000000000000, 0.000000000000000000, -0.000000000000000000 ) ) ;
#366 = AXIS2_PLACEMENT_3D ( 'NONE', #376, #129, #102 ) ;
#367 = DIRECTION ( 'NONE',  ( 0.000000000000000000, 0.000000000000000000, 1.000000000000000000 ) ) ;
#368 = DIRECTION ( 'NONE',  ( 0.000000000000000000, 0.000000000000000000, 1.000000000000000000 ) ) ;
#369 = AXIS2_PLACEMENT_3D ( 'NONE', #291, #170, #26 ) ;
#370 = ORIENTED_EDGE ( 'NONE', *, *, #308, .F. ) ;
#371 = APPLICATION_PROTOCOL_DEFINITION ( 'international standard', 'config_control_design', 1994, #339 ) ;
#372 = AXIS2_PLACEMENT_3D ( 'NONE', #145, #212, #302 ) ;
#373 = ORIENTED_EDGE ( 'NONE', *, *, #193, .F. ) ;
#374 = CC_DESIGN_PERSON_AND_ORGANIZATION_ASSIGNMENT ( #298, #32, ( #133 ) ) ;
#375 = CIRCLE ( 'NONE', #352, 0.5000000000000004441 ) ;
#376 = CARTESIAN_POINT ( 'NONE',  ( 0.000000000000000000, 0.000000000000000000, 165.0000000000000000 ) ) ;
#377 = APPROVAL ( #54, 'NEURÈENÝ' ) ;
#378 = ORIENTED_EDGE ( 'NONE', *, *, #228, .T. ) ;
#379 = DATE_AND_TIME ( #195, #253 ) ;
#380 = ORIENTED_EDGE ( 'NONE', *, *, #126, .T. ) ;
#381 = ADVANCED_FACE ( 'NONE', ( #53 ), #74, .F. ) ;
ENDSEC;
END-ISO-10303-21;
