ISO-10303-21;
HEADER;
FILE_DESCRIPTION (( 'STEP AP203' ),
    '1' );
FILE_NAME ('c565.STEP',
    '2022-07-10T09:15:08',
    ( '' ),
    ( '' ),
    'SwSTEP 2.0',
    'SolidWorks 2019',
    '' );
FILE_SCHEMA (( 'CONFIG_CONTROL_DESIGN' ));
ENDSEC;

DATA;
#1 = CC_DESIGN_SECURITY_CLASSIFICATION ( #215, ( #348 ) ) ;
#2 = EDGE_LOOP ( 'NONE', ( #233, #4, #346, #84 ) ) ;
#3 = MECHANICAL_CONTEXT ( 'NONE', #73, 'mechanical' ) ;
#4 = ORIENTED_EDGE ( 'NONE', *, *, #238, .F. ) ;
#5 = ORIENTED_EDGE ( 'NONE', *, *, #92, .F. ) ;
#6 = EDGE_CURVE ( 'NONE', #143, #171, #13, .T. ) ;
#7 = DIRECTION ( 'NONE',  ( 0.000000000000000000, 0.000000000000000000, 1.000000000000000000 ) ) ;
#8 = APPROVAL_STATUS ( 'not_yet_approved' ) ;
#9 = PERSON_AND_ORGANIZATION ( #174, #232 ) ;
#10 = CC_DESIGN_PERSON_AND_ORGANIZATION_ASSIGNMENT ( #61, #159, ( #68 ) ) ;
#11 = CC_DESIGN_PERSON_AND_ORGANIZATION_ASSIGNMENT ( #9, #300, ( #215 ) ) ;
#12 = CARTESIAN_POINT ( 'NONE',  ( 0.000000000000000000, 0.000000000000000000, 0.000000000000000000 ) ) ;
#13 = CIRCLE ( 'NONE', #193, 0.2999999999999999334 ) ;
#14 = DIRECTION ( 'NONE',  ( 1.000000000000000000, 0.000000000000000000, -0.000000000000000000 ) ) ;
#15 = AXIS2_PLACEMENT_3D ( 'NONE', #209, #28, #319 ) ;
#16 = PERSON_AND_ORGANIZATION ( #174, #232 ) ;
#17 = LINE ( 'NONE', #342, #72 ) ;
#18 = FACE_OUTER_BOUND ( 'NONE', #324, .T. ) ;
#19 = AXIS2_PLACEMENT_3D ( 'NONE', #378, #162, #14 ) ;
#20 = CARTESIAN_POINT ( 'NONE',  ( 6.000000000000000888, 7.347880794884120722E-16, 5.000000000000000000 ) ) ;
#21 = DIRECTION ( 'NONE',  ( -1.000000000000000000, 0.000000000000000000, 0.000000000000000000 ) ) ;
#22 = ADVANCED_FACE ( 'NONE', ( #333, #97 ), #330, .F. ) ;
#23 = ORIENTED_EDGE ( 'NONE', *, *, #299, .T. ) ;
#24 = FACE_OUTER_BOUND ( 'NONE', #145, .T. ) ;
#25 = ORIENTED_EDGE ( 'NONE', *, *, #6, .F. ) ;
#26 = AXIS2_PLACEMENT_3D ( 'NONE', #236, #139, #260 ) ;
#27 = DIRECTION ( 'NONE',  ( -1.000000000000000000, 1.224646799147353207E-16, 0.000000000000000000 ) ) ;
#28 = DIRECTION ( 'NONE',  ( 0.000000000000000000, 0.000000000000000000, 1.000000000000000000 ) ) ;
#29 = ORIENTED_EDGE ( 'NONE', *, *, #256, .T. ) ;
#30 = ADVANCED_FACE ( 'NONE', ( #362 ), #224, .F. ) ;
#31 = PRODUCT_DEFINITION_SHAPE ( 'NONE', 'NONE',  #68 ) ;
#32 = VERTEX_POINT ( 'NONE', #190 ) ;
#33 = PERSON_AND_ORGANIZATION ( #174, #232 ) ;
#34 = CIRCLE ( 'NONE', #294, 0.2999999999999999334 ) ;
#35 = COORDINATED_UNIVERSAL_TIME_OFFSET ( 1, 0, .AHEAD. ) ;
#36 = ADVANCED_FACE ( 'NONE', ( #278 ), #39, .F. ) ;
#37 = APPLICATION_CONTEXT ( 'configuration controlled 3d designs of mechanical parts and assemblies' ) ;
#38 = SHAPE_DEFINITION_REPRESENTATION ( #31, #331 ) ;
#39 = TOROIDAL_SURFACE ( 'NONE', #86, 3.300000000000000266, 0.2999999999999999889 ) ;
#40 = CARTESIAN_POINT ( 'NONE',  ( 0.000000000000000000, 0.000000000000000000, 165.0000000000000000 ) ) ;
#41 = AXIS2_PLACEMENT_3D ( 'NONE', #91, #125, #67 ) ;
#42 = CARTESIAN_POINT ( 'NONE',  ( 3.300000000000000266, 0.000000000000000000, 4.999999999999999112 ) ) ;
#43 = ORIENTED_EDGE ( 'NONE', *, *, #377, .T. ) ;
#44 = DIRECTION ( 'NONE',  ( 1.000000000000000000, 0.000000000000000000, 0.000000000000000000 ) ) ;
#45 = EDGE_CURVE ( 'NONE', #112, #110, #367, .T. ) ;
#46 = CARTESIAN_POINT ( 'NONE',  ( 0.000000000000000000, 0.000000000000000000, 165.0000000000000000 ) ) ;
#47 = CARTESIAN_POINT ( 'NONE',  ( 1.750000000000000000, 2.143131898507868297E-16, 0.000000000000000000 ) ) ;
#48 = EDGE_LOOP ( 'NONE', ( #290, #210 ) ) ;
#49 = AXIS2_PLACEMENT_3D ( 'NONE', #222, #223, #161 ) ;
#50 = EDGE_CURVE ( 'NONE', #205, #171, #363, .T. ) ;
#51 = VERTEX_POINT ( 'NONE', #126 ) ;
#52 = DIRECTION ( 'NONE',  ( 0.000000000000000000, 0.000000000000000000, -1.000000000000000000 ) ) ;
#53 = ORIENTED_EDGE ( 'NONE', *, *, #59, .T. ) ;
#54 = DIRECTION ( 'NONE',  ( 1.000000000000000000, 0.000000000000000000, -0.000000000000000000 ) ) ;
#55 = AXIS2_PLACEMENT_3D ( 'NONE', #128, #7, #219 ) ;
#56 = CARTESIAN_POINT ( 'NONE',  ( -3.300000000000000266, 4.041334437186266003E-16, 5.299999999999998934 ) ) ;
#57 = DIRECTION ( 'NONE',  ( 0.000000000000000000, 0.000000000000000000, 1.000000000000000000 ) ) ;
#58 = EDGE_LOOP ( 'NONE', ( #136, #60 ) ) ;
#59 = EDGE_CURVE ( 'NONE', #51, #268, #306, .T. ) ;
#60 = ORIENTED_EDGE ( 'NONE', *, *, #137, .F. ) ;
#61 = PERSON_AND_ORGANIZATION ( #174, #232 ) ;
#62 = DIRECTION ( 'NONE',  ( 0.000000000000000000, 0.000000000000000000, 1.000000000000000000 ) ) ;
#63 = DIRECTION ( 'NONE',  ( 0.000000000000000000, 0.000000000000000000, 1.000000000000000000 ) ) ;
#64 = PERSON_AND_ORGANIZATION_ROLE ( 'creator' ) ;
#65 = CARTESIAN_POINT ( 'NONE',  ( 0.000000000000000000, 0.000000000000000000, 0.000000000000000000 ) ) ;
#66 = CIRCLE ( 'NONE', #251, 3.000000000000000444 ) ;
#67 = DIRECTION ( 'NONE',  ( 1.000000000000000000, 0.000000000000000000, 0.000000000000000000 ) ) ;
#68 = PRODUCT_DEFINITION ( 'NEZNÁMÝ', '', #348, #155 ) ;
#69 = LINE ( 'NONE', #339, #200 ) ;
#70 = CARTESIAN_POINT ( 'NONE',  ( -6.000000000000000888, 0.000000000000000000, 0.000000000000000000 ) ) ;
#71 = DIRECTION ( 'NONE',  ( 0.000000000000000000, 0.000000000000000000, -1.000000000000000000 ) ) ;
#72 = VECTOR ( 'NONE', #194, 1000.000000000000000 ) ;
#73 = APPLICATION_CONTEXT ( 'configuration controlled 3d designs of mechanical parts and assemblies' ) ;
#74 = DIRECTION ( 'NONE',  ( 1.000000000000000000, 0.000000000000000000, 0.000000000000000000 ) ) ;
#75 = CARTESIAN_POINT ( 'NONE',  ( -3.300000000000000266, 4.041334437186266003E-16, 4.999999999999999112 ) ) ;
#76 = EDGE_LOOP ( 'NONE', ( #207, #380, #118, #350 ) ) ;
#77 = CC_DESIGN_PERSON_AND_ORGANIZATION_ASSIGNMENT ( #100, #64, ( #348 ) ) ;
#78 = DIRECTION ( 'NONE',  ( 1.000000000000000000, 0.000000000000000000, 0.000000000000000000 ) ) ;
#79 = ORIENTED_EDGE ( 'NONE', *, *, #296, .T. ) ;
#80 = CIRCLE ( 'NONE', #301, 3.300000000000000266 ) ;
#81 = DIRECTION ( 'NONE',  ( 1.000000000000000000, 0.000000000000000000, 0.000000000000000000 ) ) ;
#82 = ORIENTED_EDGE ( 'NONE', *, *, #50, .F. ) ;
#83 = CARTESIAN_POINT ( 'NONE',  ( 3.300000000000000266, 0.000000000000000000, 5.299999999999998934 ) ) ;
#84 = ORIENTED_EDGE ( 'NONE', *, *, #274, .T. ) ;
#85 = APPROVAL ( #123, 'NEURÈENÝ' ) ;
#86 = AXIS2_PLACEMENT_3D ( 'NONE', #277, #63, #329 ) ;
#87 = ORIENTED_EDGE ( 'NONE', *, *, #92, .T. ) ;
#88 = CARTESIAN_POINT ( 'NONE',  ( 0.000000000000000000, 0.000000000000000000, 165.0000000000000000 ) ) ;
#89 = EDGE_LOOP ( 'NONE', ( #229, #355, #87, #43 ) ) ;
#90 = CALENDAR_DATE ( 2022, 10, 7 ) ;
#91 = CARTESIAN_POINT ( 'NONE',  ( 0.000000000000000000, 0.000000000000000000, 5.000000000000000000 ) ) ;
#92 = EDGE_CURVE ( 'NONE', #326, #143, #248, .T. ) ;
#93 = COORDINATED_UNIVERSAL_TIME_OFFSET ( 1, 0, .AHEAD. ) ;
#94 = CALENDAR_DATE ( 2022, 10, 7 ) ;
#95 = DIRECTION ( 'NONE',  ( 0.000000000000000000, 0.000000000000000000, 1.000000000000000000 ) ) ;
#96 = EDGE_CURVE ( 'NONE', #112, #180, #189, .T. ) ;
#97 = FACE_OUTER_BOUND ( 'NONE', #58, .T. ) ;
#98 = CIRCLE ( 'NONE', #369, 1.750000000000000000 ) ;
#99 = CARTESIAN_POINT ( 'NONE',  ( 0.000000000000000000, 0.000000000000000000, 0.000000000000000000 ) ) ;
#100 = PERSON_AND_ORGANIZATION ( #174, #232 ) ;
#101 = PRODUCT ( 'c565', 'c565', '', ( #3 ) ) ;
#102 = FACE_BOUND ( 'NONE', #297, .T. ) ;
#103 = EDGE_CURVE ( 'NONE', #201, #326, #356, .T. ) ;
#104 = CYLINDRICAL_SURFACE ( 'NONE', #317, 3.000000000000000444 ) ;
#105 = VECTOR ( 'NONE', #243, 1000.000000000000000 ) ;
#106 = CARTESIAN_POINT ( 'NONE',  ( -3.000000000000000444, 0.000000000000000000, 5.299999999999998934 ) ) ;
#107 = CARTESIAN_POINT ( 'NONE',  ( 0.000000000000000000, 0.000000000000000000, 165.0000000000000000 ) ) ;
#108 = DIRECTION ( 'NONE',  ( 0.000000000000000000, -1.000000000000000000, 0.000000000000000000 ) ) ;
#109 = APPROVAL ( #328, 'NEURÈENÝ' ) ;
#110 = VERTEX_POINT ( 'NONE', #258 ) ;
#111 = VECTOR ( 'NONE', #122, 1000.000000000000000 ) ;
#112 = VERTEX_POINT ( 'NONE', #20 ) ;
#113 = CYLINDRICAL_SURFACE ( 'NONE', #370, 3.000000000000000444 ) ;
#114 = VERTEX_POINT ( 'NONE', #70 ) ;
#115 = PRODUCT_RELATED_PRODUCT_CATEGORY ( 'detail', '', ( #101 ) ) ;
#116 = ORIENTED_EDGE ( 'NONE', *, *, #50, .T. ) ;
#117 = CARTESIAN_POINT ( 'NONE',  ( 0.000000000000000000, 0.000000000000000000, 165.0000000000000000 ) ) ;
#118 = ORIENTED_EDGE ( 'NONE', *, *, #137, .T. ) ;
#119 = AXIS2_PLACEMENT_3D ( 'NONE', #198, #282, #74 ) ;
#120 = AXIS2_PLACEMENT_3D ( 'NONE', #379, #179, #78 ) ;
#121 = CC_DESIGN_PERSON_AND_ORGANIZATION_ASSIGNMENT ( #364, #181, ( #101 ) ) ;
#122 = DIRECTION ( 'NONE',  ( 0.000000000000000000, 0.000000000000000000, -1.000000000000000000 ) ) ;
#123 = APPROVAL_STATUS ( 'not_yet_approved' ) ;
#124 = SECURITY_CLASSIFICATION_LEVEL ( 'unclassified' ) ;
#125 = DIRECTION ( 'NONE',  ( -0.000000000000000000, -0.000000000000000000, -1.000000000000000000 ) ) ;
#126 = CARTESIAN_POINT ( 'NONE',  ( -1.750000000000000000, 0.000000000000000000, 165.0000000000000000 ) ) ;
#127 = ADVANCED_FACE ( 'NONE', ( #192, #18 ), #281, .T. ) ;
#128 = CARTESIAN_POINT ( 'NONE',  ( 0.000000000000000000, 0.000000000000000000, 5.299999999999998934 ) ) ;
#129 = DIRECTION ( 'NONE',  ( -0.000000000000000000, -0.000000000000000000, -1.000000000000000000 ) ) ;
#130 = APPROVAL_ROLE ( '' ) ;
#131 = APPROVAL_ROLE ( '' ) ;
#132 = CARTESIAN_POINT ( 'NONE',  ( 0.000000000000000000, 0.000000000000000000, 165.0000000000000000 ) ) ;
#133 = CYLINDRICAL_SURFACE ( 'NONE', #349, 6.000000000000000888 ) ;
#134 = VECTOR ( 'NONE', #334, 1000.000000000000000 ) ;
#135 = LINE ( 'NONE', #250, #144 ) ;
#136 = ORIENTED_EDGE ( 'NONE', *, *, #274, .F. ) ;
#137 = EDGE_CURVE ( 'NONE', #110, #114, #246, .T. ) ;
#138 = DIRECTION ( 'NONE',  ( -1.000000000000000000, 0.000000000000000000, 0.000000000000000000 ) ) ;
#139 = DIRECTION ( 'NONE',  ( 0.000000000000000000, 0.000000000000000000, 1.000000000000000000 ) ) ;
#140 = ORIENTED_EDGE ( 'NONE', *, *, #220, .T. ) ;
#141 = AXIS2_PLACEMENT_3D ( 'NONE', #12, #257, #226 ) ;
#142 = CARTESIAN_POINT ( 'NONE',  ( 0.000000000000000000, 0.000000000000000000, 165.0000000000000000 ) ) ;
#143 = VERTEX_POINT ( 'NONE', #106 ) ;
#144 = VECTOR ( 'NONE', #71, 1000.000000000000000 ) ;
#145 = EDGE_LOOP ( 'NONE', ( #149, #381, #261, #5 ) ) ;
#146 = EDGE_LOOP ( 'NONE', ( #315, #140, #53, #29 ) ) ;
#147 = APPROVAL ( #8, 'NEURÈENÝ' ) ;
#148 = CALENDAR_DATE ( 2022, 10, 7 ) ;
#149 = ORIENTED_EDGE ( 'NONE', *, *, #103, .F. ) ;
#150 = CIRCLE ( 'NONE', #272, 1.750000000000000000 ) ;
#151 =( GEOMETRIC_REPRESENTATION_CONTEXT ( 3 ) GLOBAL_UNCERTAINTY_ASSIGNED_CONTEXT ( ( #216 ) ) GLOBAL_UNIT_ASSIGNED_CONTEXT ( ( #234, #267, #170 ) ) REPRESENTATION_CONTEXT ( 'NONE', 'WORKASPACE' ) );
#152 = DATE_AND_TIME ( #94, #318 ) ;
#153 = CC_DESIGN_PERSON_AND_ORGANIZATION_ASSIGNMENT ( #372, #184, ( #348 ) ) ;
#154 = CIRCLE ( 'NONE', #120, 3.000000000000000444 ) ;
#155 = DESIGN_CONTEXT ( 'detailed design', #37, 'design' ) ;
#156 = FACE_OUTER_BOUND ( 'NONE', #358, .T. ) ;
#157 = CC_DESIGN_DATE_AND_TIME_ASSIGNMENT ( #152, #273, ( #215 ) ) ;
#158 = DIRECTION ( 'NONE',  ( -0.000000000000000000, -0.000000000000000000, -1.000000000000000000 ) ) ;
#159 = PERSON_AND_ORGANIZATION_ROLE ( 'creator' ) ;
#160 = LOCAL_TIME ( 11, 15, 8.000000000000000000, #276 ) ;
#161 = DIRECTION ( 'NONE',  ( -1.000000000000000000, 0.000000000000000000, 0.000000000000000000 ) ) ;
#162 = DIRECTION ( 'NONE',  ( 0.000000000000000000, 0.000000000000000000, 1.000000000000000000 ) ) ;
#163 = ORIENTED_EDGE ( 'NONE', *, *, #377, .F. ) ;
#164 = DIRECTION ( 'NONE',  ( 1.000000000000000000, 0.000000000000000000, 0.000000000000000000 ) ) ;
#165 = ADVANCED_FACE ( 'NONE', ( #285 ), #104, .T. ) ;
#166 = CARTESIAN_POINT ( 'NONE',  ( -3.000000000000000444, 0.000000000000000000, 165.0000000000000000 ) ) ;
#167 = LOCAL_TIME ( 11, 15, 8.000000000000000000, #242 ) ;
#168 = ORIENTED_EDGE ( 'NONE', *, *, #220, .F. ) ;
#169 = MANIFOLD_SOLID_BREP ( 'Odebrat vysunutím3', #175 ) ;
#170 =( NAMED_UNIT ( * ) SI_UNIT ( $, .STERADIAN. ) SOLID_ANGLE_UNIT ( ) );
#171 = VERTEX_POINT ( 'NONE', #75 ) ;
#172 = FACE_OUTER_BOUND ( 'NONE', #146, .T. ) ;
#173 = ORIENTED_EDGE ( 'NONE', *, *, #238, .T. ) ;
#174 = PERSON ( 'NEURÈENÝ', 'NEURÈENÝ', 'NEURÈENÝ', ('NEURÈENÝ'), ('NEURÈENÝ'), ('NEURÈENÝ') ) ;
#175 = CLOSED_SHELL ( 'NONE', ( #249, #36, #366, #225, #211, #127, #22, #165, #283, #30, #351 ) ) ;
#176 = ORIENTED_EDGE ( 'NONE', *, *, #96, .T. ) ;
#177 = AXIS2_PLACEMENT_3D ( 'NONE', #99, #371, #337 ) ;
#178 = CC_DESIGN_APPROVAL ( #85, ( #215 ) ) ;
#179 = DIRECTION ( 'NONE',  ( 0.000000000000000000, 0.000000000000000000, 1.000000000000000000 ) ) ;
#180 = VERTEX_POINT ( 'NONE', #373 ) ;
#181 = PERSON_AND_ORGANIZATION_ROLE ( 'design_owner' ) ;
#182 = ORIENTED_EDGE ( 'NONE', *, *, #323, .F. ) ;
#183 = CC_DESIGN_DATE_AND_TIME_ASSIGNMENT ( #217, #187, ( #68 ) ) ;
#184 = PERSON_AND_ORGANIZATION_ROLE ( 'design_supplier' ) ;
#185 = AXIS2_PLACEMENT_3D ( 'NONE', #132, #196, #221 ) ;
#186 = LOCAL_TIME ( 11, 15, 8.000000000000000000, #303 ) ;
#187 = DATE_TIME_ROLE ( 'creation_date' ) ;
#188 = CARTESIAN_POINT ( 'NONE',  ( 0.000000000000000000, 0.000000000000000000, 5.000000000000000000 ) ) ;
#189 = CIRCLE ( 'NONE', #308, 6.000000000000000888 ) ;
#190 = CARTESIAN_POINT ( 'NONE',  ( 3.000000000000000444, 3.673940397442060361E-16, 5.299999999999998934 ) ) ;
#191 = CARTESIAN_POINT ( 'NONE',  ( 0.000000000000000000, 0.000000000000000000, 5.000000000000000000 ) ) ;
#192 = FACE_BOUND ( 'NONE', #195, .T. ) ;
#193 = AXIS2_PLACEMENT_3D ( 'NONE', #56, #295, #27 ) ;
#194 = DIRECTION ( 'NONE',  ( -0.000000000000000000, -0.000000000000000000, -1.000000000000000000 ) ) ;
#195 = EDGE_LOOP ( 'NONE', ( #116, #79 ) ) ;
#196 = DIRECTION ( 'NONE',  ( 0.000000000000000000, 0.000000000000000000, -1.000000000000000000 ) ) ;
#197 = ORIENTED_EDGE ( 'NONE', *, *, #296, .F. ) ;
#198 = CARTESIAN_POINT ( 'NONE',  ( 0.000000000000000000, 0.000000000000000000, 5.000000000000000000 ) ) ;
#199 = DIRECTION ( 'NONE',  ( 1.000000000000000000, 0.000000000000000000, 0.000000000000000000 ) ) ;
#200 = VECTOR ( 'NONE', #158, 1000.000000000000000 ) ;
#201 = VERTEX_POINT ( 'NONE', #314 ) ;
#202 = DIRECTION ( 'NONE',  ( 0.000000000000000000, 0.000000000000000000, 1.000000000000000000 ) ) ;
#203 = ORIENTED_EDGE ( 'NONE', *, *, #344, .T. ) ;
#204 = DIRECTION ( 'NONE',  ( 1.000000000000000000, 0.000000000000000000, 0.000000000000000000 ) ) ;
#205 = VERTEX_POINT ( 'NONE', #42 ) ;
#206 = CARTESIAN_POINT ( 'NONE',  ( 0.000000000000000000, 0.000000000000000000, 5.000000000000000000 ) ) ;
#207 = ORIENTED_EDGE ( 'NONE', *, *, #96, .F. ) ;
#208 = APPROVAL_PERSON_ORGANIZATION ( #361, #85, #275 ) ;
#209 = CARTESIAN_POINT ( 'NONE',  ( 0.000000000000000000, 0.000000000000000000, 5.299999999999998934 ) ) ;
#210 = ORIENTED_EDGE ( 'NONE', *, *, #103, .T. ) ;
#211 = ADVANCED_FACE ( 'NONE', ( #227 ), #133, .T. ) ;
#212 = CALENDAR_DATE ( 2022, 10, 7 ) ;
#213 = APPROVAL_DATE_TIME ( #271, #109 ) ;
#214 = CARTESIAN_POINT ( 'NONE',  ( 6.000000000000000888, 7.347880794884120722E-16, 5.000000000000000000 ) ) ;
#215 = SECURITY_CLASSIFICATION ( '', '', #124 ) ;
#216 = UNCERTAINTY_MEASURE_WITH_UNIT (LENGTH_MEASURE( 1.000000000000000082E-05 ), #234, 'distance_accuracy_value', 'NONE');
#217 = DATE_AND_TIME ( #90, #167 ) ;
#218 = CARTESIAN_POINT ( 'NONE',  ( -3.000000000000000444, 0.000000000000000000, 165.0000000000000000 ) ) ;
#219 = DIRECTION ( 'NONE',  ( 1.000000000000000000, 0.000000000000000000, 0.000000000000000000 ) ) ;
#220 = EDGE_CURVE ( 'NONE', #353, #51, #240, .T. ) ;
#221 = DIRECTION ( 'NONE',  ( -1.000000000000000000, 0.000000000000000000, 0.000000000000000000 ) ) ;
#222 = CARTESIAN_POINT ( 'NONE',  ( 0.000000000000000000, 0.000000000000000000, 5.000000000000000000 ) ) ;
#223 = DIRECTION ( 'NONE',  ( -0.000000000000000000, -0.000000000000000000, -1.000000000000000000 ) ) ;
#224 = TOROIDAL_SURFACE ( 'NONE', #55, 3.300000000000000266, 0.2999999999999999889 ) ;
#225 = ADVANCED_FACE ( 'NONE', ( #313 ), #340, .T. ) ;
#226 = DIRECTION ( 'NONE',  ( 1.000000000000000000, 0.000000000000000000, 0.000000000000000000 ) ) ;
#227 = FACE_OUTER_BOUND ( 'NONE', #2, .T. ) ;
#228 = CARTESIAN_POINT ( 'NONE',  ( 0.000000000000000000, 0.000000000000000000, 165.0000000000000000 ) ) ;
#229 = ORIENTED_EDGE ( 'NONE', *, *, #279, .F. ) ;
#230 = EDGE_CURVE ( 'NONE', #353, #287, #135, .T. ) ;
#231 = DIRECTION ( 'NONE',  ( -0.000000000000000000, -0.000000000000000000, -1.000000000000000000 ) ) ;
#232 = ORGANIZATION ( 'NEURÈENÝ', 'NEURÈENÝ', '' ) ;
#233 = ORIENTED_EDGE ( 'NONE', *, *, #45, .F. ) ;
#234 =( LENGTH_UNIT ( ) NAMED_UNIT ( * ) SI_UNIT ( .MILLI., .METRE. ) );
#235 = ORIENTED_EDGE ( 'NONE', *, *, #256, .F. ) ;
#236 = CARTESIAN_POINT ( 'NONE',  ( 0.000000000000000000, 0.000000000000000000, 0.000000000000000000 ) ) ;
#237 = EDGE_LOOP ( 'NONE', ( #25, #182, #203, #197 ) ) ;
#238 = EDGE_CURVE ( 'NONE', #180, #112, #264, .T. ) ;
#239 = DIRECTION ( 'NONE',  ( 0.000000000000000000, 0.000000000000000000, 1.000000000000000000 ) ) ;
#240 = CIRCLE ( 'NONE', #335, 1.750000000000000000 ) ;
#241 = ORIENTED_EDGE ( 'NONE', *, *, #299, .F. ) ;
#242 = COORDINATED_UNIVERSAL_TIME_OFFSET ( 1, 0, .AHEAD. ) ;
#243 = DIRECTION ( 'NONE',  ( -0.000000000000000000, -0.000000000000000000, -1.000000000000000000 ) ) ;
#244 = CALENDAR_DATE ( 2022, 10, 7 ) ;
#245 = EDGE_CURVE ( 'NONE', #180, #114, #17, .T. ) ;
#246 = CIRCLE ( 'NONE', #141, 6.000000000000000888 ) ;
#247 = APPROVAL_DATE_TIME ( #332, #85 ) ;
#248 = LINE ( 'NONE', #218, #105 ) ;
#249 = ADVANCED_FACE ( 'NONE', ( #156 ), #280, .F. ) ;
#250 = CARTESIAN_POINT ( 'NONE',  ( 1.750000000000000000, 2.143131898507868297E-16, 165.0000000000000000 ) ) ;
#251 = AXIS2_PLACEMENT_3D ( 'NONE', #88, #202, #354 ) ;
#252 = AXIS2_PLACEMENT_3D ( 'NONE', #321, #239, #54 ) ;
#253 = DIRECTION ( 'NONE',  ( -0.000000000000000000, -0.000000000000000000, -1.000000000000000000 ) ) ;
#254 = APPROVAL_DATE_TIME ( #359, #147 ) ;
#255 = CARTESIAN_POINT ( 'NONE',  ( 0.000000000000000000, 0.000000000000000000, 0.000000000000000000 ) ) ;
#256 = EDGE_CURVE ( 'NONE', #268, #287, #310, .T. ) ;
#257 = DIRECTION ( 'NONE',  ( 0.000000000000000000, 0.000000000000000000, 1.000000000000000000 ) ) ;
#258 = CARTESIAN_POINT ( 'NONE',  ( 6.000000000000000888, 7.347880794884120722E-16, 0.000000000000000000 ) ) ;
#259 = PLANE ( 'NONE',  #252 ) ;
#260 = DIRECTION ( 'NONE',  ( 1.000000000000000000, 0.000000000000000000, 0.000000000000000000 ) ) ;
#261 = ORIENTED_EDGE ( 'NONE', *, *, #323, .T. ) ;
#262 = AXIS2_PLACEMENT_3D ( 'NONE', #107, #374, #44 ) ;
#263 = DIRECTION ( 'NONE',  ( -0.000000000000000000, -0.000000000000000000, -1.000000000000000000 ) ) ;
#264 = CIRCLE ( 'NONE', #119, 6.000000000000000888 ) ;
#265 = LOCAL_TIME ( 11, 15, 8.000000000000000000, #93 ) ;
#266 = ORIENTED_EDGE ( 'NONE', *, *, #305, .F. ) ;
#267 =( NAMED_UNIT ( * ) PLANE_ANGLE_UNIT ( ) SI_UNIT ( $, .RADIAN. ) );
#268 = VERTEX_POINT ( 'NONE', #368 ) ;
#269 = APPLICATION_PROTOCOL_DEFINITION ( 'international standard', 'config_control_design', 1994, #73 ) ;
#270 = EDGE_LOOP ( 'NONE', ( #163, #320, #82, #322 ) ) ;
#271 = DATE_AND_TIME ( #148, #186 ) ;
#272 = AXIS2_PLACEMENT_3D ( 'NONE', #352, #231, #199 ) ;
#273 = DATE_TIME_ROLE ( 'classification_date' ) ;
#274 = EDGE_CURVE ( 'NONE', #114, #110, #341, .T. ) ;
#275 = APPROVAL_ROLE ( '' ) ;
#276 = COORDINATED_UNIVERSAL_TIME_OFFSET ( 1, 0, .AHEAD. ) ;
#277 = CARTESIAN_POINT ( 'NONE',  ( 0.000000000000000000, 0.000000000000000000, 5.299999999999998934 ) ) ;
#278 = FACE_OUTER_BOUND ( 'NONE', #270, .T. ) ;
#279 = EDGE_CURVE ( 'NONE', #201, #32, #69, .T. ) ;
#280 = CYLINDRICAL_SURFACE ( 'NONE', #185, 1.750000000000000000 ) ;
#281 = PLANE ( 'NONE',  #19 ) ;
#282 = DIRECTION ( 'NONE',  ( 0.000000000000000000, 0.000000000000000000, 1.000000000000000000 ) ) ;
#283 = ADVANCED_FACE ( 'NONE', ( #102, #291 ), #259, .T. ) ;
#284 = DIRECTION ( 'NONE',  ( -0.000000000000000000, -0.000000000000000000, -1.000000000000000000 ) ) ;
#285 = FACE_OUTER_BOUND ( 'NONE', #89, .T. ) ;
#286 = AXIS2_PLACEMENT_3D ( 'NONE', #65, #95, #360 ) ;
#287 = VERTEX_POINT ( 'NONE', #47 ) ;
#288 = AXIS2_PLACEMENT_3D ( 'NONE', #117, #325, #21 ) ;
#289 = CYLINDRICAL_SURFACE ( 'NONE', #288, 1.750000000000000000 ) ;
#290 = ORIENTED_EDGE ( 'NONE', *, *, #316, .T. ) ;
#291 = FACE_OUTER_BOUND ( 'NONE', #48, .T. ) ;
#292 = ORIENTED_EDGE ( 'NONE', *, *, #59, .F. ) ;
#293 = AXIS2_PLACEMENT_3D ( 'NONE', #255, #253, #164 ) ;
#294 = AXIS2_PLACEMENT_3D ( 'NONE', #83, #108, #52 ) ;
#295 = DIRECTION ( 'NONE',  ( 1.224646799147353207E-16, 1.000000000000000000, -0.000000000000000000 ) ) ;
#296 = EDGE_CURVE ( 'NONE', #171, #205, #80, .T. ) ;
#297 = EDGE_LOOP ( 'NONE', ( #266, #168 ) ) ;
#298 = ORIENTED_EDGE ( 'NONE', *, *, #305, .T. ) ;
#299 = EDGE_CURVE ( 'NONE', #287, #268, #150, .T. ) ;
#300 = PERSON_AND_ORGANIZATION_ROLE ( 'classification_officer' ) ;
#301 = AXIS2_PLACEMENT_3D ( 'NONE', #206, #357, #204 ) ;
#302 = APPROVAL_PERSON_ORGANIZATION ( #33, #109, #130 ) ;
#303 = COORDINATED_UNIVERSAL_TIME_OFFSET ( 1, 0, .AHEAD. ) ;
#304 = DIRECTION ( 'NONE',  ( 1.000000000000000000, 0.000000000000000000, 0.000000000000000000 ) ) ;
#305 = EDGE_CURVE ( 'NONE', #51, #353, #98, .T. ) ;
#306 = LINE ( 'NONE', #365, #111 ) ;
#307 = DIRECTION ( 'NONE',  ( 0.000000000000000000, 0.000000000000000000, 1.000000000000000000 ) ) ;
#308 = AXIS2_PLACEMENT_3D ( 'NONE', #188, #62, #304 ) ;
#309 = DIRECTION ( 'NONE',  ( 1.000000000000000000, 0.000000000000000000, 0.000000000000000000 ) ) ;
#310 = CIRCLE ( 'NONE', #293, 1.750000000000000000 ) ;
#311 = APPROVAL_PERSON_ORGANIZATION ( #16, #147, #131 ) ;
#312 = DIRECTION ( 'NONE',  ( -1.000000000000000000, 0.000000000000000000, 0.000000000000000000 ) ) ;
#313 = FACE_OUTER_BOUND ( 'NONE', #76, .T. ) ;
#314 = CARTESIAN_POINT ( 'NONE',  ( 3.000000000000000444, 3.673940397442060361E-16, 165.0000000000000000 ) ) ;
#315 = ORIENTED_EDGE ( 'NONE', *, *, #230, .F. ) ;
#316 = EDGE_CURVE ( 'NONE', #326, #201, #66, .T. ) ;
#317 = AXIS2_PLACEMENT_3D ( 'NONE', #46, #284, #312 ) ;
#318 = LOCAL_TIME ( 11, 15, 8.000000000000000000, #35 ) ;
#319 = DIRECTION ( 'NONE',  ( 1.000000000000000000, 0.000000000000000000, 0.000000000000000000 ) ) ;
#320 = ORIENTED_EDGE ( 'NONE', *, *, #6, .T. ) ;
#321 = CARTESIAN_POINT ( 'NONE',  ( 0.000000000000000000, 0.000000000000000000, 165.0000000000000000 ) ) ;
#322 = ORIENTED_EDGE ( 'NONE', *, *, #344, .F. ) ;
#323 = EDGE_CURVE ( 'NONE', #32, #143, #347, .T. ) ;
#324 = EDGE_LOOP ( 'NONE', ( #173, #176 ) ) ;
#325 = DIRECTION ( 'NONE',  ( 0.000000000000000000, 0.000000000000000000, -1.000000000000000000 ) ) ;
#326 = VERTEX_POINT ( 'NONE', #166 ) ;
#327 = ORIENTED_EDGE ( 'NONE', *, *, #230, .T. ) ;
#328 = APPROVAL_STATUS ( 'not_yet_approved' ) ;
#329 = DIRECTION ( 'NONE',  ( 1.000000000000000000, 0.000000000000000000, 0.000000000000000000 ) ) ;
#330 = PLANE ( 'NONE',  #286 ) ;
#331 = ADVANCED_BREP_SHAPE_REPRESENTATION ( 'c565', ( #169, #26 ), #151 ) ;
#332 = DATE_AND_TIME ( #244, #265 ) ;
#333 = FACE_BOUND ( 'NONE', #375, .T. ) ;
#334 = DIRECTION ( 'NONE',  ( -0.000000000000000000, -0.000000000000000000, -1.000000000000000000 ) ) ;
#335 = AXIS2_PLACEMENT_3D ( 'NONE', #40, #307, #309 ) ;
#336 = CC_DESIGN_APPROVAL ( #109, ( #68 ) ) ;
#337 = DIRECTION ( 'NONE',  ( 1.000000000000000000, 0.000000000000000000, 0.000000000000000000 ) ) ;
#338 = APPLICATION_PROTOCOL_DEFINITION ( 'international standard', 'config_control_design', 1994, #37 ) ;
#339 = CARTESIAN_POINT ( 'NONE',  ( 3.000000000000000444, 3.673940397442060361E-16, 165.0000000000000000 ) ) ;
#340 = CYLINDRICAL_SURFACE ( 'NONE', #49, 6.000000000000000888 ) ;
#341 = CIRCLE ( 'NONE', #177, 6.000000000000000888 ) ;
#342 = CARTESIAN_POINT ( 'NONE',  ( -6.000000000000000888, 0.000000000000000000, 5.000000000000000000 ) ) ;
#343 = DIRECTION ( 'NONE',  ( -1.000000000000000000, 0.000000000000000000, 0.000000000000000000 ) ) ;
#344 = EDGE_CURVE ( 'NONE', #32, #205, #34, .T. ) ;
#345 = CARTESIAN_POINT ( 'NONE',  ( 1.750000000000000000, 2.143131898507868297E-16, 165.0000000000000000 ) ) ;
#346 = ORIENTED_EDGE ( 'NONE', *, *, #245, .T. ) ;
#347 = CIRCLE ( 'NONE', #15, 3.000000000000000444 ) ;
#348 = PRODUCT_DEFINITION_FORMATION_WITH_SPECIFIED_SOURCE ( 'LIBOVOLNÝ', '', #101, .NOT_KNOWN. ) ;
#349 = AXIS2_PLACEMENT_3D ( 'NONE', #191, #129, #343 ) ;
#350 = ORIENTED_EDGE ( 'NONE', *, *, #245, .F. ) ;
#351 = ADVANCED_FACE ( 'NONE', ( #172 ), #289, .F. ) ;
#352 = CARTESIAN_POINT ( 'NONE',  ( 0.000000000000000000, 0.000000000000000000, 0.000000000000000000 ) ) ;
#353 = VERTEX_POINT ( 'NONE', #345 ) ;
#354 = DIRECTION ( 'NONE',  ( 1.000000000000000000, 0.000000000000000000, 0.000000000000000000 ) ) ;
#355 = ORIENTED_EDGE ( 'NONE', *, *, #316, .F. ) ;
#356 = CIRCLE ( 'NONE', #262, 3.000000000000000444 ) ;
#357 = DIRECTION ( 'NONE',  ( -0.000000000000000000, -0.000000000000000000, -1.000000000000000000 ) ) ;
#358 = EDGE_LOOP ( 'NONE', ( #298, #327, #23, #292 ) ) ;
#359 = DATE_AND_TIME ( #212, #160 ) ;
#360 = DIRECTION ( 'NONE',  ( 1.000000000000000000, 0.000000000000000000, -0.000000000000000000 ) ) ;
#361 = PERSON_AND_ORGANIZATION ( #174, #232 ) ;
#362 = FACE_OUTER_BOUND ( 'NONE', #237, .T. ) ;
#363 = CIRCLE ( 'NONE', #41, 3.300000000000000266 ) ;
#364 = PERSON_AND_ORGANIZATION ( #174, #232 ) ;
#365 = CARTESIAN_POINT ( 'NONE',  ( -1.750000000000000000, 0.000000000000000000, 165.0000000000000000 ) ) ;
#366 = ADVANCED_FACE ( 'NONE', ( #24 ), #113, .T. ) ;
#367 = LINE ( 'NONE', #214, #134 ) ;
#368 = CARTESIAN_POINT ( 'NONE',  ( -1.750000000000000000, 0.000000000000000000, 0.000000000000000000 ) ) ;
#369 = AXIS2_PLACEMENT_3D ( 'NONE', #228, #57, #81 ) ;
#370 = AXIS2_PLACEMENT_3D ( 'NONE', #142, #263, #138 ) ;
#371 = DIRECTION ( 'NONE',  ( 0.000000000000000000, 0.000000000000000000, 1.000000000000000000 ) ) ;
#372 = PERSON_AND_ORGANIZATION ( #174, #232 ) ;
#373 = CARTESIAN_POINT ( 'NONE',  ( -6.000000000000000888, 0.000000000000000000, 5.000000000000000000 ) ) ;
#374 = DIRECTION ( 'NONE',  ( 0.000000000000000000, 0.000000000000000000, 1.000000000000000000 ) ) ;
#375 = EDGE_LOOP ( 'NONE', ( #235, #241 ) ) ;
#376 = CC_DESIGN_APPROVAL ( #147, ( #348 ) ) ;
#377 = EDGE_CURVE ( 'NONE', #143, #32, #154, .T. ) ;
#378 = CARTESIAN_POINT ( 'NONE',  ( 0.000000000000000000, 0.000000000000000000, 5.000000000000000000 ) ) ;
#379 = CARTESIAN_POINT ( 'NONE',  ( 0.000000000000000000, 0.000000000000000000, 5.299999999999998934 ) ) ;
#380 = ORIENTED_EDGE ( 'NONE', *, *, #45, .T. ) ;
#381 = ORIENTED_EDGE ( 'NONE', *, *, #279, .T. ) ;
ENDSEC;
END-ISO-10303-21;
