ISO-10303-21;
HEADER;
FILE_DESCRIPTION (( 'STEP AP203' ),
    '1' );
FILE_NAME ('f9a0.STEP',
    '2022-07-10T09:05:48',
    ( '' ),
    ( '' ),
    'SwSTEP 2.0',
    'SolidWorks 2019',
    '' );
FILE_SCHEMA (( 'CONFIG_CONTROL_DESIGN' ));
ENDSEC;

DATA;
#1 = DIRECTION ( 'NONE',  ( 0.000000000000000000, 0.000000000000000000, -1.000000000000000000 ) ) ;
#2 = AXIS2_PLACEMENT_3D ( 'NONE', #228, #181, #94 ) ;
#3 = PLANE ( 'NONE',  #114 ) ;
#4 = MANIFOLD_SOLID_BREP ( 'Odebrat vysunutím3', #306 ) ;
#5 = FACE_OUTER_BOUND ( 'NONE', #165, .T. ) ;
#6 = PRODUCT_DEFINITION_SHAPE ( 'NONE', 'NONE',  #215 ) ;
#7 = CARTESIAN_POINT ( 'NONE',  ( -5.000000000000000000, 0.000000000000000000, 80.00000000000000000 ) ) ;
#8 = VERTEX_POINT ( 'NONE', #26 ) ;
#9 = APPLICATION_PROTOCOL_DEFINITION ( 'international standard', 'config_control_design', 1994, #54 ) ;
#10 = ORIENTED_EDGE ( 'NONE', *, *, #159, .F. ) ;
#11 = FACE_OUTER_BOUND ( 'NONE', #89, .T. ) ;
#12 = EDGE_LOOP ( 'NONE', ( #18, #223 ) ) ;
#13 = AXIS2_PLACEMENT_3D ( 'NONE', #365, #299, #78 ) ;
#14 = DIRECTION ( 'NONE',  ( 1.000000000000000000, 0.000000000000000000, 0.000000000000000000 ) ) ;
#15 = ADVANCED_FACE ( 'NONE', ( #81 ), #286, .F. ) ;
#16 = ORIENTED_EDGE ( 'NONE', *, *, #84, .T. ) ;
#17 = PERSON_AND_ORGANIZATION ( #361, #27 ) ;
#18 = ORIENTED_EDGE ( 'NONE', *, *, #287, .F. ) ;
#19 = VECTOR ( 'NONE', #322, 1000.000000000000000 ) ;
#20 = ORIENTED_EDGE ( 'NONE', *, *, #62, .F. ) ;
#21 = EDGE_CURVE ( 'NONE', #331, #23, #313, .T. ) ;
#22 = DATE_AND_TIME ( #320, #128 ) ;
#23 = VERTEX_POINT ( 'NONE', #57 ) ;
#24 = APPROVAL_DATE_TIME ( #22, #312 ) ;
#25 = APPLICATION_CONTEXT ( 'configuration controlled 3d designs of mechanical parts and assemblies' ) ;
#26 = CARTESIAN_POINT ( 'NONE',  ( 5.500000000000000000, 0.000000000000000000, 5.000000000000002665 ) ) ;
#27 = ORGANIZATION ( 'NEURÈENÝ', 'NEURÈENÝ', '' ) ;
#28 = EDGE_LOOP ( 'NONE', ( #216, #305, #43, #319 ) ) ;
#29 = VECTOR ( 'NONE', #191, 1000.000000000000000 ) ;
#30 = FACE_OUTER_BOUND ( 'NONE', #257, .T. ) ;
#31 = CARTESIAN_POINT ( 'NONE',  ( 0.000000000000000000, 0.000000000000000000, 0.000000000000000000 ) ) ;
#32 = AXIS2_PLACEMENT_3D ( 'NONE', #235, #203, #230 ) ;
#33 = EDGE_CURVE ( 'NONE', #340, #267, #143, .T. ) ;
#34 = CARTESIAN_POINT ( 'NONE',  ( -8.000000000000000000, 0.000000000000000000, 5.000000000000000000 ) ) ;
#35 = LINE ( 'NONE', #154, #19 ) ;
#36 = CARTESIAN_POINT ( 'NONE',  ( 0.000000000000000000, 0.000000000000000000, 5.000000000000000000 ) ) ;
#37 = EDGE_LOOP ( 'NONE', ( #42, #266 ) ) ;
#38 = SECURITY_CLASSIFICATION ( '', '', #140 ) ;
#39 = CC_DESIGN_PERSON_AND_ORGANIZATION_ASSIGNMENT ( #17, #316, ( #215 ) ) ;
#40 = ORIENTED_EDGE ( 'NONE', *, *, #62, .T. ) ;
#41 = CARTESIAN_POINT ( 'NONE',  ( 0.000000000000000000, 0.000000000000000000, 5.500000000000005329 ) ) ;
#42 = ORIENTED_EDGE ( 'NONE', *, *, #115, .F. ) ;
#43 = ORIENTED_EDGE ( 'NONE', *, *, #109, .T. ) ;
#44 = EDGE_CURVE ( 'NONE', #213, #8, #240, .T. ) ;
#45 =( GEOMETRIC_REPRESENTATION_CONTEXT ( 3 ) GLOBAL_UNCERTAINTY_ASSIGNED_CONTEXT ( ( #69 ) ) GLOBAL_UNIT_ASSIGNED_CONTEXT ( ( #46, #358, #66 ) ) REPRESENTATION_CONTEXT ( 'NONE', 'WORKASPACE' ) );
#46 =( LENGTH_UNIT ( ) NAMED_UNIT ( * ) SI_UNIT ( .MILLI., .METRE. ) );
#47 = DIRECTION ( 'NONE',  ( 1.000000000000000000, 0.000000000000000000, 0.000000000000000000 ) ) ;
#48 = DIRECTION ( 'NONE',  ( -0.000000000000000000, -0.000000000000000000, -1.000000000000000000 ) ) ;
#49 = AXIS2_PLACEMENT_3D ( 'NONE', #88, #193, #317 ) ;
#50 = ADVANCED_FACE ( 'NONE', ( #311 ), #347, .T. ) ;
#51 = CARTESIAN_POINT ( 'NONE',  ( -3.100000000000000089, 0.000000000000000000, 80.00000000000000000 ) ) ;
#52 = TOROIDAL_SURFACE ( 'NONE', #232, 5.500000000000000000, 0.5000000000000000000 ) ;
#53 = CALENDAR_DATE ( 2022, 10, 7 ) ;
#54 = APPLICATION_CONTEXT ( 'configuration controlled 3d designs of mechanical parts and assemblies' ) ;
#55 = VERTEX_POINT ( 'NONE', #171 ) ;
#56 = SHAPE_DEFINITION_REPRESENTATION ( #6, #274 ) ;
#57 = CARTESIAN_POINT ( 'NONE',  ( -8.000000000000000000, 0.000000000000000000, 5.000000000000000000 ) ) ;
#58 = CALENDAR_DATE ( 2022, 10, 7 ) ;
#59 = VERTEX_POINT ( 'NONE', #280 ) ;
#60 = DIRECTION ( 'NONE',  ( 1.000000000000000000, 0.000000000000000000, 0.000000000000000000 ) ) ;
#61 = DIRECTION ( 'NONE',  ( 1.000000000000000000, 0.000000000000000000, 0.000000000000000000 ) ) ;
#62 = EDGE_CURVE ( 'NONE', #8, #163, #268, .T. ) ;
#63 = FACE_OUTER_BOUND ( 'NONE', #12, .T. ) ;
#64 = CARTESIAN_POINT ( 'NONE',  ( -5.500000000000000000, 6.735557395310442023E-16, 5.000000000000002665 ) ) ;
#65 = DIRECTION ( 'NONE',  ( -1.000000000000000000, 0.000000000000000000, 0.000000000000000000 ) ) ;
#66 =( NAMED_UNIT ( * ) SI_UNIT ( $, .STERADIAN. ) SOLID_ANGLE_UNIT ( ) );
#67 = EDGE_LOOP ( 'NONE', ( #117, #244, #71, #377 ) ) ;
#68 = EDGE_CURVE ( 'NONE', #108, #302, #161, .T. ) ;
#69 = UNCERTAINTY_MEASURE_WITH_UNIT (LENGTH_MEASURE( 1.000000000000000082E-05 ), #46, 'distance_accuracy_value', 'NONE');
#70 = DIRECTION ( 'NONE',  ( -1.000000000000000000, 1.224646799147351482E-16, 0.000000000000000000 ) ) ;
#71 = ORIENTED_EDGE ( 'NONE', *, *, #136, .T. ) ;
#72 = AXIS2_PLACEMENT_3D ( 'NONE', #214, #243, #363 ) ;
#73 = CIRCLE ( 'NONE', #86, 8.000000000000000000 ) ;
#74 = CYLINDRICAL_SURFACE ( 'NONE', #72, 8.000000000000000000 ) ;
#75 = DIRECTION ( 'NONE',  ( -0.000000000000000000, -0.000000000000000000, -1.000000000000000000 ) ) ;
#76 = CIRCLE ( 'NONE', #124, 5.000000000000000000 ) ;
#77 = EDGE_LOOP ( 'NONE', ( #40, #348 ) ) ;
#78 = DIRECTION ( 'NONE',  ( 1.000000000000000000, 0.000000000000000000, 0.000000000000000000 ) ) ;
#79 = APPROVAL_PERSON_ORGANIZATION ( #135, #239, #339 ) ;
#80 = COORDINATED_UNIVERSAL_TIME_OFFSET ( 1, 0, .AHEAD. ) ;
#81 = FACE_OUTER_BOUND ( 'NONE', #330, .T. ) ;
#82 = PERSON_AND_ORGANIZATION ( #361, #27 ) ;
#83 = EDGE_LOOP ( 'NONE', ( #199, #98, #273, #198 ) ) ;
#84 = EDGE_CURVE ( 'NONE', #331, #55, #283, .T. ) ;
#85 = DIRECTION ( 'NONE',  ( 0.000000000000000000, 0.000000000000000000, 1.000000000000000000 ) ) ;
#86 = AXIS2_PLACEMENT_3D ( 'NONE', #212, #211, #241 ) ;
#87 = CC_DESIGN_SECURITY_CLASSIFICATION ( #38, ( #236 ) ) ;
#88 = CARTESIAN_POINT ( 'NONE',  ( 0.000000000000000000, 0.000000000000000000, 80.00000000000000000 ) ) ;
#89 = EDGE_LOOP ( 'NONE', ( #157, #137, #369, #372 ) ) ;
#90 = CC_DESIGN_DATE_AND_TIME_ASSIGNMENT ( #341, #284, ( #38 ) ) ;
#91 = DIRECTION ( 'NONE',  ( -0.000000000000000000, -0.000000000000000000, -1.000000000000000000 ) ) ;
#92 = DIRECTION ( 'NONE',  ( 1.000000000000000000, 0.000000000000000000, 0.000000000000000000 ) ) ;
#93 = CYLINDRICAL_SURFACE ( 'NONE', #285, 8.000000000000000000 ) ;
#94 = DIRECTION ( 'NONE',  ( 1.000000000000000000, 0.000000000000000000, 0.000000000000000000 ) ) ;
#95 = LINE ( 'NONE', #34, #96 ) ;
#96 = VECTOR ( 'NONE', #262, 1000.000000000000000 ) ;
#97 = ORIENTED_EDGE ( 'NONE', *, *, #362, .F. ) ;
#98 = ORIENTED_EDGE ( 'NONE', *, *, #333, .F. ) ;
#99 = AXIS2_PLACEMENT_3D ( 'NONE', #327, #175, #290 ) ;
#100 = ADVANCED_FACE ( 'NONE', ( #225 ), #93, .T. ) ;
#101 = DIRECTION ( 'NONE',  ( 1.000000000000000000, 0.000000000000000000, 0.000000000000000000 ) ) ;
#102 = EDGE_LOOP ( 'NONE', ( #270, #217, #20, #247 ) ) ;
#103 = DIRECTION ( 'NONE',  ( 1.224646799147353207E-16, 1.000000000000000000, -0.000000000000000000 ) ) ;
#104 = ORIENTED_EDGE ( 'NONE', *, *, #333, .T. ) ;
#105 = AXIS2_PLACEMENT_3D ( 'NONE', #41, #238, #269 ) ;
#106 = LOCAL_TIME ( 11, 5, 48.00000000000000000, #224 ) ;
#107 = MECHANICAL_CONTEXT ( 'NONE', #54, 'mechanical' ) ;
#108 = VERTEX_POINT ( 'NONE', #261 ) ;
#109 = EDGE_CURVE ( 'NONE', #213, #59, #76, .T. ) ;
#110 = APPROVAL_STATUS ( 'not_yet_approved' ) ;
#111 = DIRECTION ( 'NONE',  ( 1.000000000000000000, 0.000000000000000000, 0.000000000000000000 ) ) ;
#112 = APPROVAL_ROLE ( '' ) ;
#113 = ORIENTED_EDGE ( 'NONE', *, *, #33, .T. ) ;
#114 = AXIS2_PLACEMENT_3D ( 'NONE', #292, #179, #119 ) ;
#115 = EDGE_CURVE ( 'NONE', #267, #249, #367, .T. ) ;
#116 = DATE_AND_TIME ( #53, #201 ) ;
#117 = ORIENTED_EDGE ( 'NONE', *, *, #159, .T. ) ;
#118 = DIRECTION ( 'NONE',  ( 0.000000000000000000, 0.000000000000000000, 1.000000000000000000 ) ) ;
#119 = DIRECTION ( 'NONE',  ( 1.000000000000000000, 0.000000000000000000, -0.000000000000000000 ) ) ;
#120 = APPROVAL ( #252, 'NEURÈENÝ' ) ;
#121 = TOROIDAL_SURFACE ( 'NONE', #105, 5.500000000000000000, 0.5000000000000000000 ) ;
#122 = FACE_BOUND ( 'NONE', #37, .T. ) ;
#123 = CARTESIAN_POINT ( 'NONE',  ( 3.100000000000000089, 3.796405077356794918E-16, 80.00000000000000000 ) ) ;
#124 = AXIS2_PLACEMENT_3D ( 'NONE', #202, #118, #92 ) ;
#125 = CARTESIAN_POINT ( 'NONE',  ( 0.000000000000000000, 0.000000000000000000, 5.000000000000000000 ) ) ;
#126 = EDGE_CURVE ( 'NONE', #187, #340, #271, .T. ) ;
#127 = PLANE ( 'NONE',  #226 ) ;
#128 = LOCAL_TIME ( 11, 5, 48.00000000000000000, #80 ) ;
#129 = DIRECTION ( 'NONE',  ( 0.000000000000000000, 0.000000000000000000, 1.000000000000000000 ) ) ;
#130 = ORIENTED_EDGE ( 'NONE', *, *, #68, .T. ) ;
#131 = AXIS2_PLACEMENT_3D ( 'NONE', #36, #129, #101 ) ;
#132 = CARTESIAN_POINT ( 'NONE',  ( 5.000000000000000000, 6.123233995736766282E-16, 80.00000000000000000 ) ) ;
#133 = DATE_AND_TIME ( #58, #260 ) ;
#134 = EDGE_LOOP ( 'NONE', ( #335, #16, #254, #300 ) ) ;
#135 = PERSON_AND_ORGANIZATION ( #361, #27 ) ;
#136 = EDGE_CURVE ( 'NONE', #249, #267, #231, .T. ) ;
#137 = ORIENTED_EDGE ( 'NONE', *, *, #68, .F. ) ;
#138 = AXIS2_PLACEMENT_3D ( 'NONE', #206, #91, #60 ) ;
#139 = DIRECTION ( 'NONE',  ( 1.000000000000000000, 0.000000000000000000, 0.000000000000000000 ) ) ;
#140 = SECURITY_CLASSIFICATION_LEVEL ( 'unclassified' ) ;
#141 = DIRECTION ( 'NONE',  ( -0.000000000000000000, -0.000000000000000000, -1.000000000000000000 ) ) ;
#142 = PERSON_AND_ORGANIZATION ( #361, #27 ) ;
#143 = LINE ( 'NONE', #51, #29 ) ;
#144 = AXIS2_PLACEMENT_3D ( 'NONE', #185, #303, #47 ) ;
#145 = DIRECTION ( 'NONE',  ( 0.000000000000000000, 0.000000000000000000, 1.000000000000000000 ) ) ;
#146 = CARTESIAN_POINT ( 'NONE',  ( 0.000000000000000000, 0.000000000000000000, 0.000000000000000000 ) ) ;
#147 = CYLINDRICAL_SURFACE ( 'NONE', #357, 3.100000000000000089 ) ;
#148 = ADVANCED_FACE ( 'NONE', ( #234, #5 ), #3, .T. ) ;
#149 = CIRCLE ( 'NONE', #156, 5.000000000000000000 ) ;
#150 = APPROVAL_PERSON_ORGANIZATION ( #82, #120, #112 ) ;
#151 = DIRECTION ( 'NONE',  ( 1.000000000000000000, 0.000000000000000000, 0.000000000000000000 ) ) ;
#152 = DIRECTION ( 'NONE',  ( 0.000000000000000000, 0.000000000000000000, 1.000000000000000000 ) ) ;
#153 = CC_DESIGN_PERSON_AND_ORGANIZATION_ASSIGNMENT ( #219, #168, ( #38 ) ) ;
#154 = CARTESIAN_POINT ( 'NONE',  ( 5.000000000000000000, 6.123233995736766282E-16, 80.00000000000000000 ) ) ;
#155 = FACE_OUTER_BOUND ( 'NONE', #276, .T. ) ;
#156 = AXIS2_PLACEMENT_3D ( 'NONE', #174, #350, #151 ) ;
#157 = ORIENTED_EDGE ( 'NONE', *, *, #229, .F. ) ;
#158 = DIRECTION ( 'NONE',  ( 0.000000000000000000, 0.000000000000000000, 1.000000000000000000 ) ) ;
#159 = EDGE_CURVE ( 'NONE', #340, #187, #210, .T. ) ;
#160 = ORIENTED_EDGE ( 'NONE', *, *, #126, .T. ) ;
#161 = CIRCLE ( 'NONE', #375, 5.000000000000000000 ) ;
#162 = FACE_OUTER_BOUND ( 'NONE', #83, .T. ) ;
#163 = VERTEX_POINT ( 'NONE', #64 ) ;
#164 = CARTESIAN_POINT ( 'NONE',  ( 0.000000000000000000, 0.000000000000000000, 80.00000000000000000 ) ) ;
#165 = EDGE_LOOP ( 'NONE', ( #130, #220 ) ) ;
#166 = APPROVAL_STATUS ( 'not_yet_approved' ) ;
#167 = DIRECTION ( 'NONE',  ( -1.000000000000000000, 0.000000000000000000, 0.000000000000000000 ) ) ;
#168 = PERSON_AND_ORGANIZATION_ROLE ( 'classification_officer' ) ;
#169 = DIRECTION ( 'NONE',  ( 0.000000000000000000, 0.000000000000000000, -1.000000000000000000 ) ) ;
#170 = APPLICATION_PROTOCOL_DEFINITION ( 'international standard', 'config_control_design', 1994, #25 ) ;
#171 = CARTESIAN_POINT ( 'NONE',  ( 8.000000000000000000, 9.797174393178825657E-16, 0.000000000000000000 ) ) ;
#172 = ORIENTED_EDGE ( 'NONE', *, *, #126, .F. ) ;
#173 = EDGE_LOOP ( 'NONE', ( #10, #172 ) ) ;
#174 = CARTESIAN_POINT ( 'NONE',  ( 0.000000000000000000, 0.000000000000000000, 80.00000000000000000 ) ) ;
#175 = DIRECTION ( 'NONE',  ( 0.000000000000000000, 0.000000000000000000, 1.000000000000000000 ) ) ;
#176 = AXIS2_PLACEMENT_3D ( 'NONE', #378, #227, #169 ) ;
#177 = DIRECTION ( 'NONE',  ( -0.000000000000000000, -0.000000000000000000, -1.000000000000000000 ) ) ;
#178 = CIRCLE ( 'NONE', #13, 5.500000000000000000 ) ;
#179 = DIRECTION ( 'NONE',  ( 0.000000000000000000, 0.000000000000000000, 1.000000000000000000 ) ) ;
#180 = EDGE_CURVE ( 'NONE', #187, #249, #356, .T. ) ;
#181 = DIRECTION ( 'NONE',  ( 0.000000000000000000, 0.000000000000000000, 1.000000000000000000 ) ) ;
#182 = ORIENTED_EDGE ( 'NONE', *, *, #21, .T. ) ;
#183 = EDGE_CURVE ( 'NONE', #302, #108, #149, .T. ) ;
#184 = AXIS2_PLACEMENT_3D ( 'NONE', #164, #237, #272 ) ;
#185 = CARTESIAN_POINT ( 'NONE',  ( 0.000000000000000000, 0.000000000000000000, 0.000000000000000000 ) ) ;
#186 = CARTESIAN_POINT ( 'NONE',  ( -5.500000000000000000, 6.735557395310442023E-16, 5.500000000000005329 ) ) ;
#187 = VERTEX_POINT ( 'NONE', #324 ) ;
#188 = FACE_BOUND ( 'NONE', #77, .T. ) ;
#189 = EDGE_CURVE ( 'NONE', #59, #213, #289, .T. ) ;
#190 = APPROVAL_DATE_TIME ( #343, #120 ) ;
#191 = DIRECTION ( 'NONE',  ( 0.000000000000000000, 0.000000000000000000, -1.000000000000000000 ) ) ;
#192 = DATE_TIME_ROLE ( 'creation_date' ) ;
#193 = DIRECTION ( 'NONE',  ( 0.000000000000000000, 0.000000000000000000, -1.000000000000000000 ) ) ;
#194 = PRODUCT_RELATED_PRODUCT_CATEGORY ( 'detail', '', ( #296 ) ) ;
#195 = DIRECTION ( 'NONE',  ( 1.000000000000000000, 0.000000000000000000, 0.000000000000000000 ) ) ;
#196 = CIRCLE ( 'NONE', #242, 8.000000000000000000 ) ;
#197 = COORDINATED_UNIVERSAL_TIME_OFFSET ( 1, 0, .AHEAD. ) ;
#198 = ORIENTED_EDGE ( 'NONE', *, *, #287, .T. ) ;
#199 = ORIENTED_EDGE ( 'NONE', *, *, #84, .F. ) ;
#200 = ADVANCED_FACE ( 'NONE', ( #30 ), #52, .F. ) ;
#201 = LOCAL_TIME ( 11, 5, 48.00000000000000000, #275 ) ;
#202 = CARTESIAN_POINT ( 'NONE',  ( 0.000000000000000000, 0.000000000000000000, 5.500000000000005329 ) ) ;
#203 = DIRECTION ( 'NONE',  ( -0.000000000000000000, -0.000000000000000000, -1.000000000000000000 ) ) ;
#204 = VECTOR ( 'NONE', #141, 1000.000000000000000 ) ;
#205 = CARTESIAN_POINT ( 'NONE',  ( 0.000000000000000000, 0.000000000000000000, 80.00000000000000000 ) ) ;
#206 = CARTESIAN_POINT ( 'NONE',  ( 0.000000000000000000, 0.000000000000000000, 0.000000000000000000 ) ) ;
#207 = FACE_OUTER_BOUND ( 'NONE', #102, .T. ) ;
#208 = ORIENTED_EDGE ( 'NONE', *, *, #115, .T. ) ;
#209 = EDGE_CURVE ( 'NONE', #23, #288, #95, .T. ) ;
#210 = CIRCLE ( 'NONE', #218, 3.100000000000000089 ) ;
#211 = DIRECTION ( 'NONE',  ( 0.000000000000000000, 0.000000000000000000, 1.000000000000000000 ) ) ;
#212 = CARTESIAN_POINT ( 'NONE',  ( 0.000000000000000000, 0.000000000000000000, 0.000000000000000000 ) ) ;
#213 = VERTEX_POINT ( 'NONE', #297 ) ;
#214 = CARTESIAN_POINT ( 'NONE',  ( 0.000000000000000000, 0.000000000000000000, 5.000000000000000000 ) ) ;
#215 = PRODUCT_DEFINITION ( 'NEZNÁMÝ', '', #236, #359 ) ;
#216 = ORIENTED_EDGE ( 'NONE', *, *, #183, .F. ) ;
#217 = ORIENTED_EDGE ( 'NONE', *, *, #355, .T. ) ;
#218 = AXIS2_PLACEMENT_3D ( 'NONE', #205, #152, #61 ) ;
#219 = PERSON_AND_ORGANIZATION ( #361, #27 ) ;
#220 = ORIENTED_EDGE ( 'NONE', *, *, #183, .T. ) ;
#221 = ADVANCED_FACE ( 'NONE', ( #380 ), #147, .F. ) ;
#222 = AXIS2_PLACEMENT_3D ( 'NONE', #321, #48, #167 ) ;
#223 = ORIENTED_EDGE ( 'NONE', *, *, #256, .F. ) ;
#224 = COORDINATED_UNIVERSAL_TIME_OFFSET ( 1, 0, .AHEAD. ) ;
#225 = FACE_OUTER_BOUND ( 'NONE', #134, .T. ) ;
#226 = AXIS2_PLACEMENT_3D ( 'NONE', #334, #158, #309 ) ;
#227 = DIRECTION ( 'NONE',  ( 0.000000000000000000, -1.000000000000000000, 0.000000000000000000 ) ) ;
#228 = CARTESIAN_POINT ( 'NONE',  ( 0.000000000000000000, 0.000000000000000000, 80.00000000000000000 ) ) ;
#229 = EDGE_CURVE ( 'NONE', #302, #213, #35, .T. ) ;
#230 = DIRECTION ( 'NONE',  ( 1.000000000000000000, 0.000000000000000000, 0.000000000000000000 ) ) ;
#231 = CIRCLE ( 'NONE', #32, 3.100000000000000089 ) ;
#232 = AXIS2_PLACEMENT_3D ( 'NONE', #263, #295, #325 ) ;
#233 = PLANE ( 'NONE',  #308 ) ;
#234 = FACE_BOUND ( 'NONE', #173, .T. ) ;
#235 = CARTESIAN_POINT ( 'NONE',  ( 0.000000000000000000, 0.000000000000000000, 0.000000000000000000 ) ) ;
#236 = PRODUCT_DEFINITION_FORMATION_WITH_SPECIFIED_SOURCE ( 'LIBOVOLNÝ', '', #296, .NOT_KNOWN. ) ;
#237 = DIRECTION ( 'NONE',  ( -0.000000000000000000, -0.000000000000000000, -1.000000000000000000 ) ) ;
#238 = DIRECTION ( 'NONE',  ( 0.000000000000000000, 0.000000000000000000, 1.000000000000000000 ) ) ;
#239 = APPROVAL ( #166, 'NEURÈENÝ' ) ;
#240 = CIRCLE ( 'NONE', #176, 0.5000000000000004441 ) ;
#241 = DIRECTION ( 'NONE',  ( 1.000000000000000000, 0.000000000000000000, 0.000000000000000000 ) ) ;
#242 = AXIS2_PLACEMENT_3D ( 'NONE', #31, #336, #14 ) ;
#243 = DIRECTION ( 'NONE',  ( -0.000000000000000000, -0.000000000000000000, -1.000000000000000000 ) ) ;
#244 = ORIENTED_EDGE ( 'NONE', *, *, #180, .T. ) ;
#245 = ADVANCED_FACE ( 'NONE', ( #122, #63 ), #233, .F. ) ;
#246 = CARTESIAN_POINT ( 'NONE',  ( -3.100000000000000089, 0.000000000000000000, 80.00000000000000000 ) ) ;
#247 = ORIENTED_EDGE ( 'NONE', *, *, #44, .F. ) ;
#248 = PERSON_AND_ORGANIZATION_ROLE ( 'creator' ) ;
#249 = VERTEX_POINT ( 'NONE', #258 ) ;
#250 = PERSON_AND_ORGANIZATION_ROLE ( 'design_owner' ) ;
#251 = CARTESIAN_POINT ( 'NONE',  ( 0.000000000000000000, 0.000000000000000000, 5.000000000000000000 ) ) ;
#252 = APPROVAL_STATUS ( 'not_yet_approved' ) ;
#253 = CARTESIAN_POINT ( 'NONE',  ( 8.000000000000000000, 9.797174393178825657E-16, 5.000000000000000000 ) ) ;
#254 = ORIENTED_EDGE ( 'NONE', *, *, #256, .T. ) ;
#255 = VECTOR ( 'NONE', #354, 1000.000000000000000 ) ;
#256 = EDGE_CURVE ( 'NONE', #55, #288, #196, .T. ) ;
#257 = EDGE_LOOP ( 'NONE', ( #364, #379, #342, #97 ) ) ;
#258 = CARTESIAN_POINT ( 'NONE',  ( 3.100000000000000089, 3.796405077356794918E-16, 0.000000000000000000 ) ) ;
#259 = DIRECTION ( 'NONE',  ( -1.000000000000000000, 0.000000000000000000, 0.000000000000000000 ) ) ;
#260 = LOCAL_TIME ( 11, 5, 48.00000000000000000, #345 ) ;
#261 = CARTESIAN_POINT ( 'NONE',  ( -5.000000000000000000, 0.000000000000000000, 80.00000000000000000 ) ) ;
#262 = DIRECTION ( 'NONE',  ( -0.000000000000000000, -0.000000000000000000, -1.000000000000000000 ) ) ;
#263 = CARTESIAN_POINT ( 'NONE',  ( 0.000000000000000000, 0.000000000000000000, 5.500000000000005329 ) ) ;
#264 = EDGE_CURVE ( 'NONE', #108, #59, #337, .T. ) ;
#265 = CARTESIAN_POINT ( 'NONE',  ( -8.000000000000000000, 0.000000000000000000, 0.000000000000000000 ) ) ;
#266 = ORIENTED_EDGE ( 'NONE', *, *, #136, .F. ) ;
#267 = VERTEX_POINT ( 'NONE', #307 ) ;
#268 = CIRCLE ( 'NONE', #326, 5.500000000000000000 ) ;
#269 = DIRECTION ( 'NONE',  ( 1.000000000000000000, 0.000000000000000000, 0.000000000000000000 ) ) ;
#270 = ORIENTED_EDGE ( 'NONE', *, *, #189, .F. ) ;
#271 = CIRCLE ( 'NONE', #2, 3.100000000000000089 ) ;
#272 = DIRECTION ( 'NONE',  ( -1.000000000000000000, 0.000000000000000000, 0.000000000000000000 ) ) ;
#273 = ORIENTED_EDGE ( 'NONE', *, *, #209, .T. ) ;
#274 = ADVANCED_BREP_SHAPE_REPRESENTATION ( 'f9a0', ( #4, #144 ), #45 ) ;
#275 = COORDINATED_UNIVERSAL_TIME_OFFSET ( 1, 0, .AHEAD. ) ;
#276 = EDGE_LOOP ( 'NONE', ( #104, #182 ) ) ;
#277 = PERSON_AND_ORGANIZATION ( #361, #27 ) ;
#278 = CC_DESIGN_DATE_AND_TIME_ASSIGNMENT ( #133, #192, ( #215 ) ) ;
#279 = AXIS2_PLACEMENT_3D ( 'NONE', #186, #103, #70 ) ;
#280 = CARTESIAN_POINT ( 'NONE',  ( -5.000000000000000000, 0.000000000000000000, 5.500000000000005329 ) ) ;
#281 = CC_DESIGN_APPROVAL ( #120, ( #38 ) ) ;
#282 = PERSON_AND_ORGANIZATION ( #361, #27 ) ;
#283 = LINE ( 'NONE', #253, #204 ) ;
#284 = DATE_TIME_ROLE ( 'classification_date' ) ;
#285 = AXIS2_PLACEMENT_3D ( 'NONE', #125, #177, #65 ) ;
#286 = CYLINDRICAL_SURFACE ( 'NONE', #49, 3.100000000000000089 ) ;
#287 = EDGE_CURVE ( 'NONE', #288, #55, #73, .T. ) ;
#288 = VERTEX_POINT ( 'NONE', #265 ) ;
#289 = CIRCLE ( 'NONE', #99, 5.000000000000000000 ) ;
#290 = DIRECTION ( 'NONE',  ( 1.000000000000000000, 0.000000000000000000, 0.000000000000000000 ) ) ;
#291 = ADVANCED_FACE ( 'NONE', ( #11 ), #301, .T. ) ;
#292 = CARTESIAN_POINT ( 'NONE',  ( 0.000000000000000000, 0.000000000000000000, 80.00000000000000000 ) ) ;
#293 = DIRECTION ( 'NONE',  ( 1.000000000000000000, 0.000000000000000000, -0.000000000000000000 ) ) ;
#294 = CIRCLE ( 'NONE', #131, 8.000000000000000000 ) ;
#295 = DIRECTION ( 'NONE',  ( 0.000000000000000000, 0.000000000000000000, 1.000000000000000000 ) ) ;
#296 = PRODUCT ( 'f9a0', 'f9a0', '', ( #107 ) ) ;
#297 = CARTESIAN_POINT ( 'NONE',  ( 5.000000000000000000, 6.123233995736766282E-16, 5.500000000000005329 ) ) ;
#298 = CC_DESIGN_PERSON_AND_ORGANIZATION_ASSIGNMENT ( #277, #310, ( #236 ) ) ;
#299 = DIRECTION ( 'NONE',  ( -0.000000000000000000, -0.000000000000000000, -1.000000000000000000 ) ) ;
#300 = ORIENTED_EDGE ( 'NONE', *, *, #209, .F. ) ;
#301 = CYLINDRICAL_SURFACE ( 'NONE', #184, 5.000000000000000000 ) ;
#302 = VERTEX_POINT ( 'NONE', #132 ) ;
#303 = DIRECTION ( 'NONE',  ( 0.000000000000000000, 0.000000000000000000, 1.000000000000000000 ) ) ;
#304 = ADVANCED_FACE ( 'NONE', ( #162 ), #74, .T. ) ;
#305 = ORIENTED_EDGE ( 'NONE', *, *, #229, .T. ) ;
#306 = CLOSED_SHELL ( 'NONE', ( #221, #368, #50, #100, #304, #381, #245, #291, #148, #200, #15 ) ) ;
#307 = CARTESIAN_POINT ( 'NONE',  ( -3.100000000000000089, 0.000000000000000000, 0.000000000000000000 ) ) ;
#308 = AXIS2_PLACEMENT_3D ( 'NONE', #146, #353, #293 ) ;
#309 = DIRECTION ( 'NONE',  ( 1.000000000000000000, 0.000000000000000000, -0.000000000000000000 ) ) ;
#310 = PERSON_AND_ORGANIZATION_ROLE ( 'design_supplier' ) ;
#311 = FACE_OUTER_BOUND ( 'NONE', #28, .T. ) ;
#312 = APPROVAL ( #110, 'NEURÈENÝ' ) ;
#313 = CIRCLE ( 'NONE', #360, 8.000000000000000000 ) ;
#314 = CALENDAR_DATE ( 2022, 10, 7 ) ;
#315 = CARTESIAN_POINT ( 'NONE',  ( 0.000000000000000000, 0.000000000000000000, 5.000000000000000000 ) ) ;
#316 = PERSON_AND_ORGANIZATION_ROLE ( 'creator' ) ;
#317 = DIRECTION ( 'NONE',  ( -1.000000000000000000, 0.000000000000000000, 0.000000000000000000 ) ) ;
#318 = PERSON_AND_ORGANIZATION ( #361, #27 ) ;
#319 = ORIENTED_EDGE ( 'NONE', *, *, #264, .F. ) ;
#320 = CALENDAR_DATE ( 2022, 10, 7 ) ;
#321 = CARTESIAN_POINT ( 'NONE',  ( 0.000000000000000000, 0.000000000000000000, 80.00000000000000000 ) ) ;
#322 = DIRECTION ( 'NONE',  ( -0.000000000000000000, -0.000000000000000000, -1.000000000000000000 ) ) ;
#323 = LOCAL_TIME ( 11, 5, 48.00000000000000000, #197 ) ;
#324 = CARTESIAN_POINT ( 'NONE',  ( 3.100000000000000089, 3.796405077356794918E-16, 80.00000000000000000 ) ) ;
#325 = DIRECTION ( 'NONE',  ( 1.000000000000000000, 0.000000000000000000, 0.000000000000000000 ) ) ;
#326 = AXIS2_PLACEMENT_3D ( 'NONE', #251, #374, #111 ) ;
#327 = CARTESIAN_POINT ( 'NONE',  ( 0.000000000000000000, 0.000000000000000000, 5.500000000000005329 ) ) ;
#328 = CC_DESIGN_PERSON_AND_ORGANIZATION_ASSIGNMENT ( #142, #248, ( #236 ) ) ;
#329 = CARTESIAN_POINT ( 'NONE',  ( 8.000000000000000000, 9.797174393178825657E-16, 5.000000000000000000 ) ) ;
#330 = EDGE_LOOP ( 'NONE', ( #366, #160, #113, #208 ) ) ;
#331 = VERTEX_POINT ( 'NONE', #329 ) ;
#332 = CC_DESIGN_APPROVAL ( #312, ( #215 ) ) ;
#333 = EDGE_CURVE ( 'NONE', #23, #331, #294, .T. ) ;
#334 = CARTESIAN_POINT ( 'NONE',  ( 0.000000000000000000, 0.000000000000000000, 5.000000000000000000 ) ) ;
#335 = ORIENTED_EDGE ( 'NONE', *, *, #21, .F. ) ;
#336 = DIRECTION ( 'NONE',  ( 0.000000000000000000, 0.000000000000000000, 1.000000000000000000 ) ) ;
#337 = LINE ( 'NONE', #7, #351 ) ;
#338 = CC_DESIGN_APPROVAL ( #239, ( #236 ) ) ;
#339 = APPROVAL_ROLE ( '' ) ;
#340 = VERTEX_POINT ( 'NONE', #246 ) ;
#341 = DATE_AND_TIME ( #373, #323 ) ;
#342 = ORIENTED_EDGE ( 'NONE', *, *, #44, .T. ) ;
#343 = DATE_AND_TIME ( #314, #106 ) ;
#344 = CARTESIAN_POINT ( 'NONE',  ( 0.000000000000000000, 0.000000000000000000, 80.00000000000000000 ) ) ;
#345 = COORDINATED_UNIVERSAL_TIME_OFFSET ( 1, 0, .AHEAD. ) ;
#346 = CIRCLE ( 'NONE', #279, 0.5000000000000004441 ) ;
#347 = CYLINDRICAL_SURFACE ( 'NONE', #222, 5.000000000000000000 ) ;
#348 = ORIENTED_EDGE ( 'NONE', *, *, #362, .T. ) ;
#349 = CARTESIAN_POINT ( 'NONE',  ( 0.000000000000000000, 0.000000000000000000, 80.00000000000000000 ) ) ;
#350 = DIRECTION ( 'NONE',  ( 0.000000000000000000, 0.000000000000000000, 1.000000000000000000 ) ) ;
#351 = VECTOR ( 'NONE', #75, 1000.000000000000000 ) ;
#352 = CC_DESIGN_PERSON_AND_ORGANIZATION_ASSIGNMENT ( #318, #250, ( #296 ) ) ;
#353 = DIRECTION ( 'NONE',  ( 0.000000000000000000, 0.000000000000000000, 1.000000000000000000 ) ) ;
#354 = DIRECTION ( 'NONE',  ( 0.000000000000000000, 0.000000000000000000, -1.000000000000000000 ) ) ;
#355 = EDGE_CURVE ( 'NONE', #59, #163, #346, .T. ) ;
#356 = LINE ( 'NONE', #123, #255 ) ;
#357 = AXIS2_PLACEMENT_3D ( 'NONE', #349, #1, #259 ) ;
#358 =( NAMED_UNIT ( * ) PLANE_ANGLE_UNIT ( ) SI_UNIT ( $, .RADIAN. ) );
#359 = DESIGN_CONTEXT ( 'detailed design', #25, 'design' ) ;
#360 = AXIS2_PLACEMENT_3D ( 'NONE', #315, #145, #139 ) ;
#361 = PERSON ( 'NEURÈENÝ', 'NEURÈENÝ', 'NEURÈENÝ', ('NEURÈENÝ'), ('NEURÈENÝ'), ('NEURÈENÝ') ) ;
#362 = EDGE_CURVE ( 'NONE', #163, #8, #178, .T. ) ;
#363 = DIRECTION ( 'NONE',  ( -1.000000000000000000, 0.000000000000000000, 0.000000000000000000 ) ) ;
#364 = ORIENTED_EDGE ( 'NONE', *, *, #355, .F. ) ;
#365 = CARTESIAN_POINT ( 'NONE',  ( 0.000000000000000000, 0.000000000000000000, 5.000000000000000000 ) ) ;
#366 = ORIENTED_EDGE ( 'NONE', *, *, #180, .F. ) ;
#367 = CIRCLE ( 'NONE', #138, 3.100000000000000089 ) ;
#368 = ADVANCED_FACE ( 'NONE', ( #207 ), #121, .F. ) ;
#369 = ORIENTED_EDGE ( 'NONE', *, *, #264, .T. ) ;
#370 = APPROVAL_PERSON_ORGANIZATION ( #282, #312, #376 ) ;
#371 = APPROVAL_DATE_TIME ( #116, #239 ) ;
#372 = ORIENTED_EDGE ( 'NONE', *, *, #189, .T. ) ;
#373 = CALENDAR_DATE ( 2022, 10, 7 ) ;
#374 = DIRECTION ( 'NONE',  ( -0.000000000000000000, -0.000000000000000000, -1.000000000000000000 ) ) ;
#375 = AXIS2_PLACEMENT_3D ( 'NONE', #344, #85, #195 ) ;
#376 = APPROVAL_ROLE ( '' ) ;
#377 = ORIENTED_EDGE ( 'NONE', *, *, #33, .F. ) ;
#378 = CARTESIAN_POINT ( 'NONE',  ( 5.500000000000000000, 0.000000000000000000, 5.500000000000005329 ) ) ;
#379 = ORIENTED_EDGE ( 'NONE', *, *, #109, .F. ) ;
#380 = FACE_OUTER_BOUND ( 'NONE', #67, .T. ) ;
#381 = ADVANCED_FACE ( 'NONE', ( #188, #155 ), #127, .T. ) ;
ENDSEC;
END-ISO-10303-21;
