ISO-10303-21;
HEADER;
FILE_DESCRIPTION (( 'STEP AP203' ),
    '1' );
FILE_NAME ('be91.STEP',
    '2022-07-10T09:01:31',
    ( '' ),
    ( '' ),
    'SwSTEP 2.0',
    'SolidWorks 2019',
    '' );
FILE_SCHEMA (( 'CONFIG_CONTROL_DESIGN' ));
ENDSEC;

DATA;
#1 = AXIS2_PLACEMENT_3D ( 'NONE', #198, #352, #200 ) ;
#2 = DIRECTION ( 'NONE',  ( -1.000000000000000000, 0.000000000000000000, 0.000000000000000000 ) ) ;
#3 = DIRECTION ( 'NONE',  ( 0.000000000000000000, 0.000000000000000000, 1.000000000000000000 ) ) ;
#4 = CIRCLE ( 'NONE', #1, 5.000000000000000000 ) ;
#5 = FACE_OUTER_BOUND ( 'NONE', #247, .T. ) ;
#6 = CIRCLE ( 'NONE', #279, 11.00000000000000000 ) ;
#7 = CYLINDRICAL_SURFACE ( 'NONE', #265, 5.000000000000000000 ) ;
#8 = DIRECTION ( 'NONE',  ( 1.000000000000000000, 0.000000000000000000, 0.000000000000000000 ) ) ;
#9 = CLOSED_SHELL ( 'NONE', ( #111, #71, #90, #354, #233, #189, #321, #256, #266, #53, #168 ) ) ;
#10 = CARTESIAN_POINT ( 'NONE',  ( 11.00000000000000000, 1.347111479062088405E-15, 0.000000000000000000 ) ) ;
#11 = ORIENTED_EDGE ( 'NONE', *, *, #195, .F. ) ;
#12 = ADVANCED_BREP_SHAPE_REPRESENTATION ( 'be91', ( #16, #227 ), #30 ) ;
#13 = LINE ( 'NONE', #153, #300 ) ;
#14 = APPROVAL_PERSON_ORGANIZATION ( #218, #250, #165 ) ;
#15 = DIRECTION ( 'NONE',  ( 0.000000000000000000, 0.000000000000000000, -1.000000000000000000 ) ) ;
#16 = MANIFOLD_SOLID_BREP ( 'Odebrat vysunutím3', #9 ) ;
#17 = ORIENTED_EDGE ( 'NONE', *, *, #195, .T. ) ;
#18 = CC_DESIGN_PERSON_AND_ORGANIZATION_ASSIGNMENT ( #261, #169, ( #285 ) ) ;
#19 = LINE ( 'NONE', #307, #312 ) ;
#20 = ORIENTED_EDGE ( 'NONE', *, *, #104, .F. ) ;
#21 = CIRCLE ( 'NONE', #248, 7.700000000000001066 ) ;
#22 = ORIENTED_EDGE ( 'NONE', *, *, #147, .F. ) ;
#23 = APPROVAL_PERSON_ORGANIZATION ( #316, #334, #162 ) ;
#24 = COORDINATED_UNIVERSAL_TIME_OFFSET ( 1, 0, .AHEAD. ) ;
#25 = DIRECTION ( 'NONE',  ( 1.000000000000000000, 0.000000000000000000, 0.000000000000000000 ) ) ;
#26 = AXIS2_PLACEMENT_3D ( 'NONE', #377, #197, #320 ) ;
#27 = ORIENTED_EDGE ( 'NONE', *, *, #152, .F. ) ;
#28 = ORIENTED_EDGE ( 'NONE', *, *, #29, .F. ) ;
#29 = EDGE_CURVE ( 'NONE', #362, #51, #182, .T. ) ;
#30 =( GEOMETRIC_REPRESENTATION_CONTEXT ( 3 ) GLOBAL_UNCERTAINTY_ASSIGNED_CONTEXT ( ( #268 ) ) GLOBAL_UNIT_ASSIGNED_CONTEXT ( ( #340, #86, #310 ) ) REPRESENTATION_CONTEXT ( 'NONE', 'WORKASPACE' ) );
#31 = EDGE_CURVE ( 'NONE', #132, #282, #229, .T. ) ;
#32 = PERSON_AND_ORGANIZATION_ROLE ( 'design_supplier' ) ;
#33 = CARTESIAN_POINT ( 'NONE',  ( -7.000000000000000888, 0.000000000000000000, 107.0000000000000142 ) ) ;
#34 = CARTESIAN_POINT ( 'NONE',  ( 0.000000000000000000, 0.000000000000000000, 107.0000000000000142 ) ) ;
#35 = DIRECTION ( 'NONE',  ( 1.000000000000000000, 0.000000000000000000, 0.000000000000000000 ) ) ;
#36 = CARTESIAN_POINT ( 'NONE',  ( 0.000000000000000000, 0.000000000000000000, 107.0000000000000142 ) ) ;
#37 = AXIS2_PLACEMENT_3D ( 'NONE', #259, #375, #110 ) ;
#38 = CYLINDRICAL_SURFACE ( 'NONE', #276, 5.000000000000000000 ) ;
#39 = CC_DESIGN_DATE_AND_TIME_ASSIGNMENT ( #327, #292, ( #285 ) ) ;
#40 = PLANE ( 'NONE',  #166 ) ;
#41 = CARTESIAN_POINT ( 'NONE',  ( 0.000000000000000000, 0.000000000000000000, 0.000000000000000000 ) ) ;
#42 = AXIS2_PLACEMENT_3D ( 'NONE', #351, #96, #35 ) ;
#43 = DIRECTION ( 'NONE',  ( 0.000000000000000000, 0.000000000000000000, 1.000000000000000000 ) ) ;
#44 = VERTEX_POINT ( 'NONE', #318 ) ;
#45 = CARTESIAN_POINT ( 'NONE',  ( 0.000000000000000000, 0.000000000000000000, 7.000000000000000000 ) ) ;
#46 = FACE_OUTER_BOUND ( 'NONE', #350, .T. ) ;
#47 = CARTESIAN_POINT ( 'NONE',  ( 0.000000000000000000, 0.000000000000000000, 7.000000000000000000 ) ) ;
#48 = VERTEX_POINT ( 'NONE', #33 ) ;
#49 = COORDINATED_UNIVERSAL_TIME_OFFSET ( 1, 0, .AHEAD. ) ;
#50 = AXIS2_PLACEMENT_3D ( 'NONE', #151, #103, #368 ) ;
#51 = VERTEX_POINT ( 'NONE', #191 ) ;
#52 = DATE_AND_TIME ( #281, #280 ) ;
#53 = ADVANCED_FACE ( 'NONE', ( #138 ), #117, .F. ) ;
#54 = AXIS2_PLACEMENT_3D ( 'NONE', #106, #252, #55 ) ;
#55 = DIRECTION ( 'NONE',  ( 1.000000000000000000, 0.000000000000000000, 0.000000000000000000 ) ) ;
#56 = CARTESIAN_POINT ( 'NONE',  ( 0.000000000000000000, 0.000000000000000000, 0.000000000000000000 ) ) ;
#57 = FACE_OUTER_BOUND ( 'NONE', #129, .T. ) ;
#58 = DATE_AND_TIME ( #97, #306 ) ;
#59 = LINE ( 'NONE', #170, #185 ) ;
#60 = APPROVAL_PERSON_ORGANIZATION ( #322, #328, #288 ) ;
#61 = DIRECTION ( 'NONE',  ( -1.000000000000000000, 0.000000000000000000, 0.000000000000000000 ) ) ;
#62 = APPROVAL_DATE_TIME ( #58, #328 ) ;
#63 = DIRECTION ( 'NONE',  ( -0.000000000000000000, -0.000000000000000000, -1.000000000000000000 ) ) ;
#64 = EDGE_CURVE ( 'NONE', #282, #132, #349, .T. ) ;
#65 = DIRECTION ( 'NONE',  ( 1.000000000000000000, 0.000000000000000000, -0.000000000000000000 ) ) ;
#66 = DIRECTION ( 'NONE',  ( 1.000000000000000000, 0.000000000000000000, 0.000000000000000000 ) ) ;
#67 = EDGE_LOOP ( 'NONE', ( #22, #160 ) ) ;
#68 = DIRECTION ( 'NONE',  ( -1.000000000000000000, 0.000000000000000000, 0.000000000000000000 ) ) ;
#69 = EDGE_LOOP ( 'NONE', ( #135, #333, #343, #258 ) ) ;
#70 = AXIS2_PLACEMENT_3D ( 'NONE', #56, #81, #25 ) ;
#71 = ADVANCED_FACE ( 'NONE', ( #199 ), #295, .F. ) ;
#72 = DIRECTION ( 'NONE',  ( -1.000000000000000000, 0.000000000000000000, 0.000000000000000000 ) ) ;
#73 = ORIENTED_EDGE ( 'NONE', *, *, #367, .T. ) ;
#74 = DIRECTION ( 'NONE',  ( 1.000000000000000000, 0.000000000000000000, 0.000000000000000000 ) ) ;
#75 = ORIENTED_EDGE ( 'NONE', *, *, #64, .T. ) ;
#76 = CYLINDRICAL_SURFACE ( 'NONE', #291, 11.00000000000000000 ) ;
#77 = EDGE_LOOP ( 'NONE', ( #27, #11, #305, #298 ) ) ;
#78 = APPLICATION_CONTEXT ( 'configuration controlled 3d designs of mechanical parts and assemblies' ) ;
#79 = EDGE_LOOP ( 'NONE', ( #255, #107 ) ) ;
#80 = APPROVAL_STATUS ( 'not_yet_approved' ) ;
#81 = DIRECTION ( 'NONE',  ( 0.000000000000000000, 0.000000000000000000, 1.000000000000000000 ) ) ;
#82 = EDGE_LOOP ( 'NONE', ( #180, #287, #161, #370 ) ) ;
#83 = CC_DESIGN_PERSON_AND_ORGANIZATION_ASSIGNMENT ( #95, #32, ( #159 ) ) ;
#84 = AXIS2_PLACEMENT_3D ( 'NONE', #314, #118, #299 ) ;
#85 = ORIENTED_EDGE ( 'NONE', *, *, #154, .F. ) ;
#86 =( NAMED_UNIT ( * ) PLANE_ANGLE_UNIT ( ) SI_UNIT ( $, .RADIAN. ) );
#87 = ORIENTED_EDGE ( 'NONE', *, *, #211, .F. ) ;
#88 = AXIS2_PLACEMENT_3D ( 'NONE', #186, #273, #213 ) ;
#89 = FACE_OUTER_BOUND ( 'NONE', #69, .T. ) ;
#90 = ADVANCED_FACE ( 'NONE', ( #5 ), #231, .T. ) ;
#91 = LINE ( 'NONE', #324, #335 ) ;
#92 = APPROVAL_STATUS ( 'not_yet_approved' ) ;
#93 = DIRECTION ( 'NONE',  ( 0.000000000000000000, 0.000000000000000000, -1.000000000000000000 ) ) ;
#94 = LOCAL_TIME ( 11, 1, 31.00000000000000000, #355 ) ;
#95 = PERSON_AND_ORGANIZATION ( #193, #313 ) ;
#96 = DIRECTION ( 'NONE',  ( 0.000000000000000000, 0.000000000000000000, 1.000000000000000000 ) ) ;
#97 = CALENDAR_DATE ( 2022, 10, 7 ) ;
#98 = FACE_OUTER_BOUND ( 'NONE', #364, .T. ) ;
#99 = AXIS2_PLACEMENT_3D ( 'NONE', #122, #330, #66 ) ;
#100 = DIRECTION ( 'NONE',  ( -0.000000000000000000, -0.000000000000000000, -1.000000000000000000 ) ) ;
#101 = DIRECTION ( 'NONE',  ( -0.000000000000000000, -0.000000000000000000, -1.000000000000000000 ) ) ;
#102 = EDGE_LOOP ( 'NONE', ( #87, #216, #308, #210 ) ) ;
#103 = DIRECTION ( 'NONE',  ( 0.000000000000000000, 0.000000000000000000, 1.000000000000000000 ) ) ;
#104 = EDGE_CURVE ( 'NONE', #126, #239, #194, .T. ) ;
#105 = FACE_OUTER_BOUND ( 'NONE', #149, .T. ) ;
#106 = CARTESIAN_POINT ( 'NONE',  ( 0.000000000000000000, 0.000000000000000000, 7.699999999999998401 ) ) ;
#107 = ORIENTED_EDGE ( 'NONE', *, *, #225, .T. ) ;
#108 = APPLICATION_CONTEXT ( 'configuration controlled 3d designs of mechanical parts and assemblies' ) ;
#109 = LOCAL_TIME ( 11, 1, 31.00000000000000000, #24 ) ;
#110 = DIRECTION ( 'NONE',  ( 1.000000000000000000, 0.000000000000000000, 0.000000000000000000 ) ) ;
#111 = ADVANCED_FACE ( 'NONE', ( #89 ), #38, .F. ) ;
#112 = CC_DESIGN_DATE_AND_TIME_ASSIGNMENT ( #371, #376, ( #143 ) ) ;
#113 = EDGE_LOOP ( 'NONE', ( #17, #245 ) ) ;
#114 = CIRCLE ( 'NONE', #319, 5.000000000000000000 ) ;
#115 = AXIS2_PLACEMENT_3D ( 'NONE', #360, #240, #332 ) ;
#116 = CARTESIAN_POINT ( 'NONE',  ( 0.000000000000000000, 0.000000000000000000, 7.000000000000000000 ) ) ;
#117 = TOROIDAL_SURFACE ( 'NONE', #37, 7.700000000000001066, 0.6999999999999999556 ) ;
#118 = DIRECTION ( 'NONE',  ( 0.000000000000000000, 0.000000000000000000, 1.000000000000000000 ) ) ;
#119 = DIRECTION ( 'NONE',  ( 0.000000000000000000, 0.000000000000000000, -1.000000000000000000 ) ) ;
#120 = DIRECTION ( 'NONE',  ( -0.000000000000000000, -0.000000000000000000, -1.000000000000000000 ) ) ;
#121 = AXIS2_PLACEMENT_3D ( 'NONE', #116, #175, #290 ) ;
#122 = CARTESIAN_POINT ( 'NONE',  ( 0.000000000000000000, 0.000000000000000000, 0.000000000000000000 ) ) ;
#123 = AXIS2_PLACEMENT_3D ( 'NONE', #47, #120, #237 ) ;
#124 = CARTESIAN_POINT ( 'NONE',  ( -5.000000000000000000, 0.000000000000000000, 0.000000000000000000 ) ) ;
#125 = FACE_BOUND ( 'NONE', #188, .T. ) ;
#126 = VERTEX_POINT ( 'NONE', #353 ) ;
#127 = EDGE_CURVE ( 'NONE', #348, #336, #217, .T. ) ;
#128 = DIRECTION ( 'NONE',  ( 1.000000000000000000, 0.000000000000000000, 0.000000000000000000 ) ) ;
#129 = EDGE_LOOP ( 'NONE', ( #184, #272, #339, #219 ) ) ;
#130 = CIRCLE ( 'NONE', #88, 7.000000000000000888 ) ;
#131 = CALENDAR_DATE ( 2022, 10, 7 ) ;
#132 = VERTEX_POINT ( 'NONE', #202 ) ;
#133 = PRODUCT ( 'be91', 'be91', '', ( #317 ) ) ;
#134 = DIRECTION ( 'NONE',  ( 1.000000000000000000, 0.000000000000000000, 0.000000000000000000 ) ) ;
#135 = ORIENTED_EDGE ( 'NONE', *, *, #147, .T. ) ;
#136 = PERSON_AND_ORGANIZATION_ROLE ( 'design_owner' ) ;
#137 = ORIENTED_EDGE ( 'NONE', *, *, #178, .F. ) ;
#138 = FACE_OUTER_BOUND ( 'NONE', #82, .T. ) ;
#139 = DIRECTION ( 'NONE',  ( 0.000000000000000000, 0.000000000000000000, -1.000000000000000000 ) ) ;
#140 = CC_DESIGN_APPROVAL ( #334, ( #143 ) ) ;
#141 = SECURITY_CLASSIFICATION_LEVEL ( 'unclassified' ) ;
#142 = FACE_BOUND ( 'NONE', #79, .T. ) ;
#143 = PRODUCT_DEFINITION ( 'NEZNÁMÝ', '', #159, #177 ) ;
#144 = LINE ( 'NONE', #203, #171 ) ;
#145 = CIRCLE ( 'NONE', #369, 0.7000000000000000666 ) ;
#146 = CARTESIAN_POINT ( 'NONE',  ( 0.000000000000000000, 0.000000000000000000, 7.000000000000000000 ) ) ;
#147 = EDGE_CURVE ( 'NONE', #336, #348, #4, .T. ) ;
#148 = CARTESIAN_POINT ( 'NONE',  ( 5.000000000000000000, 6.123233995736765296E-16, 0.000000000000000000 ) ) ;
#149 = EDGE_LOOP ( 'NONE', ( #278, #347 ) ) ;
#150 = CARTESIAN_POINT ( 'NONE',  ( 11.00000000000000000, 1.347111479062088405E-15, 7.000000000000000000 ) ) ;
#151 = CARTESIAN_POINT ( 'NONE',  ( 0.000000000000000000, 0.000000000000000000, 107.0000000000000142 ) ) ;
#152 = EDGE_CURVE ( 'NONE', #362, #282, #91, .T. ) ;
#153 = CARTESIAN_POINT ( 'NONE',  ( -11.00000000000000000, 0.000000000000000000, 7.000000000000000000 ) ) ;
#154 = EDGE_CURVE ( 'NONE', #48, #303, #144, .T. ) ;
#155 = CARTESIAN_POINT ( 'NONE',  ( -7.700000000000001066, 9.429780353434621002E-16, 6.999999999999999112 ) ) ;
#156 = EDGE_LOOP ( 'NONE', ( #341, #164, #20, #137 ) ) ;
#157 = VECTOR ( 'NONE', #183, 1000.000000000000000 ) ;
#158 = DIRECTION ( 'NONE',  ( 1.000000000000000000, 0.000000000000000000, 0.000000000000000000 ) ) ;
#159 = PRODUCT_DEFINITION_FORMATION_WITH_SPECIFIED_SOURCE ( 'LIBOVOLNÝ', '', #133, .NOT_KNOWN. ) ;
#160 = ORIENTED_EDGE ( 'NONE', *, *, #127, .F. ) ;
#161 = ORIENTED_EDGE ( 'NONE', *, *, #178, .T. ) ;
#162 = APPROVAL_ROLE ( '' ) ;
#163 = PRODUCT_DEFINITION_SHAPE ( 'NONE', 'NONE',  #143 ) ;
#164 = ORIENTED_EDGE ( 'NONE', *, *, #223, .T. ) ;
#165 = APPROVAL_ROLE ( '' ) ;
#166 = AXIS2_PLACEMENT_3D ( 'NONE', #358, #329, #65 ) ;
#167 = CC_DESIGN_APPROVAL ( #250, ( #159 ) ) ;
#168 = ADVANCED_FACE ( 'NONE', ( #57 ), #7, .F. ) ;
#169 = PERSON_AND_ORGANIZATION_ROLE ( 'classification_officer' ) ;
#170 = CARTESIAN_POINT ( 'NONE',  ( -5.000000000000000000, 0.000000000000000000, 107.0000000000000142 ) ) ;
#171 = VECTOR ( 'NONE', #176, 1000.000000000000000 ) ;
#172 = EDGE_CURVE ( 'NONE', #336, #270, #59, .T. ) ;
#173 = CARTESIAN_POINT ( 'NONE',  ( 7.700000000000001066, 0.000000000000000000, 7.699999999999998401 ) ) ;
#174 = AXIS2_PLACEMENT_3D ( 'NONE', #230, #3, #323 ) ;
#175 = DIRECTION ( 'NONE',  ( -0.000000000000000000, -0.000000000000000000, -1.000000000000000000 ) ) ;
#176 = DIRECTION ( 'NONE',  ( -0.000000000000000000, -0.000000000000000000, -1.000000000000000000 ) ) ;
#177 = DESIGN_CONTEXT ( 'detailed design', #78, 'design' ) ;
#178 = EDGE_CURVE ( 'NONE', #44, #126, #220, .T. ) ;
#179 = CARTESIAN_POINT ( 'NONE',  ( -7.000000000000000888, 0.000000000000000000, 7.699999999999998401 ) ) ;
#180 = ORIENTED_EDGE ( 'NONE', *, *, #223, .F. ) ;
#181 = CARTESIAN_POINT ( 'NONE',  ( 0.000000000000000000, 0.000000000000000000, 107.0000000000000142 ) ) ;
#182 = CIRCLE ( 'NONE', #26, 11.00000000000000000 ) ;
#183 = DIRECTION ( 'NONE',  ( -0.000000000000000000, -0.000000000000000000, -1.000000000000000000 ) ) ;
#184 = ORIENTED_EDGE ( 'NONE', *, *, #297, .F. ) ;
#185 = VECTOR ( 'NONE', #119, 1000.000000000000000 ) ;
#186 = CARTESIAN_POINT ( 'NONE',  ( 0.000000000000000000, 0.000000000000000000, 7.699999999999998401 ) ) ;
#187 = DIRECTION ( 'NONE',  ( 1.000000000000000000, 0.000000000000000000, -0.000000000000000000 ) ) ;
#188 = EDGE_LOOP ( 'NONE', ( #275, #372 ) ) ;
#189 = ADVANCED_FACE ( 'NONE', ( #142, #262 ), #40, .T. ) ;
#190 = PERSON_AND_ORGANIZATION_ROLE ( 'creator' ) ;
#191 = CARTESIAN_POINT ( 'NONE',  ( -11.00000000000000000, 0.000000000000000000, 7.000000000000000000 ) ) ;
#192 = APPLICATION_PROTOCOL_DEFINITION ( 'international standard', 'config_control_design', 1994, #78 ) ;
#193 = PERSON ( 'NEURÈENÝ', 'NEURÈENÝ', 'NEURÈENÝ', ('NEURÈENÝ'), ('NEURÈENÝ'), ('NEURÈENÝ') ) ;
#194 = CIRCLE ( 'NONE', #121, 7.700000000000001066 ) ;
#195 = EDGE_CURVE ( 'NONE', #51, #362, #6, .T. ) ;
#196 = DIRECTION ( 'NONE',  ( 0.000000000000000000, 0.000000000000000000, 1.000000000000000000 ) ) ;
#197 = DIRECTION ( 'NONE',  ( 0.000000000000000000, 0.000000000000000000, 1.000000000000000000 ) ) ;
#198 = CARTESIAN_POINT ( 'NONE',  ( 0.000000000000000000, 0.000000000000000000, 107.0000000000000142 ) ) ;
#199 = FACE_OUTER_BOUND ( 'NONE', #156, .T. ) ;
#200 = DIRECTION ( 'NONE',  ( 1.000000000000000000, 0.000000000000000000, 0.000000000000000000 ) ) ;
#201 = CC_DESIGN_SECURITY_CLASSIFICATION ( #285, ( #159 ) ) ;
#202 = CARTESIAN_POINT ( 'NONE',  ( -11.00000000000000000, 0.000000000000000000, 0.000000000000000000 ) ) ;
#203 = CARTESIAN_POINT ( 'NONE',  ( -7.000000000000000888, 0.000000000000000000, 107.0000000000000142 ) ) ;
#204 = DIRECTION ( 'NONE',  ( 1.224646799147353207E-16, 1.000000000000000000, -0.000000000000000000 ) ) ;
#205 = CIRCLE ( 'NONE', #99, 5.000000000000000000 ) ;
#206 = AXIS2_PLACEMENT_3D ( 'NONE', #181, #100, #72 ) ;
#207 = DIRECTION ( 'NONE',  ( -1.000000000000000000, 1.224646799147351975E-16, 0.000000000000000000 ) ) ;
#208 = ORIENTED_EDGE ( 'NONE', *, *, #152, .T. ) ;
#209 = FACE_OUTER_BOUND ( 'NONE', #102, .T. ) ;
#210 = ORIENTED_EDGE ( 'NONE', *, *, #241, .T. ) ;
#211 = EDGE_CURVE ( 'NONE', #215, #44, #228, .T. ) ;
#212 = EDGE_CURVE ( 'NONE', #270, #226, #114, .T. ) ;
#213 = DIRECTION ( 'NONE',  ( 1.000000000000000000, 0.000000000000000000, 0.000000000000000000 ) ) ;
#214 = CARTESIAN_POINT ( 'NONE',  ( -5.000000000000000000, 0.000000000000000000, 107.0000000000000142 ) ) ;
#215 = VERTEX_POINT ( 'NONE', #271 ) ;
#216 = ORIENTED_EDGE ( 'NONE', *, *, #373, .F. ) ;
#217 = CIRCLE ( 'NONE', #42, 5.000000000000000000 ) ;
#218 = PERSON_AND_ORGANIZATION ( #193, #313 ) ;
#219 = ORIENTED_EDGE ( 'NONE', *, *, #212, .T. ) ;
#220 = CIRCLE ( 'NONE', #284, 0.7000000000000000666 ) ;
#221 = CIRCLE ( 'NONE', #115, 7.000000000000000888 ) ;
#222 = APPROVAL_STATUS ( 'not_yet_approved' ) ;
#223 = EDGE_CURVE ( 'NONE', #303, #239, #145, .T. ) ;
#224 = COORDINATED_UNIVERSAL_TIME_OFFSET ( 1, 0, .AHEAD. ) ;
#225 = EDGE_CURVE ( 'NONE', #239, #126, #21, .T. ) ;
#226 = VERTEX_POINT ( 'NONE', #148 ) ;
#227 = AXIS2_PLACEMENT_3D ( 'NONE', #374, #196, #158 ) ;
#228 = LINE ( 'NONE', #304, #157 ) ;
#229 = CIRCLE ( 'NONE', #70, 11.00000000000000000 ) ;
#230 = CARTESIAN_POINT ( 'NONE',  ( 0.000000000000000000, 0.000000000000000000, 7.699999999999998401 ) ) ;
#231 = CYLINDRICAL_SURFACE ( 'NONE', #365, 7.000000000000000888 ) ;
#232 = LOCAL_TIME ( 11, 1, 31.00000000000000000, #224 ) ;
#233 = ADVANCED_FACE ( 'NONE', ( #301 ), #76, .T. ) ;
#234 = COORDINATED_UNIVERSAL_TIME_OFFSET ( 1, 0, .AHEAD. ) ;
#235 = DIRECTION ( 'NONE',  ( 0.000000000000000000, -1.000000000000000000, 0.000000000000000000 ) ) ;
#236 = DIRECTION ( 'NONE',  ( -0.000000000000000000, -0.000000000000000000, -1.000000000000000000 ) ) ;
#237 = DIRECTION ( 'NONE',  ( -1.000000000000000000, 0.000000000000000000, 0.000000000000000000 ) ) ;
#238 = AXIS2_PLACEMENT_3D ( 'NONE', #302, #43, #187 ) ;
#239 = VERTEX_POINT ( 'NONE', #155 ) ;
#240 = DIRECTION ( 'NONE',  ( 0.000000000000000000, 0.000000000000000000, 1.000000000000000000 ) ) ;
#241 = EDGE_CURVE ( 'NONE', #303, #44, #130, .T. ) ;
#242 = ORIENTED_EDGE ( 'NONE', *, *, #367, .F. ) ;
#243 = CC_DESIGN_PERSON_AND_ORGANIZATION_ASSIGNMENT ( #296, #357, ( #159 ) ) ;
#244 = PLANE ( 'NONE',  #238 ) ;
#245 = ORIENTED_EDGE ( 'NONE', *, *, #29, .T. ) ;
#246 = PLANE ( 'NONE',  #50 ) ;
#247 = EDGE_LOOP ( 'NONE', ( #242, #289, #379, #85 ) ) ;
#248 = AXIS2_PLACEMENT_3D ( 'NONE', #45, #366, #128 ) ;
#249 = CIRCLE ( 'NONE', #54, 7.000000000000000888 ) ;
#250 = APPROVAL ( #80, 'NEURÈENÝ' ) ;
#251 = APPROVAL_DATE_TIME ( #52, #334 ) ;
#252 = DIRECTION ( 'NONE',  ( 0.000000000000000000, 0.000000000000000000, 1.000000000000000000 ) ) ;
#253 = DIRECTION ( 'NONE',  ( 0.000000000000000000, 0.000000000000000000, 1.000000000000000000 ) ) ;
#254 = APPLICATION_PROTOCOL_DEFINITION ( 'international standard', 'config_control_design', 1994, #108 ) ;
#255 = ORIENTED_EDGE ( 'NONE', *, *, #104, .T. ) ;
#256 = ADVANCED_FACE ( 'NONE', ( #209 ), #359, .T. ) ;
#257 = DATE_AND_TIME ( #286, #232 ) ;
#258 = ORIENTED_EDGE ( 'NONE', *, *, #172, .F. ) ;
#259 = CARTESIAN_POINT ( 'NONE',  ( 0.000000000000000000, 0.000000000000000000, 7.699999999999998401 ) ) ;
#260 = EDGE_CURVE ( 'NONE', #51, #132, #13, .T. ) ;
#261 = PERSON_AND_ORGANIZATION ( #193, #313 ) ;
#262 = FACE_OUTER_BOUND ( 'NONE', #113, .T. ) ;
#263 = PRODUCT_RELATED_PRODUCT_CATEGORY ( 'detail', '', ( #133 ) ) ;
#264 = DIRECTION ( 'NONE',  ( -0.000000000000000000, -0.000000000000000000, -1.000000000000000000 ) ) ;
#265 = AXIS2_PLACEMENT_3D ( 'NONE', #326, #139, #61 ) ;
#266 = ADVANCED_FACE ( 'NONE', ( #274, #98 ), #246, .T. ) ;
#267 = DIRECTION ( 'NONE',  ( 0.000000000000000000, 0.000000000000000000, 1.000000000000000000 ) ) ;
#268 = UNCERTAINTY_MEASURE_WITH_UNIT (LENGTH_MEASURE( 1.000000000000000082E-05 ), #340, 'distance_accuracy_value', 'NONE');
#269 = CARTESIAN_POINT ( 'NONE',  ( 0.000000000000000000, 0.000000000000000000, 7.000000000000000000 ) ) ;
#270 = VERTEX_POINT ( 'NONE', #124 ) ;
#271 = CARTESIAN_POINT ( 'NONE',  ( 7.000000000000000888, 8.572527594031474176E-16, 107.0000000000000142 ) ) ;
#272 = ORIENTED_EDGE ( 'NONE', *, *, #127, .T. ) ;
#273 = DIRECTION ( 'NONE',  ( 0.000000000000000000, 0.000000000000000000, 1.000000000000000000 ) ) ;
#274 = FACE_BOUND ( 'NONE', #67, .T. ) ;
#275 = ORIENTED_EDGE ( 'NONE', *, *, #212, .F. ) ;
#276 = AXIS2_PLACEMENT_3D ( 'NONE', #34, #93, #2 ) ;
#277 = CYLINDRICAL_SURFACE ( 'NONE', #123, 11.00000000000000000 ) ;
#278 = ORIENTED_EDGE ( 'NONE', *, *, #31, .F. ) ;
#279 = AXIS2_PLACEMENT_3D ( 'NONE', #146, #267, #8 ) ;
#280 = LOCAL_TIME ( 11, 1, 31.00000000000000000, #49 ) ;
#281 = CALENDAR_DATE ( 2022, 10, 7 ) ;
#282 = VERTEX_POINT ( 'NONE', #10 ) ;
#283 = ORIENTED_EDGE ( 'NONE', *, *, #260, .F. ) ;
#284 = AXIS2_PLACEMENT_3D ( 'NONE', #173, #235, #293 ) ;
#285 = SECURITY_CLASSIFICATION ( '', '', #141 ) ;
#286 = CALENDAR_DATE ( 2022, 10, 7 ) ;
#287 = ORIENTED_EDGE ( 'NONE', *, *, #380, .F. ) ;
#288 = APPROVAL_ROLE ( '' ) ;
#289 = ORIENTED_EDGE ( 'NONE', *, *, #211, .T. ) ;
#290 = DIRECTION ( 'NONE',  ( 1.000000000000000000, 0.000000000000000000, 0.000000000000000000 ) ) ;
#291 = AXIS2_PLACEMENT_3D ( 'NONE', #269, #331, #68 ) ;
#292 = DATE_TIME_ROLE ( 'classification_date' ) ;
#293 = DIRECTION ( 'NONE',  ( 0.000000000000000000, 0.000000000000000000, -1.000000000000000000 ) ) ;
#294 = EDGE_CURVE ( 'NONE', #226, #270, #205, .T. ) ;
#295 = TOROIDAL_SURFACE ( 'NONE', #174, 7.700000000000001066, 0.6999999999999999556 ) ;
#296 = PERSON_AND_ORGANIZATION ( #193, #313 ) ;
#297 = EDGE_CURVE ( 'NONE', #348, #226, #19, .T. ) ;
#298 = ORIENTED_EDGE ( 'NONE', *, *, #31, .T. ) ;
#299 = DIRECTION ( 'NONE',  ( 1.000000000000000000, 0.000000000000000000, 0.000000000000000000 ) ) ;
#300 = VECTOR ( 'NONE', #101, 1000.000000000000000 ) ;
#301 = FACE_OUTER_BOUND ( 'NONE', #77, .T. ) ;
#302 = CARTESIAN_POINT ( 'NONE',  ( 0.000000000000000000, 0.000000000000000000, 0.000000000000000000 ) ) ;
#303 = VERTEX_POINT ( 'NONE', #179 ) ;
#304 = CARTESIAN_POINT ( 'NONE',  ( 7.000000000000000888, 8.572527594031474176E-16, 107.0000000000000142 ) ) ;
#305 = ORIENTED_EDGE ( 'NONE', *, *, #260, .T. ) ;
#306 = LOCAL_TIME ( 11, 1, 31.00000000000000000, #234 ) ;
#307 = CARTESIAN_POINT ( 'NONE',  ( 5.000000000000000000, 6.123233995736765296E-16, 107.0000000000000142 ) ) ;
#308 = ORIENTED_EDGE ( 'NONE', *, *, #154, .T. ) ;
#309 = CARTESIAN_POINT ( 'NONE',  ( -7.700000000000001066, 9.429780353434621002E-16, 7.699999999999998401 ) ) ;
#310 =( NAMED_UNIT ( * ) SI_UNIT ( $, .STERADIAN. ) SOLID_ANGLE_UNIT ( ) );
#311 = ORIENTED_EDGE ( 'NONE', *, *, #373, .T. ) ;
#312 = VECTOR ( 'NONE', #15, 1000.000000000000000 ) ;
#313 = ORGANIZATION ( 'NEURÈENÝ', 'NEURÈENÝ', '' ) ;
#314 = CARTESIAN_POINT ( 'NONE',  ( 0.000000000000000000, 0.000000000000000000, 0.000000000000000000 ) ) ;
#315 = CC_DESIGN_PERSON_AND_ORGANIZATION_ASSIGNMENT ( #342, #136, ( #133 ) ) ;
#316 = PERSON_AND_ORGANIZATION ( #193, #313 ) ;
#317 = MECHANICAL_CONTEXT ( 'NONE', #108, 'mechanical' ) ;
#318 = CARTESIAN_POINT ( 'NONE',  ( 7.000000000000000888, 8.572527594031474176E-16, 7.699999999999998401 ) ) ;
#319 = AXIS2_PLACEMENT_3D ( 'NONE', #41, #236, #74 ) ;
#320 = DIRECTION ( 'NONE',  ( 1.000000000000000000, 0.000000000000000000, 0.000000000000000000 ) ) ;
#321 = ADVANCED_FACE ( 'NONE', ( #125, #105 ), #244, .F. ) ;
#322 = PERSON_AND_ORGANIZATION ( #193, #313 ) ;
#323 = DIRECTION ( 'NONE',  ( 1.000000000000000000, 0.000000000000000000, 0.000000000000000000 ) ) ;
#324 = CARTESIAN_POINT ( 'NONE',  ( 11.00000000000000000, 1.347111479062088405E-15, 7.000000000000000000 ) ) ;
#325 = SHAPE_DEFINITION_REPRESENTATION ( #163, #12 ) ;
#326 = CARTESIAN_POINT ( 'NONE',  ( 0.000000000000000000, 0.000000000000000000, 107.0000000000000142 ) ) ;
#327 = DATE_AND_TIME ( #381, #94 ) ;
#328 = APPROVAL ( #92, 'NEURÈENÝ' ) ;
#329 = DIRECTION ( 'NONE',  ( 0.000000000000000000, 0.000000000000000000, 1.000000000000000000 ) ) ;
#330 = DIRECTION ( 'NONE',  ( -0.000000000000000000, -0.000000000000000000, -1.000000000000000000 ) ) ;
#331 = DIRECTION ( 'NONE',  ( -0.000000000000000000, -0.000000000000000000, -1.000000000000000000 ) ) ;
#332 = DIRECTION ( 'NONE',  ( 1.000000000000000000, 0.000000000000000000, 0.000000000000000000 ) ) ;
#333 = ORIENTED_EDGE ( 'NONE', *, *, #297, .T. ) ;
#334 = APPROVAL ( #222, 'NEURÈENÝ' ) ;
#335 = VECTOR ( 'NONE', #264, 1000.000000000000000 ) ;
#336 = VERTEX_POINT ( 'NONE', #214 ) ;
#337 = CIRCLE ( 'NONE', #344, 7.000000000000000888 ) ;
#338 = CARTESIAN_POINT ( 'NONE',  ( 5.000000000000000000, 6.123233995736765296E-16, 107.0000000000000142 ) ) ;
#339 = ORIENTED_EDGE ( 'NONE', *, *, #172, .T. ) ;
#340 =( LENGTH_UNIT ( ) NAMED_UNIT ( * ) SI_UNIT ( .MILLI., .METRE. ) );
#341 = ORIENTED_EDGE ( 'NONE', *, *, #241, .F. ) ;
#342 = PERSON_AND_ORGANIZATION ( #193, #313 ) ;
#343 = ORIENTED_EDGE ( 'NONE', *, *, #294, .T. ) ;
#344 = AXIS2_PLACEMENT_3D ( 'NONE', #363, #253, #134 ) ;
#345 = CC_DESIGN_PERSON_AND_ORGANIZATION_ASSIGNMENT ( #346, #190, ( #143 ) ) ;
#346 = PERSON_AND_ORGANIZATION ( #193, #313 ) ;
#347 = ORIENTED_EDGE ( 'NONE', *, *, #64, .F. ) ;
#348 = VERTEX_POINT ( 'NONE', #338 ) ;
#349 = CIRCLE ( 'NONE', #84, 11.00000000000000000 ) ;
#350 = EDGE_LOOP ( 'NONE', ( #28, #208, #75, #283 ) ) ;
#351 = CARTESIAN_POINT ( 'NONE',  ( 0.000000000000000000, 0.000000000000000000, 107.0000000000000142 ) ) ;
#352 = DIRECTION ( 'NONE',  ( 0.000000000000000000, 0.000000000000000000, 1.000000000000000000 ) ) ;
#353 = CARTESIAN_POINT ( 'NONE',  ( 7.700000000000001066, 0.000000000000000000, 6.999999999999999112 ) ) ;
#354 = ADVANCED_FACE ( 'NONE', ( #46 ), #277, .T. ) ;
#355 = COORDINATED_UNIVERSAL_TIME_OFFSET ( 1, 0, .AHEAD. ) ;
#356 = DIRECTION ( 'NONE',  ( -1.000000000000000000, 0.000000000000000000, 0.000000000000000000 ) ) ;
#357 = PERSON_AND_ORGANIZATION_ROLE ( 'creator' ) ;
#358 = CARTESIAN_POINT ( 'NONE',  ( 0.000000000000000000, 0.000000000000000000, 7.000000000000000000 ) ) ;
#359 = CYLINDRICAL_SURFACE ( 'NONE', #206, 7.000000000000000888 ) ;
#360 = CARTESIAN_POINT ( 'NONE',  ( 0.000000000000000000, 0.000000000000000000, 107.0000000000000142 ) ) ;
#361 = CC_DESIGN_APPROVAL ( #328, ( #285 ) ) ;
#362 = VERTEX_POINT ( 'NONE', #150 ) ;
#363 = CARTESIAN_POINT ( 'NONE',  ( 0.000000000000000000, 0.000000000000000000, 107.0000000000000142 ) ) ;
#364 = EDGE_LOOP ( 'NONE', ( #311, #73 ) ) ;
#365 = AXIS2_PLACEMENT_3D ( 'NONE', #36, #63, #356 ) ;
#366 = DIRECTION ( 'NONE',  ( -0.000000000000000000, -0.000000000000000000, -1.000000000000000000 ) ) ;
#367 = EDGE_CURVE ( 'NONE', #215, #48, #221, .T. ) ;
#368 = DIRECTION ( 'NONE',  ( 1.000000000000000000, 0.000000000000000000, -0.000000000000000000 ) ) ;
#369 = AXIS2_PLACEMENT_3D ( 'NONE', #309, #204, #207 ) ;
#370 = ORIENTED_EDGE ( 'NONE', *, *, #225, .F. ) ;
#371 = DATE_AND_TIME ( #131, #109 ) ;
#372 = ORIENTED_EDGE ( 'NONE', *, *, #294, .F. ) ;
#373 = EDGE_CURVE ( 'NONE', #48, #215, #337, .T. ) ;
#374 = CARTESIAN_POINT ( 'NONE',  ( 0.000000000000000000, 0.000000000000000000, 0.000000000000000000 ) ) ;
#375 = DIRECTION ( 'NONE',  ( 0.000000000000000000, 0.000000000000000000, 1.000000000000000000 ) ) ;
#376 = DATE_TIME_ROLE ( 'creation_date' ) ;
#377 = CARTESIAN_POINT ( 'NONE',  ( 0.000000000000000000, 0.000000000000000000, 7.000000000000000000 ) ) ;
#378 = APPROVAL_DATE_TIME ( #257, #250 ) ;
#379 = ORIENTED_EDGE ( 'NONE', *, *, #380, .T. ) ;
#380 = EDGE_CURVE ( 'NONE', #44, #303, #249, .T. ) ;
#381 = CALENDAR_DATE ( 2022, 10, 7 ) ;
ENDSEC;
END-ISO-10303-21;
