ISO-10303-21;
HEADER;
FILE_DESCRIPTION (( 'STEP AP203' ),
    '1' );
FILE_NAME ('d5ba.STEP',
    '2022-07-10T09:11:44',
    ( '' ),
    ( '' ),
    'SwSTEP 2.0',
    'SolidWorks 2019',
    '' );
FILE_SCHEMA (( 'CONFIG_CONTROL_DESIGN' ));
ENDSEC;

DATA;
#1 = CALENDAR_DATE ( 2022, 10, 7 ) ;
#2 = DIRECTION ( 'NONE',  ( 1.000000000000000000, 0.000000000000000000, 0.000000000000000000 ) ) ;
#3 = CYLINDRICAL_SURFACE ( 'NONE', #159, 2.250000000000000000 ) ;
#4 = AXIS2_PLACEMENT_3D ( 'NONE', #26, #307, #77 ) ;
#5 = DATE_AND_TIME ( #1, #94 ) ;
#6 = DIRECTION ( 'NONE',  ( 0.000000000000000000, 0.000000000000000000, -1.000000000000000000 ) ) ;
#7 = CALENDAR_DATE ( 2022, 10, 7 ) ;
#8 = DIRECTION ( 'NONE',  ( 1.000000000000000000, 0.000000000000000000, 0.000000000000000000 ) ) ;
#9 = EDGE_CURVE ( 'NONE', #161, #256, #71, .T. ) ;
#10 = DIRECTION ( 'NONE',  ( -0.000000000000000000, -0.000000000000000000, -1.000000000000000000 ) ) ;
#11 = SECURITY_CLASSIFICATION ( '', '', #172 ) ;
#12 = PRODUCT ( 'd5ba', 'd5ba', '', ( #370 ) ) ;
#13 = CARTESIAN_POINT ( 'NONE',  ( -2.250000000000000000, 0.000000000000000000, 80.00000000000000000 ) ) ;
#14 = CC_DESIGN_PERSON_AND_ORGANIZATION_ASSIGNMENT ( #119, #323, ( #11 ) ) ;
#15 = EDGE_CURVE ( 'NONE', #256, #161, #236, .T. ) ;
#16 = DIRECTION ( 'NONE',  ( 1.000000000000000000, 0.000000000000000000, 0.000000000000000000 ) ) ;
#17 = DIRECTION ( 'NONE',  ( -0.000000000000000000, -0.000000000000000000, -1.000000000000000000 ) ) ;
#18 = CARTESIAN_POINT ( 'NONE',  ( -4.500000000000000888, 5.510910596163089556E-16, 5.500000000000005329 ) ) ;
#19 = EDGE_CURVE ( 'NONE', #84, #51, #376, .T. ) ;
#20 = VERTEX_POINT ( 'NONE', #201 ) ;
#21 = AXIS2_PLACEMENT_3D ( 'NONE', #82, #59, #199 ) ;
#22 = CIRCLE ( 'NONE', #192, 2.250000000000000000 ) ;
#23 = CARTESIAN_POINT ( 'NONE',  ( -7.000000000000000000, 0.000000000000000000, 0.000000000000000000 ) ) ;
#24 = ORIENTED_EDGE ( 'NONE', *, *, #365, .F. ) ;
#25 = CARTESIAN_POINT ( 'NONE',  ( 0.000000000000000000, 0.000000000000000000, 80.00000000000000000 ) ) ;
#26 = CARTESIAN_POINT ( 'NONE',  ( 0.000000000000000000, 0.000000000000000000, 5.000000000000000000 ) ) ;
#27 = VERTEX_POINT ( 'NONE', #142 ) ;
#28 = CIRCLE ( 'NONE', #320, 4.000000000000000000 ) ;
#29 = ORIENTED_EDGE ( 'NONE', *, *, #30, .F. ) ;
#30 = EDGE_CURVE ( 'NONE', #27, #283, #36, .T. ) ;
#31 = APPROVAL_STATUS ( 'not_yet_approved' ) ;
#32 = ORIENTED_EDGE ( 'NONE', *, *, #138, .F. ) ;
#33 = APPROVAL_ROLE ( '' ) ;
#34 = DIRECTION ( 'NONE',  ( 0.000000000000000000, 0.000000000000000000, 1.000000000000000000 ) ) ;
#35 = DATE_AND_TIME ( #234, #134 ) ;
#36 = CIRCLE ( 'NONE', #80, 7.000000000000000000 ) ;
#37 = CYLINDRICAL_SURFACE ( 'NONE', #122, 4.000000000000000000 ) ;
#38 = DATE_AND_TIME ( #295, #368 ) ;
#39 = DIRECTION ( 'NONE',  ( 0.000000000000000000, 0.000000000000000000, -1.000000000000000000 ) ) ;
#40 = VERTEX_POINT ( 'NONE', #113 ) ;
#41 = DIRECTION ( 'NONE',  ( 0.000000000000000000, 0.000000000000000000, 1.000000000000000000 ) ) ;
#42 = AXIS2_PLACEMENT_3D ( 'NONE', #241, #301, #153 ) ;
#43 = AXIS2_PLACEMENT_3D ( 'NONE', #127, #92, #305 ) ;
#44 = DIRECTION ( 'NONE',  ( -1.000000000000000000, 0.000000000000000000, 0.000000000000000000 ) ) ;
#45 = FACE_OUTER_BOUND ( 'NONE', #231, .T. ) ;
#46 = CIRCLE ( 'NONE', #354, 2.250000000000000000 ) ;
#47 = FACE_OUTER_BOUND ( 'NONE', #190, .T. ) ;
#48 = ORIENTED_EDGE ( 'NONE', *, *, #375, .F. ) ;
#49 = CC_DESIGN_PERSON_AND_ORGANIZATION_ASSIGNMENT ( #141, #83, ( #362 ) ) ;
#50 = APPLICATION_PROTOCOL_DEFINITION ( 'international standard', 'config_control_design', 1994, #250 ) ;
#51 = VERTEX_POINT ( 'NONE', #229 ) ;
#52 = MANIFOLD_SOLID_BREP ( 'Odebrat vysunutím3', #270 ) ;
#53 = EDGE_CURVE ( 'NONE', #256, #20, #328, .T. ) ;
#54 = AXIS2_PLACEMENT_3D ( 'NONE', #268, #34, #8 ) ;
#55 = ORIENTED_EDGE ( 'NONE', *, *, #375, .T. ) ;
#56 = ADVANCED_FACE ( 'NONE', ( #321 ), #37, .T. ) ;
#57 = EDGE_LOOP ( 'NONE', ( #351, #29 ) ) ;
#58 = AXIS2_PLACEMENT_3D ( 'NONE', #171, #293, #39 ) ;
#59 = DIRECTION ( 'NONE',  ( 0.000000000000000000, 0.000000000000000000, 1.000000000000000000 ) ) ;
#60 = EDGE_CURVE ( 'NONE', #107, #256, #292, .T. ) ;
#61 = PERSON_AND_ORGANIZATION ( #260, #144 ) ;
#62 = CARTESIAN_POINT ( 'NONE',  ( 0.000000000000000000, 0.000000000000000000, 80.00000000000000000 ) ) ;
#63 = DIRECTION ( 'NONE',  ( 1.000000000000000000, 0.000000000000000000, 0.000000000000000000 ) ) ;
#64 = COORDINATED_UNIVERSAL_TIME_OFFSET ( 1, 0, .AHEAD. ) ;
#65 = CARTESIAN_POINT ( 'NONE',  ( 0.000000000000000000, 0.000000000000000000, 80.00000000000000000 ) ) ;
#66 = ORIENTED_EDGE ( 'NONE', *, *, #121, .F. ) ;
#67 = CARTESIAN_POINT ( 'NONE',  ( 0.000000000000000000, 0.000000000000000000, 5.000000000000000000 ) ) ;
#68 = CARTESIAN_POINT ( 'NONE',  ( -7.000000000000000000, 0.000000000000000000, 5.000000000000000000 ) ) ;
#69 = PLANE ( 'NONE',  #89 ) ;
#70 = CARTESIAN_POINT ( 'NONE',  ( 0.000000000000000000, 0.000000000000000000, 5.000000000000000000 ) ) ;
#71 = CIRCLE ( 'NONE', #54, 4.000000000000000000 ) ;
#72 = AXIS2_PLACEMENT_3D ( 'NONE', #259, #143, #63 ) ;
#73 = DIRECTION ( 'NONE',  ( 0.000000000000000000, 0.000000000000000000, 1.000000000000000000 ) ) ;
#74 = PERSON_AND_ORGANIZATION ( #260, #144 ) ;
#75 = ORIENTED_EDGE ( 'NONE', *, *, #121, .T. ) ;
#76 = CIRCLE ( 'NONE', #200, 4.000000000000000000 ) ;
#77 = DIRECTION ( 'NONE',  ( 1.000000000000000000, 0.000000000000000000, -0.000000000000000000 ) ) ;
#78 = PERSON_AND_ORGANIZATION ( #260, #144 ) ;
#79 = ORIENTED_EDGE ( 'NONE', *, *, #198, .T. ) ;
#80 = AXIS2_PLACEMENT_3D ( 'NONE', #111, #262, #2 ) ;
#81 = APPROVAL_PERSON_ORGANIZATION ( #317, #302, #33 ) ;
#82 = CARTESIAN_POINT ( 'NONE',  ( 0.000000000000000000, 0.000000000000000000, 5.500000000000005329 ) ) ;
#83 = PERSON_AND_ORGANIZATION_ROLE ( 'design_supplier' ) ;
#84 = VERTEX_POINT ( 'NONE', #263 ) ;
#85 = PERSON_AND_ORGANIZATION_ROLE ( 'creator' ) ;
#86 = EDGE_LOOP ( 'NONE', ( #315, #133, #341, #196 ) ) ;
#87 = COORDINATED_UNIVERSAL_TIME_OFFSET ( 1, 0, .AHEAD. ) ;
#88 = EDGE_LOOP ( 'NONE', ( #288, #48 ) ) ;
#89 = AXIS2_PLACEMENT_3D ( 'NONE', #214, #41, #364 ) ;
#90 = DIRECTION ( 'NONE',  ( -0.000000000000000000, -0.000000000000000000, -1.000000000000000000 ) ) ;
#91 = CARTESIAN_POINT ( 'NONE',  ( 0.000000000000000000, 0.000000000000000000, 80.00000000000000000 ) ) ;
#92 = DIRECTION ( 'NONE',  ( -0.000000000000000000, -0.000000000000000000, -1.000000000000000000 ) ) ;
#93 = AXIS2_PLACEMENT_3D ( 'NONE', #18, #359, #355 ) ;
#94 = LOCAL_TIME ( 11, 11, 44.00000000000000000, #64 ) ;
#95 = FACE_OUTER_BOUND ( 'NONE', #115, .T. ) ;
#96 = EDGE_CURVE ( 'NONE', #203, #40, #145, .T. ) ;
#97 = FACE_OUTER_BOUND ( 'NONE', #286, .T. ) ;
#98 = DIRECTION ( 'NONE',  ( 0.000000000000000000, 0.000000000000000000, 1.000000000000000000 ) ) ;
#99 = ORIENTED_EDGE ( 'NONE', *, *, #30, .T. ) ;
#100 = CIRCLE ( 'NONE', #93, 0.5000000000000004441 ) ;
#101 = LOCAL_TIME ( 11, 11, 44.00000000000000000, #114 ) ;
#102 =( NAMED_UNIT ( * ) SI_UNIT ( $, .STERADIAN. ) SOLID_ANGLE_UNIT ( ) );
#103 = ORIENTED_EDGE ( 'NONE', *, *, #19, .T. ) ;
#104 = DIRECTION ( 'NONE',  ( 1.000000000000000000, 0.000000000000000000, 0.000000000000000000 ) ) ;
#105 = ADVANCED_FACE ( 'NONE', ( #227 ), #3, .F. ) ;
#106 = FACE_OUTER_BOUND ( 'NONE', #57, .T. ) ;
#107 = VERTEX_POINT ( 'NONE', #296 ) ;
#108 = CIRCLE ( 'NONE', #246, 7.000000000000000000 ) ;
#109 = PLANE ( 'NONE',  #4 ) ;
#110 = ORIENTED_EDGE ( 'NONE', *, *, #15, .T. ) ;
#111 = CARTESIAN_POINT ( 'NONE',  ( 0.000000000000000000, 0.000000000000000000, 0.000000000000000000 ) ) ;
#112 = APPROVAL_DATE_TIME ( #232, #210 ) ;
#113 = CARTESIAN_POINT ( 'NONE',  ( 2.250000000000000000, 2.755455298081544285E-16, 0.000000000000000000 ) ) ;
#114 = COORDINATED_UNIVERSAL_TIME_OFFSET ( 1, 0, .AHEAD. ) ;
#115 = EDGE_LOOP ( 'NONE', ( #32, #381, #337, #175 ) ) ;
#116 = PRODUCT_DEFINITION_SHAPE ( 'NONE', 'NONE',  #197 ) ;
#117 = DATE_AND_TIME ( #169, #218 ) ;
#118 = DIRECTION ( 'NONE',  ( 0.000000000000000000, 0.000000000000000000, -1.000000000000000000 ) ) ;
#119 = PERSON_AND_ORGANIZATION ( #260, #144 ) ;
#120 = DIRECTION ( 'NONE',  ( -0.000000000000000000, -0.000000000000000000, -1.000000000000000000 ) ) ;
#121 = EDGE_CURVE ( 'NONE', #84, #27, #205, .T. ) ;
#122 = AXIS2_PLACEMENT_3D ( 'NONE', #62, #120, #353 ) ;
#123 = APPROVAL_PERSON_ORGANIZATION ( #267, #356, #202 ) ;
#124 = DIRECTION ( 'NONE',  ( -0.000000000000000000, -0.000000000000000000, -1.000000000000000000 ) ) ;
#125 = AXIS2_PLACEMENT_3D ( 'NONE', #209, #10, #148 ) ;
#126 = CYLINDRICAL_SURFACE ( 'NONE', #226, 4.000000000000000000 ) ;
#127 = CARTESIAN_POINT ( 'NONE',  ( 0.000000000000000000, 0.000000000000000000, 0.000000000000000000 ) ) ;
#128 = CARTESIAN_POINT ( 'NONE',  ( -4.000000000000000000, 0.000000000000000000, 80.00000000000000000 ) ) ;
#129 = APPROVAL_PERSON_ORGANIZATION ( #78, #210, #261 ) ;
#130 = DIRECTION ( 'NONE',  ( -0.000000000000000000, -0.000000000000000000, -1.000000000000000000 ) ) ;
#131 =( NAMED_UNIT ( * ) PLANE_ANGLE_UNIT ( ) SI_UNIT ( $, .RADIAN. ) );
#132 = CARTESIAN_POINT ( 'NONE',  ( 0.000000000000000000, 0.000000000000000000, 5.500000000000005329 ) ) ;
#133 = ORIENTED_EDGE ( 'NONE', *, *, #181, .F. ) ;
#134 = LOCAL_TIME ( 11, 11, 44.00000000000000000, #258 ) ;
#135 = DIRECTION ( 'NONE',  ( 1.000000000000000000, 0.000000000000000000, 0.000000000000000000 ) ) ;
#136 = ORIENTED_EDGE ( 'NONE', *, *, #53, .F. ) ;
#137 = ORIENTED_EDGE ( 'NONE', *, *, #138, .T. ) ;
#138 = EDGE_CURVE ( 'NONE', #161, #371, #100, .T. ) ;
#139 = CIRCLE ( 'NONE', #173, 4.500000000000000888 ) ;
#140 = CC_DESIGN_PERSON_AND_ORGANIZATION_ASSIGNMENT ( #74, #189, ( #12 ) ) ;
#141 = PERSON_AND_ORGANIZATION ( #260, #144 ) ;
#142 = CARTESIAN_POINT ( 'NONE',  ( 7.000000000000000000, 8.572527594031473190E-16, 0.000000000000000000 ) ) ;
#143 = DIRECTION ( 'NONE',  ( 0.000000000000000000, 0.000000000000000000, 1.000000000000000000 ) ) ;
#144 = ORGANIZATION ( 'NEURÈENÝ', 'NEURÈENÝ', '' ) ;
#145 = LINE ( 'NONE', #345, #313 ) ;
#146 = PERSON_AND_ORGANIZATION ( #260, #144 ) ;
#147 = VERTEX_POINT ( 'NONE', #211 ) ;
#148 = DIRECTION ( 'NONE',  ( -1.000000000000000000, 0.000000000000000000, 0.000000000000000000 ) ) ;
#149 = TOROIDAL_SURFACE ( 'NONE', #42, 4.500000000000000888, 0.5000000000000000000 ) ;
#150 = CIRCLE ( 'NONE', #314, 2.250000000000000000 ) ;
#151 = FACE_OUTER_BOUND ( 'NONE', #378, .T. ) ;
#152 = LINE ( 'NONE', #273, #275 ) ;
#153 = DIRECTION ( 'NONE',  ( 1.000000000000000000, 0.000000000000000000, 0.000000000000000000 ) ) ;
#154 = CYLINDRICAL_SURFACE ( 'NONE', #125, 7.000000000000000000 ) ;
#155 = AXIS2_PLACEMENT_3D ( 'NONE', #366, #98, #279 ) ;
#156 = CYLINDRICAL_SURFACE ( 'NONE', #230, 2.250000000000000000 ) ;
#157 = EDGE_CURVE ( 'NONE', #283, #27, #318, .T. ) ;
#158 = ORIENTED_EDGE ( 'NONE', *, *, #240, .F. ) ;
#159 = AXIS2_PLACEMENT_3D ( 'NONE', #65, #118, #233 ) ;
#160 = CARTESIAN_POINT ( 'NONE',  ( 0.000000000000000000, 0.000000000000000000, 80.00000000000000000 ) ) ;
#161 = VERTEX_POINT ( 'NONE', #269 ) ;
#162 = ADVANCED_FACE ( 'NONE', ( #95 ), #149, .F. ) ;
#163 = DIRECTION ( 'NONE',  ( -0.000000000000000000, -0.000000000000000000, -1.000000000000000000 ) ) ;
#164 = ORIENTED_EDGE ( 'NONE', *, *, #360, .T. ) ;
#165 = ORIENTED_EDGE ( 'NONE', *, *, #198, .F. ) ;
#166 = CC_DESIGN_APPROVAL ( #356, ( #362 ) ) ;
#167 = APPROVAL_STATUS ( 'not_yet_approved' ) ;
#168 = ORIENTED_EDGE ( 'NONE', *, *, #193, .F. ) ;
#169 = CALENDAR_DATE ( 2022, 10, 7 ) ;
#170 = ORIENTED_EDGE ( 'NONE', *, *, #96, .T. ) ;
#171 = CARTESIAN_POINT ( 'NONE',  ( 4.500000000000000888, 0.000000000000000000, 5.500000000000005329 ) ) ;
#172 = SECURITY_CLASSIFICATION_LEVEL ( 'unclassified' ) ;
#173 = AXIS2_PLACEMENT_3D ( 'NONE', #333, #124, #182 ) ;
#174 = ORIENTED_EDGE ( 'NONE', *, *, #183, .T. ) ;
#175 = ORIENTED_EDGE ( 'NONE', *, *, #248, .F. ) ;
#176 = CC_DESIGN_PERSON_AND_ORGANIZATION_ASSIGNMENT ( #146, #346, ( #362 ) ) ;
#177 = CARTESIAN_POINT ( 'NONE',  ( 0.000000000000000000, 0.000000000000000000, 80.00000000000000000 ) ) ;
#178 = AXIS2_PLACEMENT_3D ( 'NONE', #132, #336, #244 ) ;
#179 = DIRECTION ( 'NONE',  ( 1.000000000000000000, 0.000000000000000000, 0.000000000000000000 ) ) ;
#180 = FACE_BOUND ( 'NONE', #88, .T. ) ;
#181 = EDGE_CURVE ( 'NONE', #223, #107, #76, .T. ) ;
#182 = DIRECTION ( 'NONE',  ( 1.000000000000000000, 0.000000000000000000, 0.000000000000000000 ) ) ;
#183 = EDGE_CURVE ( 'NONE', #147, #349, #213, .T. ) ;
#184 = DIRECTION ( 'NONE',  ( 0.000000000000000000, 0.000000000000000000, 1.000000000000000000 ) ) ;
#185 = TOROIDAL_SURFACE ( 'NONE', #178, 4.500000000000000888, 0.5000000000000000000 ) ;
#186 = DIRECTION ( 'NONE',  ( 0.000000000000000000, 0.000000000000000000, 1.000000000000000000 ) ) ;
#187 = ADVANCED_BREP_SHAPE_REPRESENTATION ( 'd5ba', ( #52, #155 ), #282 ) ;
#188 = ORIENTED_EDGE ( 'NONE', *, *, #360, .F. ) ;
#189 = PERSON_AND_ORGANIZATION_ROLE ( 'design_owner' ) ;
#190 = EDGE_LOOP ( 'NONE', ( #308, #55, #174, #251 ) ) ;
#191 = ORIENTED_EDGE ( 'NONE', *, *, #248, .T. ) ;
#192 = AXIS2_PLACEMENT_3D ( 'NONE', #281, #163, #135 ) ;
#193 = EDGE_CURVE ( 'NONE', #51, #283, #242, .T. ) ;
#194 = PLANE ( 'NONE',  #237 ) ;
#195 = FACE_BOUND ( 'NONE', #297, .T. ) ;
#196 = ORIENTED_EDGE ( 'NONE', *, *, #9, .T. ) ;
#197 = PRODUCT_DEFINITION ( 'NEZNÁMÝ', '', #362, #331 ) ;
#198 = EDGE_CURVE ( 'NONE', #20, #371, #265, .T. ) ;
#199 = DIRECTION ( 'NONE',  ( 1.000000000000000000, 0.000000000000000000, 0.000000000000000000 ) ) ;
#200 = AXIS2_PLACEMENT_3D ( 'NONE', #177, #243, #303 ) ;
#201 = CARTESIAN_POINT ( 'NONE',  ( 4.500000000000000888, 0.000000000000000000, 5.000000000000002665 ) ) ;
#202 = APPROVAL_ROLE ( '' ) ;
#203 = VERTEX_POINT ( 'NONE', #363 ) ;
#204 = APPROVAL_DATE_TIME ( #35, #302 ) ;
#205 = LINE ( 'NONE', #276, #217 ) ;
#206 = ADVANCED_FACE ( 'NONE', ( #180, #97 ), #69, .T. ) ;
#207 = CIRCLE ( 'NONE', #43, 2.250000000000000000 ) ;
#208 = DIRECTION ( 'NONE',  ( -0.000000000000000000, -0.000000000000000000, -1.000000000000000000 ) ) ;
#209 = CARTESIAN_POINT ( 'NONE',  ( 0.000000000000000000, 0.000000000000000000, 5.000000000000000000 ) ) ;
#210 = APPROVAL ( #167, 'NEURÈENÝ' ) ;
#211 = CARTESIAN_POINT ( 'NONE',  ( -2.250000000000000000, 0.000000000000000000, 80.00000000000000000 ) ) ;
#212 = AXIS2_PLACEMENT_3D ( 'NONE', #70, #239, #238 ) ;
#213 = LINE ( 'NONE', #13, #377 ) ;
#214 = CARTESIAN_POINT ( 'NONE',  ( 0.000000000000000000, 0.000000000000000000, 80.00000000000000000 ) ) ;
#215 = CYLINDRICAL_SURFACE ( 'NONE', #212, 7.000000000000000000 ) ;
#216 = FACE_OUTER_BOUND ( 'NONE', #374, .T. ) ;
#217 = VECTOR ( 'NONE', #130, 1000.000000000000000 ) ;
#218 = LOCAL_TIME ( 11, 11, 44.00000000000000000, #87 ) ;
#219 = ORIENTED_EDGE ( 'NONE', *, *, #181, .T. ) ;
#220 = CARTESIAN_POINT ( 'NONE',  ( -4.500000000000000888, 5.510910596163088569E-16, 5.000000000000002665 ) ) ;
#221 = ORIENTED_EDGE ( 'NONE', *, *, #19, .F. ) ;
#222 = FACE_BOUND ( 'NONE', #247, .T. ) ;
#223 = VERTEX_POINT ( 'NONE', #128 ) ;
#224 = CARTESIAN_POINT ( 'NONE',  ( 0.000000000000000000, 0.000000000000000000, 80.00000000000000000 ) ) ;
#225 = ADVANCED_FACE ( 'NONE', ( #151 ), #154, .T. ) ;
#226 = AXIS2_PLACEMENT_3D ( 'NONE', #91, #300, #44 ) ;
#227 = FACE_OUTER_BOUND ( 'NONE', #254, .T. ) ;
#228 = DATE_TIME_ROLE ( 'creation_date' ) ;
#229 = CARTESIAN_POINT ( 'NONE',  ( -7.000000000000000000, 0.000000000000000000, 5.000000000000000000 ) ) ;
#230 = AXIS2_PLACEMENT_3D ( 'NONE', #224, #277, #245 ) ;
#231 = EDGE_LOOP ( 'NONE', ( #66, #338, #235, #319 ) ) ;
#232 = DATE_AND_TIME ( #7, #101 ) ;
#233 = DIRECTION ( 'NONE',  ( -1.000000000000000000, 0.000000000000000000, 0.000000000000000000 ) ) ;
#234 = CALENDAR_DATE ( 2022, 10, 7 ) ;
#235 = ORIENTED_EDGE ( 'NONE', *, *, #193, .T. ) ;
#236 = CIRCLE ( 'NONE', #21, 4.000000000000000000 ) ;
#237 = AXIS2_PLACEMENT_3D ( 'NONE', #342, #310, #249 ) ;
#238 = DIRECTION ( 'NONE',  ( -1.000000000000000000, 0.000000000000000000, 0.000000000000000000 ) ) ;
#239 = DIRECTION ( 'NONE',  ( -0.000000000000000000, -0.000000000000000000, -1.000000000000000000 ) ) ;
#240 = EDGE_CURVE ( 'NONE', #349, #40, #207, .T. ) ;
#241 = CARTESIAN_POINT ( 'NONE',  ( 0.000000000000000000, 0.000000000000000000, 5.500000000000005329 ) ) ;
#242 = LINE ( 'NONE', #68, #304 ) ;
#243 = DIRECTION ( 'NONE',  ( 0.000000000000000000, 0.000000000000000000, 1.000000000000000000 ) ) ;
#244 = DIRECTION ( 'NONE',  ( 1.000000000000000000, 0.000000000000000000, 0.000000000000000000 ) ) ;
#245 = DIRECTION ( 'NONE',  ( -1.000000000000000000, 0.000000000000000000, 0.000000000000000000 ) ) ;
#246 = AXIS2_PLACEMENT_3D ( 'NONE', #67, #271, #179 ) ;
#247 = EDGE_LOOP ( 'NONE', ( #79, #191 ) ) ;
#248 = EDGE_CURVE ( 'NONE', #371, #20, #139, .T. ) ;
#249 = DIRECTION ( 'NONE',  ( 1.000000000000000000, 0.000000000000000000, -0.000000000000000000 ) ) ;
#250 = APPLICATION_CONTEXT ( 'configuration controlled 3d designs of mechanical parts and assemblies' ) ;
#251 = ORIENTED_EDGE ( 'NONE', *, *, #240, .T. ) ;
#252 = DIRECTION ( 'NONE',  ( 0.000000000000000000, 0.000000000000000000, 1.000000000000000000 ) ) ;
#253 = ADVANCED_FACE ( 'NONE', ( #45 ), #215, .T. ) ;
#254 = EDGE_LOOP ( 'NONE', ( #324, #170, #343, #347 ) ) ;
#255 = CARTESIAN_POINT ( 'NONE',  ( 0.000000000000000000, 0.000000000000000000, 80.00000000000000000 ) ) ;
#256 = VERTEX_POINT ( 'NONE', #326 ) ;
#257 = AXIS2_PLACEMENT_3D ( 'NONE', #274, #17, #334 ) ;
#258 = COORDINATED_UNIVERSAL_TIME_OFFSET ( 1, 0, .AHEAD. ) ;
#259 = CARTESIAN_POINT ( 'NONE',  ( 0.000000000000000000, 0.000000000000000000, 5.000000000000000000 ) ) ;
#260 = PERSON ( 'NEURÈENÝ', 'NEURÈENÝ', 'NEURÈENÝ', ('NEURÈENÝ'), ('NEURÈENÝ'), ('NEURÈENÝ') ) ;
#261 = APPROVAL_ROLE ( '' ) ;
#262 = DIRECTION ( 'NONE',  ( 0.000000000000000000, 0.000000000000000000, 1.000000000000000000 ) ) ;
#263 = CARTESIAN_POINT ( 'NONE',  ( 7.000000000000000000, 8.572527594031473190E-16, 5.000000000000000000 ) ) ;
#264 = PRODUCT_RELATED_PRODUCT_CATEGORY ( 'detail', '', ( #12 ) ) ;
#265 = CIRCLE ( 'NONE', #257, 4.500000000000000888 ) ;
#266 = CARTESIAN_POINT ( 'NONE',  ( 4.000000000000000000, 4.898587196589412829E-16, 80.00000000000000000 ) ) ;
#267 = PERSON_AND_ORGANIZATION ( #260, #144 ) ;
#268 = CARTESIAN_POINT ( 'NONE',  ( 0.000000000000000000, 0.000000000000000000, 5.500000000000005329 ) ) ;
#269 = CARTESIAN_POINT ( 'NONE',  ( -4.000000000000000000, 0.000000000000000000, 5.500000000000005329 ) ) ;
#270 = CLOSED_SHELL ( 'NONE', ( #105, #294, #278, #225, #253, #332, #309, #56, #206, #162, #367 ) ) ;
#271 = DIRECTION ( 'NONE',  ( 0.000000000000000000, 0.000000000000000000, 1.000000000000000000 ) ) ;
#272 = EDGE_CURVE ( 'NONE', #51, #84, #108, .T. ) ;
#273 = CARTESIAN_POINT ( 'NONE',  ( -4.000000000000000000, 0.000000000000000000, 80.00000000000000000 ) ) ;
#274 = CARTESIAN_POINT ( 'NONE',  ( 0.000000000000000000, 0.000000000000000000, 5.000000000000000000 ) ) ;
#275 = VECTOR ( 'NONE', #330, 1000.000000000000000 ) ;
#276 = CARTESIAN_POINT ( 'NONE',  ( 7.000000000000000000, 8.572527594031473190E-16, 5.000000000000000000 ) ) ;
#277 = DIRECTION ( 'NONE',  ( 0.000000000000000000, 0.000000000000000000, -1.000000000000000000 ) ) ;
#278 = ADVANCED_FACE ( 'NONE', ( #357 ), #126, .T. ) ;
#279 = DIRECTION ( 'NONE',  ( 1.000000000000000000, 0.000000000000000000, 0.000000000000000000 ) ) ;
#280 = EDGE_CURVE ( 'NONE', #223, #161, #152, .T. ) ;
#281 = CARTESIAN_POINT ( 'NONE',  ( 0.000000000000000000, 0.000000000000000000, 0.000000000000000000 ) ) ;
#282 =( GEOMETRIC_REPRESENTATION_CONTEXT ( 3 ) GLOBAL_UNCERTAINTY_ASSIGNED_CONTEXT ( ( #358 ) ) GLOBAL_UNIT_ASSIGNED_CONTEXT ( ( #287, #131, #102 ) ) REPRESENTATION_CONTEXT ( 'NONE', 'WORKASPACE' ) );
#283 = VERTEX_POINT ( 'NONE', #23 ) ;
#284 = EDGE_CURVE ( 'NONE', #147, #203, #46, .T. ) ;
#285 = DIRECTION ( 'NONE',  ( 1.000000000000000000, 0.000000000000000000, 0.000000000000000000 ) ) ;
#286 = EDGE_LOOP ( 'NONE', ( #219, #164 ) ) ;
#287 =( LENGTH_UNIT ( ) NAMED_UNIT ( * ) SI_UNIT ( .MILLI., .METRE. ) );
#288 = ORIENTED_EDGE ( 'NONE', *, *, #284, .F. ) ;
#289 = CC_DESIGN_APPROVAL ( #210, ( #197 ) ) ;
#290 = ORIENTED_EDGE ( 'NONE', *, *, #9, .F. ) ;
#291 = DATE_TIME_ROLE ( 'classification_date' ) ;
#292 = LINE ( 'NONE', #266, #335 ) ;
#293 = DIRECTION ( 'NONE',  ( 0.000000000000000000, -1.000000000000000000, 0.000000000000000000 ) ) ;
#294 = ADVANCED_FACE ( 'NONE', ( #216 ), #185, .F. ) ;
#295 = CALENDAR_DATE ( 2022, 10, 7 ) ;
#296 = CARTESIAN_POINT ( 'NONE',  ( 4.000000000000000000, 4.898587196589412829E-16, 80.00000000000000000 ) ) ;
#297 = EDGE_LOOP ( 'NONE', ( #158, #24 ) ) ;
#298 = CARTESIAN_POINT ( 'NONE',  ( 0.000000000000000000, 0.000000000000000000, 0.000000000000000000 ) ) ;
#299 = CC_DESIGN_APPROVAL ( #302, ( #11 ) ) ;
#300 = DIRECTION ( 'NONE',  ( -0.000000000000000000, -0.000000000000000000, -1.000000000000000000 ) ) ;
#301 = DIRECTION ( 'NONE',  ( 0.000000000000000000, 0.000000000000000000, 1.000000000000000000 ) ) ;
#302 = APPROVAL ( #379, 'NEURÈENÝ' ) ;
#303 = DIRECTION ( 'NONE',  ( 1.000000000000000000, 0.000000000000000000, 0.000000000000000000 ) ) ;
#304 = VECTOR ( 'NONE', #90, 1000.000000000000000 ) ;
#305 = DIRECTION ( 'NONE',  ( 1.000000000000000000, 0.000000000000000000, 0.000000000000000000 ) ) ;
#306 = CC_DESIGN_DATE_AND_TIME_ASSIGNMENT ( #5, #228, ( #197 ) ) ;
#307 = DIRECTION ( 'NONE',  ( 0.000000000000000000, 0.000000000000000000, 1.000000000000000000 ) ) ;
#308 = ORIENTED_EDGE ( 'NONE', *, *, #96, .F. ) ;
#309 = ADVANCED_FACE ( 'NONE', ( #195, #106 ), #194, .F. ) ;
#310 = DIRECTION ( 'NONE',  ( 0.000000000000000000, 0.000000000000000000, 1.000000000000000000 ) ) ;
#311 = EDGE_LOOP ( 'NONE', ( #188, #316, #110, #325 ) ) ;
#312 = CARTESIAN_POINT ( 'NONE',  ( -2.250000000000000000, 0.000000000000000000, 0.000000000000000000 ) ) ;
#313 = VECTOR ( 'NONE', #6, 1000.000000000000000 ) ;
#314 = AXIS2_PLACEMENT_3D ( 'NONE', #25, #73, #104 ) ;
#315 = ORIENTED_EDGE ( 'NONE', *, *, #60, .F. ) ;
#316 = ORIENTED_EDGE ( 'NONE', *, *, #60, .T. ) ;
#317 = PERSON_AND_ORGANIZATION ( #260, #144 ) ;
#318 = CIRCLE ( 'NONE', #361, 7.000000000000000000 ) ;
#319 = ORIENTED_EDGE ( 'NONE', *, *, #157, .T. ) ;
#320 = AXIS2_PLACEMENT_3D ( 'NONE', #255, #252, #373 ) ;
#321 = FACE_OUTER_BOUND ( 'NONE', #86, .T. ) ;
#322 = EDGE_LOOP ( 'NONE', ( #339, #103 ) ) ;
#323 = PERSON_AND_ORGANIZATION_ROLE ( 'classification_officer' ) ;
#324 = ORIENTED_EDGE ( 'NONE', *, *, #284, .T. ) ;
#325 = ORIENTED_EDGE ( 'NONE', *, *, #280, .F. ) ;
#326 = CARTESIAN_POINT ( 'NONE',  ( 4.000000000000000000, 4.898587196589412829E-16, 5.500000000000005329 ) ) ;
#327 = DIRECTION ( 'NONE',  ( 0.000000000000000000, 0.000000000000000000, -1.000000000000000000 ) ) ;
#328 = CIRCLE ( 'NONE', #58, 0.5000000000000004441 ) ;
#329 = CC_DESIGN_DATE_AND_TIME_ASSIGNMENT ( #117, #291, ( #11 ) ) ;
#330 = DIRECTION ( 'NONE',  ( -0.000000000000000000, -0.000000000000000000, -1.000000000000000000 ) ) ;
#331 = DESIGN_CONTEXT ( 'detailed design', #250, 'design' ) ;
#332 = ADVANCED_FACE ( 'NONE', ( #222, #340 ), #109, .T. ) ;
#333 = CARTESIAN_POINT ( 'NONE',  ( 0.000000000000000000, 0.000000000000000000, 5.000000000000000000 ) ) ;
#334 = DIRECTION ( 'NONE',  ( 1.000000000000000000, 0.000000000000000000, 0.000000000000000000 ) ) ;
#335 = VECTOR ( 'NONE', #208, 1000.000000000000000 ) ;
#336 = DIRECTION ( 'NONE',  ( 0.000000000000000000, 0.000000000000000000, 1.000000000000000000 ) ) ;
#337 = ORIENTED_EDGE ( 'NONE', *, *, #53, .T. ) ;
#338 = ORIENTED_EDGE ( 'NONE', *, *, #272, .F. ) ;
#339 = ORIENTED_EDGE ( 'NONE', *, *, #272, .T. ) ;
#340 = FACE_OUTER_BOUND ( 'NONE', #322, .T. ) ;
#341 = ORIENTED_EDGE ( 'NONE', *, *, #280, .T. ) ;
#342 = CARTESIAN_POINT ( 'NONE',  ( 0.000000000000000000, 0.000000000000000000, 0.000000000000000000 ) ) ;
#343 = ORIENTED_EDGE ( 'NONE', *, *, #365, .T. ) ;
#344 = COORDINATED_UNIVERSAL_TIME_OFFSET ( 1, 0, .AHEAD. ) ;
#345 = CARTESIAN_POINT ( 'NONE',  ( 2.250000000000000000, 2.755455298081544285E-16, 80.00000000000000000 ) ) ;
#346 = PERSON_AND_ORGANIZATION_ROLE ( 'creator' ) ;
#347 = ORIENTED_EDGE ( 'NONE', *, *, #183, .F. ) ;
#348 = CC_DESIGN_SECURITY_CLASSIFICATION ( #11, ( #362 ) ) ;
#349 = VERTEX_POINT ( 'NONE', #312 ) ;
#350 = APPROVAL_DATE_TIME ( #38, #356 ) ;
#351 = ORIENTED_EDGE ( 'NONE', *, *, #157, .F. ) ;
#352 = SHAPE_DEFINITION_REPRESENTATION ( #116, #187 ) ;
#353 = DIRECTION ( 'NONE',  ( -1.000000000000000000, 0.000000000000000000, 0.000000000000000000 ) ) ;
#354 = AXIS2_PLACEMENT_3D ( 'NONE', #160, #186, #285 ) ;
#355 = DIRECTION ( 'NONE',  ( -1.000000000000000000, 1.224646799147351482E-16, 0.000000000000000000 ) ) ;
#356 = APPROVAL ( #31, 'NEURÈENÝ' ) ;
#357 = FACE_OUTER_BOUND ( 'NONE', #311, .T. ) ;
#358 = UNCERTAINTY_MEASURE_WITH_UNIT (LENGTH_MEASURE( 1.000000000000000082E-05 ), #287, 'distance_accuracy_value', 'NONE');
#359 = DIRECTION ( 'NONE',  ( 1.224646799147353207E-16, 1.000000000000000000, -0.000000000000000000 ) ) ;
#360 = EDGE_CURVE ( 'NONE', #107, #223, #28, .T. ) ;
#361 = AXIS2_PLACEMENT_3D ( 'NONE', #298, #184, #16 ) ;
#362 = PRODUCT_DEFINITION_FORMATION_WITH_SPECIFIED_SOURCE ( 'LIBOVOLNÝ', '', #12, .NOT_KNOWN. ) ;
#363 = CARTESIAN_POINT ( 'NONE',  ( 2.250000000000000000, 2.755455298081544285E-16, 80.00000000000000000 ) ) ;
#364 = DIRECTION ( 'NONE',  ( 1.000000000000000000, 0.000000000000000000, -0.000000000000000000 ) ) ;
#365 = EDGE_CURVE ( 'NONE', #40, #349, #22, .T. ) ;
#366 = CARTESIAN_POINT ( 'NONE',  ( 0.000000000000000000, 0.000000000000000000, 0.000000000000000000 ) ) ;
#367 = ADVANCED_FACE ( 'NONE', ( #47 ), #156, .F. ) ;
#368 = LOCAL_TIME ( 11, 11, 44.00000000000000000, #344 ) ;
#369 = APPLICATION_PROTOCOL_DEFINITION ( 'international standard', 'config_control_design', 1994, #372 ) ;
#370 = MECHANICAL_CONTEXT ( 'NONE', #372, 'mechanical' ) ;
#371 = VERTEX_POINT ( 'NONE', #220 ) ;
#372 = APPLICATION_CONTEXT ( 'configuration controlled 3d designs of mechanical parts and assemblies' ) ;
#373 = DIRECTION ( 'NONE',  ( 1.000000000000000000, 0.000000000000000000, 0.000000000000000000 ) ) ;
#374 = EDGE_LOOP ( 'NONE', ( #290, #137, #165, #136 ) ) ;
#375 = EDGE_CURVE ( 'NONE', #203, #147, #150, .T. ) ;
#376 = CIRCLE ( 'NONE', #72, 7.000000000000000000 ) ;
#377 = VECTOR ( 'NONE', #327, 1000.000000000000000 ) ;
#378 = EDGE_LOOP ( 'NONE', ( #221, #75, #99, #168 ) ) ;
#379 = APPROVAL_STATUS ( 'not_yet_approved' ) ;
#380 = CC_DESIGN_PERSON_AND_ORGANIZATION_ASSIGNMENT ( #61, #85, ( #197 ) ) ;
#381 = ORIENTED_EDGE ( 'NONE', *, *, #15, .F. ) ;
ENDSEC;
END-ISO-10303-21;
