ISO-10303-21;
HEADER;
FILE_DESCRIPTION (( 'STEP AP203' ),
    '1' );
FILE_NAME ('7592.STEP',
    '2022-07-10T09:05:22',
    ( '' ),
    ( '' ),
    'SwSTEP 2.0',
    'SolidWorks 2019',
    '' );
FILE_SCHEMA (( 'CONFIG_CONTROL_DESIGN' ));
ENDSEC;

DATA;
#1 = CARTESIAN_POINT ( 'NONE',  ( 0.000000000000000000, 0.000000000000000000, 5.000000000000000000 ) ) ;
#2 = DIRECTION ( 'NONE',  ( 0.000000000000000000, 0.000000000000000000, -1.000000000000000000 ) ) ;
#3 = FACE_OUTER_BOUND ( 'NONE', #283, .T. ) ;
#4 = ORIENTED_EDGE ( 'NONE', *, *, #72, .F. ) ;
#5 = AXIS2_PLACEMENT_3D ( 'NONE', #19, #272, #251 ) ;
#6 = CC_DESIGN_SECURITY_CLASSIFICATION ( #243, ( #94 ) ) ;
#7 = ADVANCED_FACE ( 'NONE', ( #152 ), #60, .T. ) ;
#8 = VERTEX_POINT ( 'NONE', #264 ) ;
#9 = DIRECTION ( 'NONE',  ( 1.000000000000000000, 0.000000000000000000, 0.000000000000000000 ) ) ;
#10 =( LENGTH_UNIT ( ) NAMED_UNIT ( * ) SI_UNIT ( .MILLI., .METRE. ) );
#11 = DIRECTION ( 'NONE',  ( 0.000000000000000000, 0.000000000000000000, 1.000000000000000000 ) ) ;
#12 = APPLICATION_PROTOCOL_DEFINITION ( 'international standard', 'config_control_design', 1994, #238 ) ;
#13 = EDGE_CURVE ( 'NONE', #209, #263, #237, .T. ) ;
#14 = DATE_AND_TIME ( #339, #374 ) ;
#15 = CIRCLE ( 'NONE', #341, 3.100000000000000089 ) ;
#16 = PRODUCT_DEFINITION_SHAPE ( 'NONE', 'NONE',  #166 ) ;
#17 = COORDINATED_UNIVERSAL_TIME_OFFSET ( 1, 0, .AHEAD. ) ;
#18 = CALENDAR_DATE ( 2022, 10, 7 ) ;
#19 = CARTESIAN_POINT ( 'NONE',  ( 0.000000000000000000, 0.000000000000000000, 155.0000000000000000 ) ) ;
#20 = MANIFOLD_SOLID_BREP ( 'Odebrat vysunutím3', #30 ) ;
#21 = VERTEX_POINT ( 'NONE', #212 ) ;
#22 = CIRCLE ( 'NONE', #62, 5.000000000000000000 ) ;
#23 = CARTESIAN_POINT ( 'NONE',  ( 0.000000000000000000, 0.000000000000000000, 5.000000000000000000 ) ) ;
#24 = AXIS2_PLACEMENT_3D ( 'NONE', #23, #144, #255 ) ;
#25 = ORIENTED_EDGE ( 'NONE', *, *, #13, .F. ) ;
#26 = CARTESIAN_POINT ( 'NONE',  ( 0.000000000000000000, 0.000000000000000000, 155.0000000000000000 ) ) ;
#27 = ORIENTED_EDGE ( 'NONE', *, *, #145, .T. ) ;
#28 = CC_DESIGN_PERSON_AND_ORGANIZATION_ASSIGNMENT ( #163, #191, ( #166 ) ) ;
#29 = FACE_OUTER_BOUND ( 'NONE', #298, .T. ) ;
#30 = CLOSED_SHELL ( 'NONE', ( #223, #343, #7, #110, #330, #244, #47, #380, #309, #268, #127 ) ) ;
#31 = LOCAL_TIME ( 11, 5, 22.00000000000000000, #49 ) ;
#32 = DIRECTION ( 'NONE',  ( 0.000000000000000000, 0.000000000000000000, 1.000000000000000000 ) ) ;
#33 = DIRECTION ( 'NONE',  ( -1.000000000000000000, 0.000000000000000000, 0.000000000000000000 ) ) ;
#34 = DIRECTION ( 'NONE',  ( 0.000000000000000000, 0.000000000000000000, 1.000000000000000000 ) ) ;
#35 = ORIENTED_EDGE ( 'NONE', *, *, #207, .T. ) ;
#36 = DIRECTION ( 'NONE',  ( 0.000000000000000000, 0.000000000000000000, 1.000000000000000000 ) ) ;
#37 = AXIS2_PLACEMENT_3D ( 'NONE', #98, #267, #39 ) ;
#38 = PERSON ( 'NEURÈENÝ', 'NEURÈENÝ', 'NEURÈENÝ', ('NEURÈENÝ'), ('NEURÈENÝ'), ('NEURÈENÝ') ) ;
#39 = DIRECTION ( 'NONE',  ( -1.000000000000000000, 0.000000000000000000, 0.000000000000000000 ) ) ;
#40 = ORIENTED_EDGE ( 'NONE', *, *, #181, .T. ) ;
#41 = FACE_OUTER_BOUND ( 'NONE', #83, .T. ) ;
#42 = EDGE_CURVE ( 'NONE', #275, #290, #124, .T. ) ;
#43 = CIRCLE ( 'NONE', #143, 3.100000000000000089 ) ;
#44 = ORIENTED_EDGE ( 'NONE', *, *, #89, .F. ) ;
#45 = DIRECTION ( 'NONE',  ( 1.000000000000000000, 0.000000000000000000, 0.000000000000000000 ) ) ;
#46 = APPROVAL_ROLE ( '' ) ;
#47 = ADVANCED_FACE ( 'NONE', ( #328, #66 ), #182, .F. ) ;
#48 = PERSON_AND_ORGANIZATION_ROLE ( 'classification_officer' ) ;
#49 = COORDINATED_UNIVERSAL_TIME_OFFSET ( 1, 0, .AHEAD. ) ;
#50 = DIRECTION ( 'NONE',  ( 0.000000000000000000, 0.000000000000000000, 1.000000000000000000 ) ) ;
#51 = EDGE_LOOP ( 'NONE', ( #375, #126 ) ) ;
#52 = VECTOR ( 'NONE', #379, 1000.000000000000000 ) ;
#53 = DIRECTION ( 'NONE',  ( 1.000000000000000000, 0.000000000000000000, 0.000000000000000000 ) ) ;
#54 = LOCAL_TIME ( 11, 5, 22.00000000000000000, #367 ) ;
#55 = VERTEX_POINT ( 'NONE', #215 ) ;
#56 = FACE_BOUND ( 'NONE', #180, .T. ) ;
#57 = ORIENTED_EDGE ( 'NONE', *, *, #58, .F. ) ;
#58 = EDGE_CURVE ( 'NONE', #232, #196, #271, .T. ) ;
#59 = DIRECTION ( 'NONE',  ( -1.000000000000000000, 0.000000000000000000, 0.000000000000000000 ) ) ;
#60 = CYLINDRICAL_SURFACE ( 'NONE', #306, 5.000000000000000000 ) ;
#61 = FACE_OUTER_BOUND ( 'NONE', #358, .T. ) ;
#62 = AXIS2_PLACEMENT_3D ( 'NONE', #338, #141, #301 ) ;
#63 = TOROIDAL_SURFACE ( 'NONE', #135, 5.500000000000000000, 0.5000000000000000000 ) ;
#64 = CARTESIAN_POINT ( 'NONE',  ( 3.100000000000000089, 3.796405077356794918E-16, 155.0000000000000000 ) ) ;
#65 = DIRECTION ( 'NONE',  ( -0.000000000000000000, -0.000000000000000000, -1.000000000000000000 ) ) ;
#66 = FACE_OUTER_BOUND ( 'NONE', #154, .T. ) ;
#67 = DIRECTION ( 'NONE',  ( -1.000000000000000000, 0.000000000000000000, 0.000000000000000000 ) ) ;
#68 = CIRCLE ( 'NONE', #239, 0.5000000000000004441 ) ;
#69 = PRODUCT_RELATED_PRODUCT_CATEGORY ( 'detail', '', ( #81 ) ) ;
#70 = DIRECTION ( 'NONE',  ( -0.000000000000000000, -0.000000000000000000, -1.000000000000000000 ) ) ;
#71 = DIRECTION ( 'NONE',  ( 1.224646799147353207E-16, 1.000000000000000000, -0.000000000000000000 ) ) ;
#72 = EDGE_CURVE ( 'NONE', #175, #93, #104, .T. ) ;
#73 = DESIGN_CONTEXT ( 'detailed design', #238, 'design' ) ;
#74 = DIRECTION ( 'NONE',  ( -0.000000000000000000, -0.000000000000000000, -1.000000000000000000 ) ) ;
#75 = ORIENTED_EDGE ( 'NONE', *, *, #356, .T. ) ;
#76 = SHAPE_DEFINITION_REPRESENTATION ( #16, #332 ) ;
#77 = FACE_OUTER_BOUND ( 'NONE', #229, .T. ) ;
#78 = AXIS2_PLACEMENT_3D ( 'NONE', #218, #50, #373 ) ;
#79 = CIRCLE ( 'NONE', #24, 8.000000000000000000 ) ;
#80 = EDGE_CURVE ( 'NONE', #55, #175, #22, .T. ) ;
#81 = PRODUCT ( '7592', '7592', '', ( #325 ) ) ;
#82 = APPROVAL_STATUS ( 'not_yet_approved' ) ;
#83 = EDGE_LOOP ( 'NONE', ( #4, #323, #139, #27 ) ) ;
#84 = DATE_TIME_ROLE ( 'classification_date' ) ;
#85 = ORIENTED_EDGE ( 'NONE', *, *, #259, .T. ) ;
#86 = DIRECTION ( 'NONE',  ( 1.000000000000000000, 0.000000000000000000, 0.000000000000000000 ) ) ;
#87 = DIRECTION ( 'NONE',  ( 0.000000000000000000, 0.000000000000000000, 1.000000000000000000 ) ) ;
#88 = DIRECTION ( 'NONE',  ( 0.000000000000000000, 0.000000000000000000, 1.000000000000000000 ) ) ;
#89 = EDGE_CURVE ( 'NONE', #93, #8, #233, .T. ) ;
#90 = ORIENTED_EDGE ( 'NONE', *, *, #356, .F. ) ;
#91 = CARTESIAN_POINT ( 'NONE',  ( -3.100000000000000089, 0.000000000000000000, 155.0000000000000000 ) ) ;
#92 = CARTESIAN_POINT ( 'NONE',  ( 0.000000000000000000, 0.000000000000000000, 155.0000000000000000 ) ) ;
#93 = VERTEX_POINT ( 'NONE', #364 ) ;
#94 = PRODUCT_DEFINITION_FORMATION_WITH_SPECIFIED_SOURCE ( 'LIBOVOLNÝ', '', #81, .NOT_KNOWN. ) ;
#95 = ORIENTED_EDGE ( 'NONE', *, *, #138, .F. ) ;
#96 = APPLICATION_CONTEXT ( 'configuration controlled 3d designs of mechanical parts and assemblies' ) ;
#97 = CARTESIAN_POINT ( 'NONE',  ( -3.100000000000000089, 0.000000000000000000, 155.0000000000000000 ) ) ;
#98 = CARTESIAN_POINT ( 'NONE',  ( 0.000000000000000000, 0.000000000000000000, 155.0000000000000000 ) ) ;
#99 = ORIENTED_EDGE ( 'NONE', *, *, #317, .F. ) ;
#100 = CC_DESIGN_PERSON_AND_ORGANIZATION_ASSIGNMENT ( #169, #48, ( #243 ) ) ;
#101 = APPROVAL ( #305, 'NEURÈENÝ' ) ;
#102 = CC_DESIGN_APPROVAL ( #101, ( #166 ) ) ;
#103 = CYLINDRICAL_SURFACE ( 'NONE', #37, 5.000000000000000000 ) ;
#104 = LINE ( 'NONE', #335, #252 ) ;
#105 = AXIS2_PLACEMENT_3D ( 'NONE', #355, #289, #53 ) ;
#106 = APPROVAL_DATE_TIME ( #107, #108 ) ;
#107 = DATE_AND_TIME ( #192, #54 ) ;
#108 = APPROVAL ( #82, 'NEURÈENÝ' ) ;
#109 = DIRECTION ( 'NONE',  ( -1.000000000000000000, 0.000000000000000000, 0.000000000000000000 ) ) ;
#110 = ADVANCED_FACE ( 'NONE', ( #77 ), #277, .T. ) ;
#111 = ORGANIZATION ( 'NEURÈENÝ', 'NEURÈENÝ', '' ) ;
#112 = DIRECTION ( 'NONE',  ( 0.000000000000000000, 0.000000000000000000, 1.000000000000000000 ) ) ;
#113 = ORIENTED_EDGE ( 'NONE', *, *, #181, .F. ) ;
#114 = ORIENTED_EDGE ( 'NONE', *, *, #42, .F. ) ;
#115 = EDGE_CURVE ( 'NONE', #8, #176, #68, .T. ) ;
#116 = FACE_OUTER_BOUND ( 'NONE', #51, .T. ) ;
#117 = ORIENTED_EDGE ( 'NONE', *, *, #245, .F. ) ;
#118 = DIRECTION ( 'NONE',  ( 0.000000000000000000, 0.000000000000000000, -1.000000000000000000 ) ) ;
#119 = EDGE_LOOP ( 'NONE', ( #321, #44, #85, #377 ) ) ;
#120 = DIRECTION ( 'NONE',  ( 1.000000000000000000, 0.000000000000000000, 0.000000000000000000 ) ) ;
#121 = CARTESIAN_POINT ( 'NONE',  ( 5.500000000000000000, 0.000000000000000000, 5.500000000000005329 ) ) ;
#122 = CIRCLE ( 'NONE', #340, 5.500000000000000000 ) ;
#123 = AXIS2_PLACEMENT_3D ( 'NONE', #363, #241, #185 ) ;
#124 = LINE ( 'NONE', #97, #333 ) ;
#125 =( NAMED_UNIT ( * ) SI_UNIT ( $, .STERADIAN. ) SOLID_ANGLE_UNIT ( ) );
#126 = ORIENTED_EDGE ( 'NONE', *, *, #299, .T. ) ;
#127 = ADVANCED_FACE ( 'NONE', ( #164 ), #161, .F. ) ;
#128 = CARTESIAN_POINT ( 'NONE',  ( 0.000000000000000000, 0.000000000000000000, 5.000000000000000000 ) ) ;
#129 = UNCERTAINTY_MEASURE_WITH_UNIT (LENGTH_MEASURE( 1.000000000000000082E-05 ), #10, 'distance_accuracy_value', 'NONE');
#130 = AXIS2_PLACEMENT_3D ( 'NONE', #201, #315, #257 ) ;
#131 = CC_DESIGN_PERSON_AND_ORGANIZATION_ASSIGNMENT ( #248, #197, ( #94 ) ) ;
#132 = CALENDAR_DATE ( 2022, 10, 7 ) ;
#133 = APPROVAL_ROLE ( '' ) ;
#134 = CIRCLE ( 'NONE', #78, 5.000000000000000000 ) ;
#135 = AXIS2_PLACEMENT_3D ( 'NONE', #187, #242, #329 ) ;
#136 = PERSON_AND_ORGANIZATION ( #38, #111 ) ;
#137 = CALENDAR_DATE ( 2022, 10, 7 ) ;
#138 = EDGE_CURVE ( 'NONE', #209, #275, #43, .T. ) ;
#139 = ORIENTED_EDGE ( 'NONE', *, *, #193, .T. ) ;
#140 = DATE_AND_TIME ( #18, #31 ) ;
#141 = DIRECTION ( 'NONE',  ( 0.000000000000000000, 0.000000000000000000, 1.000000000000000000 ) ) ;
#142 = ORIENTED_EDGE ( 'NONE', *, *, #58, .T. ) ;
#143 = AXIS2_PLACEMENT_3D ( 'NONE', #226, #11, #311 ) ;
#144 = DIRECTION ( 'NONE',  ( 0.000000000000000000, 0.000000000000000000, 1.000000000000000000 ) ) ;
#145 = EDGE_CURVE ( 'NONE', #8, #93, #134, .T. ) ;
#146 = APPROVAL ( #225, 'NEURÈENÝ' ) ;
#147 = FACE_BOUND ( 'NONE', #350, .T. ) ;
#148 = DIRECTION ( 'NONE',  ( 1.000000000000000000, 0.000000000000000000, 0.000000000000000000 ) ) ;
#149 = VERTEX_POINT ( 'NONE', #228 ) ;
#150 = CIRCLE ( 'NONE', #247, 3.100000000000000089 ) ;
#151 = CARTESIAN_POINT ( 'NONE',  ( 0.000000000000000000, 0.000000000000000000, 155.0000000000000000 ) ) ;
#152 = FACE_OUTER_BOUND ( 'NONE', #171, .T. ) ;
#153 = CARTESIAN_POINT ( 'NONE',  ( -8.000000000000000000, 0.000000000000000000, 0.000000000000000000 ) ) ;
#154 = EDGE_LOOP ( 'NONE', ( #256, #286 ) ) ;
#155 = ORIENTED_EDGE ( 'NONE', *, *, #299, .F. ) ;
#156 = APPROVAL_PERSON_ORGANIZATION ( #136, #108, #46 ) ;
#157 = DIRECTION ( 'NONE',  ( 1.000000000000000000, 0.000000000000000000, -0.000000000000000000 ) ) ;
#158 = EDGE_CURVE ( 'NONE', #292, #196, #359, .T. ) ;
#159 =( NAMED_UNIT ( * ) PLANE_ANGLE_UNIT ( ) SI_UNIT ( $, .RADIAN. ) );
#160 = CARTESIAN_POINT ( 'NONE',  ( 0.000000000000000000, 0.000000000000000000, 5.000000000000000000 ) ) ;
#161 = CYLINDRICAL_SURFACE ( 'NONE', #5, 3.100000000000000089 ) ;
#162 = CIRCLE ( 'NONE', #130, 5.000000000000000000 ) ;
#163 = PERSON_AND_ORGANIZATION ( #38, #111 ) ;
#164 = FACE_OUTER_BOUND ( 'NONE', #308, .T. ) ;
#165 = COORDINATED_UNIVERSAL_TIME_OFFSET ( 1, 0, .AHEAD. ) ;
#166 = PRODUCT_DEFINITION ( 'NEZNÁMÝ', '', #94, #73 ) ;
#167 = COORDINATED_UNIVERSAL_TIME_OFFSET ( 1, 0, .AHEAD. ) ;
#168 = ORIENTED_EDGE ( 'NONE', *, *, #115, .T. ) ;
#169 = PERSON_AND_ORGANIZATION ( #38, #111 ) ;
#170 = CARTESIAN_POINT ( 'NONE',  ( 8.000000000000000000, 9.797174393178825657E-16, 5.000000000000000000 ) ) ;
#171 = EDGE_LOOP ( 'NONE', ( #99, #303, #318, #179 ) ) ;
#172 = CIRCLE ( 'NONE', #221, 3.100000000000000089 ) ;
#173 = APPROVAL_PERSON_ORGANIZATION ( #249, #146, #310 ) ;
#174 = CARTESIAN_POINT ( 'NONE',  ( -5.000000000000000000, 0.000000000000000000, 155.0000000000000000 ) ) ;
#175 = VERTEX_POINT ( 'NONE', #199 ) ;
#176 = VERTEX_POINT ( 'NONE', #313 ) ;
#177 = DIRECTION ( 'NONE',  ( 0.000000000000000000, 0.000000000000000000, 1.000000000000000000 ) ) ;
#178 = EDGE_CURVE ( 'NONE', #176, #149, #122, .T. ) ;
#179 = ORIENTED_EDGE ( 'NONE', *, *, #193, .F. ) ;
#180 = EDGE_LOOP ( 'NONE', ( #75, #200 ) ) ;
#181 = EDGE_CURVE ( 'NONE', #263, #290, #172, .T. ) ;
#182 = PLANE ( 'NONE',  #227 ) ;
#183 = AXIS2_PLACEMENT_3D ( 'NONE', #344, #189, #109 ) ;
#184 = AXIS2_PLACEMENT_3D ( 'NONE', #121, #211, #118 ) ;
#185 = DIRECTION ( 'NONE',  ( 1.000000000000000000, 0.000000000000000000, 0.000000000000000000 ) ) ;
#186 = DIRECTION ( 'NONE',  ( -0.000000000000000000, -0.000000000000000000, -1.000000000000000000 ) ) ;
#187 = CARTESIAN_POINT ( 'NONE',  ( 0.000000000000000000, 0.000000000000000000, 5.500000000000005329 ) ) ;
#188 = CARTESIAN_POINT ( 'NONE',  ( 0.000000000000000000, 0.000000000000000000, 0.000000000000000000 ) ) ;
#189 = DIRECTION ( 'NONE',  ( -0.000000000000000000, -0.000000000000000000, -1.000000000000000000 ) ) ;
#190 =( GEOMETRIC_REPRESENTATION_CONTEXT ( 3 ) GLOBAL_UNCERTAINTY_ASSIGNED_CONTEXT ( ( #129 ) ) GLOBAL_UNIT_ASSIGNED_CONTEXT ( ( #10, #159, #125 ) ) REPRESENTATION_CONTEXT ( 'NONE', 'WORKASPACE' ) );
#191 = PERSON_AND_ORGANIZATION_ROLE ( 'creator' ) ;
#192 = CALENDAR_DATE ( 2022, 10, 7 ) ;
#193 = EDGE_CURVE ( 'NONE', #55, #8, #376, .T. ) ;
#194 = PERSON_AND_ORGANIZATION_ROLE ( 'creator' ) ;
#195 = AXIS2_PLACEMENT_3D ( 'NONE', #291, #34, #265 ) ;
#196 = VERTEX_POINT ( 'NONE', #351 ) ;
#197 = PERSON_AND_ORGANIZATION_ROLE ( 'design_supplier' ) ;
#198 = CARTESIAN_POINT ( 'NONE',  ( -5.500000000000000000, 6.735557395310442023E-16, 5.500000000000005329 ) ) ;
#199 = CARTESIAN_POINT ( 'NONE',  ( 5.000000000000000000, 6.123233995736766282E-16, 155.0000000000000000 ) ) ;
#200 = ORIENTED_EDGE ( 'NONE', *, *, #178, .T. ) ;
#201 = CARTESIAN_POINT ( 'NONE',  ( 0.000000000000000000, 0.000000000000000000, 155.0000000000000000 ) ) ;
#202 = ORIENTED_EDGE ( 'NONE', *, *, #369, .F. ) ;
#203 = CIRCLE ( 'NONE', #184, 0.5000000000000004441 ) ;
#204 = CYLINDRICAL_SURFACE ( 'NONE', #352, 3.100000000000000089 ) ;
#205 = ORIENTED_EDGE ( 'NONE', *, *, #317, .T. ) ;
#206 = ORIENTED_EDGE ( 'NONE', *, *, #138, .T. ) ;
#207 = EDGE_CURVE ( 'NONE', #196, #292, #266, .T. ) ;
#208 = FACE_OUTER_BOUND ( 'NONE', #119, .T. ) ;
#209 = VERTEX_POINT ( 'NONE', #287 ) ;
#210 = AXIS2_PLACEMENT_3D ( 'NONE', #353, #32, #230 ) ;
#211 = DIRECTION ( 'NONE',  ( 0.000000000000000000, -1.000000000000000000, 0.000000000000000000 ) ) ;
#212 = CARTESIAN_POINT ( 'NONE',  ( -8.000000000000000000, 0.000000000000000000, 5.000000000000000000 ) ) ;
#213 = DIRECTION ( 'NONE',  ( 0.000000000000000000, 0.000000000000000000, -1.000000000000000000 ) ) ;
#214 = ORIENTED_EDGE ( 'NONE', *, *, #361, .T. ) ;
#215 = CARTESIAN_POINT ( 'NONE',  ( -5.000000000000000000, 0.000000000000000000, 155.0000000000000000 ) ) ;
#216 = CC_DESIGN_DATE_AND_TIME_ASSIGNMENT ( #219, #84, ( #243 ) ) ;
#217 = CARTESIAN_POINT ( 'NONE',  ( -8.000000000000000000, 0.000000000000000000, 5.000000000000000000 ) ) ;
#218 = CARTESIAN_POINT ( 'NONE',  ( 0.000000000000000000, 0.000000000000000000, 5.500000000000005329 ) ) ;
#219 = DATE_AND_TIME ( #137, #240 ) ;
#220 = DIRECTION ( 'NONE',  ( -0.000000000000000000, -0.000000000000000000, -1.000000000000000000 ) ) ;
#221 = AXIS2_PLACEMENT_3D ( 'NONE', #188, #302, #148 ) ;
#222 = PERSON_AND_ORGANIZATION ( #38, #111 ) ;
#223 = ADVANCED_FACE ( 'NONE', ( #61 ), #204, .F. ) ;
#224 = DATE_TIME_ROLE ( 'creation_date' ) ;
#225 = APPROVAL_STATUS ( 'not_yet_approved' ) ;
#226 = CARTESIAN_POINT ( 'NONE',  ( 0.000000000000000000, 0.000000000000000000, 155.0000000000000000 ) ) ;
#227 = AXIS2_PLACEMENT_3D ( 'NONE', #294, #36, #157 ) ;
#228 = CARTESIAN_POINT ( 'NONE',  ( 5.500000000000000000, 0.000000000000000000, 5.000000000000002665 ) ) ;
#229 = EDGE_LOOP ( 'NONE', ( #155, #142, #35, #312 ) ) ;
#230 = DIRECTION ( 'NONE',  ( 1.000000000000000000, 0.000000000000000000, 0.000000000000000000 ) ) ;
#231 = CC_DESIGN_DATE_AND_TIME_ASSIGNMENT ( #273, #224, ( #166 ) ) ;
#232 = VERTEX_POINT ( 'NONE', #170 ) ;
#233 = CIRCLE ( 'NONE', #270, 5.000000000000000000 ) ;
#234 = CIRCLE ( 'NONE', #123, 5.500000000000000000 ) ;
#235 = CC_DESIGN_PERSON_AND_ORGANIZATION_ASSIGNMENT ( #274, #371, ( #81 ) ) ;
#236 = FACE_OUTER_BOUND ( 'NONE', #258, .T. ) ;
#237 = LINE ( 'NONE', #64, #295 ) ;
#238 = APPLICATION_CONTEXT ( 'configuration controlled 3d designs of mechanical parts and assemblies' ) ;
#239 = AXIS2_PLACEMENT_3D ( 'NONE', #198, #71, #250 ) ;
#240 = LOCAL_TIME ( 11, 5, 22.00000000000000000, #165 ) ;
#241 = DIRECTION ( 'NONE',  ( -0.000000000000000000, -0.000000000000000000, -1.000000000000000000 ) ) ;
#242 = DIRECTION ( 'NONE',  ( 0.000000000000000000, 0.000000000000000000, 1.000000000000000000 ) ) ;
#243 = SECURITY_CLASSIFICATION ( '', '', #368 ) ;
#244 = ADVANCED_FACE ( 'NONE', ( #56, #116 ), #357, .T. ) ;
#245 = EDGE_CURVE ( 'NONE', #21, #232, #366, .T. ) ;
#246 = AXIS2_PLACEMENT_3D ( 'NONE', #278, #88, #285 ) ;
#247 = AXIS2_PLACEMENT_3D ( 'NONE', #26, #177, #120 ) ;
#248 = PERSON_AND_ORGANIZATION ( #38, #111 ) ;
#249 = PERSON_AND_ORGANIZATION ( #38, #111 ) ;
#250 = DIRECTION ( 'NONE',  ( -1.000000000000000000, 1.224646799147351482E-16, 0.000000000000000000 ) ) ;
#251 = DIRECTION ( 'NONE',  ( -1.000000000000000000, 0.000000000000000000, 0.000000000000000000 ) ) ;
#252 = VECTOR ( 'NONE', #186, 1000.000000000000000 ) ;
#253 = LOCAL_TIME ( 11, 5, 22.00000000000000000, #167 ) ;
#254 = ORIENTED_EDGE ( 'NONE', *, *, #158, .T. ) ;
#255 = DIRECTION ( 'NONE',  ( 1.000000000000000000, 0.000000000000000000, 0.000000000000000000 ) ) ;
#256 = ORIENTED_EDGE ( 'NONE', *, *, #158, .F. ) ;
#257 = DIRECTION ( 'NONE',  ( 1.000000000000000000, 0.000000000000000000, 0.000000000000000000 ) ) ;
#258 = EDGE_LOOP ( 'NONE', ( #57, #117, #214, #254 ) ) ;
#259 = EDGE_CURVE ( 'NONE', #93, #149, #203, .T. ) ;
#260 = VECTOR ( 'NONE', #220, 1000.000000000000000 ) ;
#261 = AXIS2_PLACEMENT_3D ( 'NONE', #151, #87, #262 ) ;
#262 = DIRECTION ( 'NONE',  ( 1.000000000000000000, 0.000000000000000000, -0.000000000000000000 ) ) ;
#263 = VERTEX_POINT ( 'NONE', #282 ) ;
#264 = CARTESIAN_POINT ( 'NONE',  ( -5.000000000000000000, 0.000000000000000000, 5.500000000000005329 ) ) ;
#265 = DIRECTION ( 'NONE',  ( 1.000000000000000000, 0.000000000000000000, 0.000000000000000000 ) ) ;
#266 = CIRCLE ( 'NONE', #105, 8.000000000000000000 ) ;
#267 = DIRECTION ( 'NONE',  ( -0.000000000000000000, -0.000000000000000000, -1.000000000000000000 ) ) ;
#268 = ADVANCED_FACE ( 'NONE', ( #208 ), #280, .F. ) ;
#269 = CARTESIAN_POINT ( 'NONE',  ( 0.000000000000000000, 0.000000000000000000, 5.500000000000005329 ) ) ;
#270 = AXIS2_PLACEMENT_3D ( 'NONE', #269, #112, #45 ) ;
#271 = LINE ( 'NONE', #365, #260 ) ;
#272 = DIRECTION ( 'NONE',  ( 0.000000000000000000, 0.000000000000000000, -1.000000000000000000 ) ) ;
#273 = DATE_AND_TIME ( #132, #253 ) ;
#274 = PERSON_AND_ORGANIZATION ( #38, #111 ) ;
#275 = VERTEX_POINT ( 'NONE', #91 ) ;
#276 = PERSON_AND_ORGANIZATION ( #38, #111 ) ;
#277 = CYLINDRICAL_SURFACE ( 'NONE', #183, 8.000000000000000000 ) ;
#278 = CARTESIAN_POINT ( 'NONE',  ( 0.000000000000000000, 0.000000000000000000, 5.000000000000000000 ) ) ;
#279 = AXIS2_PLACEMENT_3D ( 'NONE', #336, #347, #86 ) ;
#280 = TOROIDAL_SURFACE ( 'NONE', #210, 5.500000000000000000, 0.5000000000000000000 ) ;
#281 = ORIENTED_EDGE ( 'NONE', *, *, #284, .T. ) ;
#282 = CARTESIAN_POINT ( 'NONE',  ( 3.100000000000000089, 3.796405077356794918E-16, 0.000000000000000000 ) ) ;
#283 = EDGE_LOOP ( 'NONE', ( #331, #168, #90, #314 ) ) ;
#284 = EDGE_CURVE ( 'NONE', #275, #209, #150, .T. ) ;
#285 = DIRECTION ( 'NONE',  ( 1.000000000000000000, 0.000000000000000000, 0.000000000000000000 ) ) ;
#286 = ORIENTED_EDGE ( 'NONE', *, *, #207, .F. ) ;
#287 = CARTESIAN_POINT ( 'NONE',  ( 3.100000000000000089, 3.796405077356794918E-16, 155.0000000000000000 ) ) ;
#288 = CC_DESIGN_APPROVAL ( #108, ( #94 ) ) ;
#289 = DIRECTION ( 'NONE',  ( 0.000000000000000000, 0.000000000000000000, 1.000000000000000000 ) ) ;
#290 = VERTEX_POINT ( 'NONE', #322 ) ;
#291 = CARTESIAN_POINT ( 'NONE',  ( 0.000000000000000000, 0.000000000000000000, 0.000000000000000000 ) ) ;
#292 = VERTEX_POINT ( 'NONE', #153 ) ;
#293 = APPLICATION_PROTOCOL_DEFINITION ( 'international standard', 'config_control_design', 1994, #96 ) ;
#294 = CARTESIAN_POINT ( 'NONE',  ( 0.000000000000000000, 0.000000000000000000, 0.000000000000000000 ) ) ;
#295 = VECTOR ( 'NONE', #2, 1000.000000000000000 ) ;
#296 = CC_DESIGN_PERSON_AND_ORGANIZATION_ASSIGNMENT ( #222, #194, ( #94 ) ) ;
#297 = LINE ( 'NONE', #217, #304 ) ;
#298 = EDGE_LOOP ( 'NONE', ( #354, #205 ) ) ;
#299 = EDGE_CURVE ( 'NONE', #232, #21, #79, .T. ) ;
#300 = DIRECTION ( 'NONE',  ( 1.000000000000000000, 0.000000000000000000, 0.000000000000000000 ) ) ;
#301 = DIRECTION ( 'NONE',  ( 1.000000000000000000, 0.000000000000000000, 0.000000000000000000 ) ) ;
#302 = DIRECTION ( 'NONE',  ( -0.000000000000000000, -0.000000000000000000, -1.000000000000000000 ) ) ;
#303 = ORIENTED_EDGE ( 'NONE', *, *, #72, .T. ) ;
#304 = VECTOR ( 'NONE', #65, 1000.000000000000000 ) ;
#305 = APPROVAL_STATUS ( 'not_yet_approved' ) ;
#306 = AXIS2_PLACEMENT_3D ( 'NONE', #326, #381, #33 ) ;
#307 = CC_DESIGN_APPROVAL ( #146, ( #243 ) ) ;
#308 = EDGE_LOOP ( 'NONE', ( #25, #206, #337, #348 ) ) ;
#309 = ADVANCED_FACE ( 'NONE', ( #147, #29 ), #349, .T. ) ;
#310 = APPROVAL_ROLE ( '' ) ;
#311 = DIRECTION ( 'NONE',  ( 1.000000000000000000, 0.000000000000000000, 0.000000000000000000 ) ) ;
#312 = ORIENTED_EDGE ( 'NONE', *, *, #361, .F. ) ;
#313 = CARTESIAN_POINT ( 'NONE',  ( -5.500000000000000000, 6.735557395310442023E-16, 5.000000000000002665 ) ) ;
#314 = ORIENTED_EDGE ( 'NONE', *, *, #259, .F. ) ;
#315 = DIRECTION ( 'NONE',  ( 0.000000000000000000, 0.000000000000000000, 1.000000000000000000 ) ) ;
#316 = AXIS2_PLACEMENT_3D ( 'NONE', #1, #320, #378 ) ;
#317 = EDGE_CURVE ( 'NONE', #175, #55, #162, .T. ) ;
#318 = ORIENTED_EDGE ( 'NONE', *, *, #89, .T. ) ;
#319 = DIRECTION ( 'NONE',  ( 0.000000000000000000, 0.000000000000000000, -1.000000000000000000 ) ) ;
#320 = DIRECTION ( 'NONE',  ( 0.000000000000000000, 0.000000000000000000, 1.000000000000000000 ) ) ;
#321 = ORIENTED_EDGE ( 'NONE', *, *, #115, .F. ) ;
#322 = CARTESIAN_POINT ( 'NONE',  ( -3.100000000000000089, 0.000000000000000000, 0.000000000000000000 ) ) ;
#323 = ORIENTED_EDGE ( 'NONE', *, *, #80, .F. ) ;
#324 = APPROVAL_PERSON_ORGANIZATION ( #276, #101, #133 ) ;
#325 = MECHANICAL_CONTEXT ( 'NONE', #96, 'mechanical' ) ;
#326 = CARTESIAN_POINT ( 'NONE',  ( 0.000000000000000000, 0.000000000000000000, 155.0000000000000000 ) ) ;
#327 = DIRECTION ( 'NONE',  ( -0.000000000000000000, -0.000000000000000000, -1.000000000000000000 ) ) ;
#328 = FACE_BOUND ( 'NONE', #346, .T. ) ;
#329 = DIRECTION ( 'NONE',  ( 1.000000000000000000, 0.000000000000000000, 0.000000000000000000 ) ) ;
#330 = ADVANCED_FACE ( 'NONE', ( #236 ), #360, .T. ) ;
#331 = ORIENTED_EDGE ( 'NONE', *, *, #145, .F. ) ;
#332 = ADVANCED_BREP_SHAPE_REPRESENTATION ( '7592', ( #20, #195 ), #190 ) ;
#333 = VECTOR ( 'NONE', #213, 1000.000000000000000 ) ;
#334 = CARTESIAN_POINT ( 'NONE',  ( 0.000000000000000000, 0.000000000000000000, 0.000000000000000000 ) ) ;
#335 = CARTESIAN_POINT ( 'NONE',  ( 5.000000000000000000, 6.123233995736766282E-16, 155.0000000000000000 ) ) ;
#336 = CARTESIAN_POINT ( 'NONE',  ( 0.000000000000000000, 0.000000000000000000, 0.000000000000000000 ) ) ;
#337 = ORIENTED_EDGE ( 'NONE', *, *, #42, .T. ) ;
#338 = CARTESIAN_POINT ( 'NONE',  ( 0.000000000000000000, 0.000000000000000000, 155.0000000000000000 ) ) ;
#339 = CALENDAR_DATE ( 2022, 10, 7 ) ;
#340 = AXIS2_PLACEMENT_3D ( 'NONE', #160, #74, #9 ) ;
#341 = AXIS2_PLACEMENT_3D ( 'NONE', #334, #70, #300 ) ;
#342 = APPROVAL_DATE_TIME ( #14, #101 ) ;
#343 = ADVANCED_FACE ( 'NONE', ( #3 ), #63, .F. ) ;
#344 = CARTESIAN_POINT ( 'NONE',  ( 0.000000000000000000, 0.000000000000000000, 5.000000000000000000 ) ) ;
#345 = AXIS2_PLACEMENT_3D ( 'NONE', #128, #327, #67 ) ;
#346 = EDGE_LOOP ( 'NONE', ( #202, #113 ) ) ;
#347 = DIRECTION ( 'NONE',  ( 0.000000000000000000, 0.000000000000000000, 1.000000000000000000 ) ) ;
#348 = ORIENTED_EDGE ( 'NONE', *, *, #369, .T. ) ;
#349 = PLANE ( 'NONE',  #261 ) ;
#350 = EDGE_LOOP ( 'NONE', ( #362, #95 ) ) ;
#351 = CARTESIAN_POINT ( 'NONE',  ( 8.000000000000000000, 9.797174393178825657E-16, 0.000000000000000000 ) ) ;
#352 = AXIS2_PLACEMENT_3D ( 'NONE', #92, #319, #59 ) ;
#353 = CARTESIAN_POINT ( 'NONE',  ( 0.000000000000000000, 0.000000000000000000, 5.500000000000005329 ) ) ;
#354 = ORIENTED_EDGE ( 'NONE', *, *, #80, .T. ) ;
#355 = CARTESIAN_POINT ( 'NONE',  ( 0.000000000000000000, 0.000000000000000000, 0.000000000000000000 ) ) ;
#356 = EDGE_CURVE ( 'NONE', #149, #176, #234, .T. ) ;
#357 = PLANE ( 'NONE',  #316 ) ;
#358 = EDGE_LOOP ( 'NONE', ( #281, #370, #40, #114 ) ) ;
#359 = CIRCLE ( 'NONE', #279, 8.000000000000000000 ) ;
#360 = CYLINDRICAL_SURFACE ( 'NONE', #345, 8.000000000000000000 ) ;
#361 = EDGE_CURVE ( 'NONE', #21, #292, #297, .T. ) ;
#362 = ORIENTED_EDGE ( 'NONE', *, *, #284, .F. ) ;
#363 = CARTESIAN_POINT ( 'NONE',  ( 0.000000000000000000, 0.000000000000000000, 5.000000000000000000 ) ) ;
#364 = CARTESIAN_POINT ( 'NONE',  ( 5.000000000000000000, 6.123233995736766282E-16, 5.500000000000005329 ) ) ;
#365 = CARTESIAN_POINT ( 'NONE',  ( 8.000000000000000000, 9.797174393178825657E-16, 5.000000000000000000 ) ) ;
#366 = CIRCLE ( 'NONE', #246, 8.000000000000000000 ) ;
#367 = COORDINATED_UNIVERSAL_TIME_OFFSET ( 1, 0, .AHEAD. ) ;
#368 = SECURITY_CLASSIFICATION_LEVEL ( 'unclassified' ) ;
#369 = EDGE_CURVE ( 'NONE', #290, #263, #15, .T. ) ;
#370 = ORIENTED_EDGE ( 'NONE', *, *, #13, .T. ) ;
#371 = PERSON_AND_ORGANIZATION_ROLE ( 'design_owner' ) ;
#372 = APPROVAL_DATE_TIME ( #140, #146 ) ;
#373 = DIRECTION ( 'NONE',  ( 1.000000000000000000, 0.000000000000000000, 0.000000000000000000 ) ) ;
#374 = LOCAL_TIME ( 11, 5, 22.00000000000000000, #17 ) ;
#375 = ORIENTED_EDGE ( 'NONE', *, *, #245, .T. ) ;
#376 = LINE ( 'NONE', #174, #52 ) ;
#377 = ORIENTED_EDGE ( 'NONE', *, *, #178, .F. ) ;
#378 = DIRECTION ( 'NONE',  ( 1.000000000000000000, 0.000000000000000000, -0.000000000000000000 ) ) ;
#379 = DIRECTION ( 'NONE',  ( -0.000000000000000000, -0.000000000000000000, -1.000000000000000000 ) ) ;
#380 = ADVANCED_FACE ( 'NONE', ( #41 ), #103, .T. ) ;
#381 = DIRECTION ( 'NONE',  ( -0.000000000000000000, -0.000000000000000000, -1.000000000000000000 ) ) ;
ENDSEC;
END-ISO-10303-21;
