ISO-10303-21;
HEADER;
FILE_DESCRIPTION (( 'STEP AP203' ),
    '1' );
FILE_NAME ('915b.STEP',
    '2022-07-10T09:14:42',
    ( '' ),
    ( '' ),
    'SwSTEP 2.0',
    'SolidWorks 2019',
    '' );
FILE_SCHEMA (( 'CONFIG_CONTROL_DESIGN' ));
ENDSEC;

DATA;
#1 = AXIS2_PLACEMENT_3D ( 'NONE', #286, #381, #318 ) ;
#2 = EDGE_CURVE ( 'NONE', #15, #142, #272, .T. ) ;
#3 =( LENGTH_UNIT ( ) NAMED_UNIT ( * ) SI_UNIT ( .MILLI., .METRE. ) );
#4 = EDGE_CURVE ( 'NONE', #217, #101, #186, .T. ) ;
#5 = CARTESIAN_POINT ( 'NONE',  ( 0.000000000000000000, 0.000000000000000000, 0.000000000000000000 ) ) ;
#6 =( GEOMETRIC_REPRESENTATION_CONTEXT ( 3 ) GLOBAL_UNCERTAINTY_ASSIGNED_CONTEXT ( ( #321 ) ) GLOBAL_UNIT_ASSIGNED_CONTEXT ( ( #3, #297, #141 ) ) REPRESENTATION_CONTEXT ( 'NONE', 'WORKASPACE' ) );
#7 = FACE_OUTER_BOUND ( 'NONE', #54, .T. ) ;
#8 = PRODUCT_DEFINITION ( 'NEZNÁMÝ', '', #14, #68 ) ;
#9 = PERSON_AND_ORGANIZATION ( #179, #273 ) ;
#10 = ORIENTED_EDGE ( 'NONE', *, *, #4, .T. ) ;
#11 = COORDINATED_UNIVERSAL_TIME_OFFSET ( 1, 0, .AHEAD. ) ;
#12 = VECTOR ( 'NONE', #135, 1000.000000000000000 ) ;
#13 = ORIENTED_EDGE ( 'NONE', *, *, #205, .F. ) ;
#14 = PRODUCT_DEFINITION_FORMATION_WITH_SPECIFIED_SOURCE ( 'LIBOVOLNÝ', '', #69, .NOT_KNOWN. ) ;
#15 = VERTEX_POINT ( 'NONE', #17 ) ;
#16 = DIRECTION ( 'NONE',  ( 0.000000000000000000, 0.000000000000000000, 1.000000000000000000 ) ) ;
#17 = CARTESIAN_POINT ( 'NONE',  ( -3.000000000000000444, 0.000000000000000000, 80.00000000000000000 ) ) ;
#18 = ORIENTED_EDGE ( 'NONE', *, *, #326, .F. ) ;
#19 = VECTOR ( 'NONE', #277, 1000.000000000000000 ) ;
#20 = AXIS2_PLACEMENT_3D ( 'NONE', #200, #314, #168 ) ;
#21 = FACE_OUTER_BOUND ( 'NONE', #94, .T. ) ;
#22 = CARTESIAN_POINT ( 'NONE',  ( 0.000000000000000000, 0.000000000000000000, 80.00000000000000000 ) ) ;
#23 = FACE_OUTER_BOUND ( 'NONE', #305, .T. ) ;
#24 = CARTESIAN_POINT ( 'NONE',  ( 0.000000000000000000, 0.000000000000000000, 5.500000000000005329 ) ) ;
#25 = DIRECTION ( 'NONE',  ( 1.000000000000000000, 0.000000000000000000, 0.000000000000000000 ) ) ;
#26 = FACE_OUTER_BOUND ( 'NONE', #370, .T. ) ;
#27 = DIRECTION ( 'NONE',  ( -1.000000000000000000, 0.000000000000000000, 0.000000000000000000 ) ) ;
#28 = ORIENTED_EDGE ( 'NONE', *, *, #82, .F. ) ;
#29 = AXIS2_PLACEMENT_3D ( 'NONE', #235, #289, #323 ) ;
#30 = CARTESIAN_POINT ( 'NONE',  ( 0.000000000000000000, 0.000000000000000000, 5.500000000000005329 ) ) ;
#31 = ORIENTED_EDGE ( 'NONE', *, *, #47, .T. ) ;
#32 = ORIENTED_EDGE ( 'NONE', *, *, #82, .T. ) ;
#33 = DIRECTION ( 'NONE',  ( 1.000000000000000000, 0.000000000000000000, 0.000000000000000000 ) ) ;
#34 = EDGE_LOOP ( 'NONE', ( #173, #275, #276, #215 ) ) ;
#35 = CIRCLE ( 'NONE', #237, 6.000000000000000888 ) ;
#36 = APPROVAL_DATE_TIME ( #98, #113 ) ;
#37 = ORIENTED_EDGE ( 'NONE', *, *, #154, .T. ) ;
#38 = APPROVAL_STATUS ( 'not_yet_approved' ) ;
#39 = CARTESIAN_POINT ( 'NONE',  ( 0.000000000000000000, 0.000000000000000000, 5.000000000000000000 ) ) ;
#40 = LOCAL_TIME ( 11, 14, 42.00000000000000000, #102 ) ;
#41 = CARTESIAN_POINT ( 'NONE',  ( -2.000000000000000000, 0.000000000000000000, 80.00000000000000000 ) ) ;
#42 = ORIENTED_EDGE ( 'NONE', *, *, #260, .F. ) ;
#43 = LINE ( 'NONE', #159, #19 ) ;
#44 = CIRCLE ( 'NONE', #63, 2.000000000000000000 ) ;
#45 = DIRECTION ( 'NONE',  ( 1.000000000000000000, 0.000000000000000000, -0.000000000000000000 ) ) ;
#46 = CARTESIAN_POINT ( 'NONE',  ( 0.000000000000000000, 0.000000000000000000, 80.00000000000000000 ) ) ;
#47 = EDGE_CURVE ( 'NONE', #363, #324, #77, .T. ) ;
#48 = DIRECTION ( 'NONE',  ( 0.000000000000000000, 0.000000000000000000, 1.000000000000000000 ) ) ;
#49 = LINE ( 'NONE', #285, #12 ) ;
#50 = ADVANCED_FACE ( 'NONE', ( #245, #373 ), #371, .T. ) ;
#51 = FACE_OUTER_BOUND ( 'NONE', #133, .T. ) ;
#52 = PRODUCT_RELATED_PRODUCT_CATEGORY ( 'detail', '', ( #69 ) ) ;
#53 = CYLINDRICAL_SURFACE ( 'NONE', #315, 3.000000000000000444 ) ;
#54 = EDGE_LOOP ( 'NONE', ( #339, #184, #10, #176 ) ) ;
#55 = DIRECTION ( 'NONE',  ( -0.000000000000000000, -0.000000000000000000, -1.000000000000000000 ) ) ;
#56 = VERTEX_POINT ( 'NONE', #106 ) ;
#57 = APPROVAL_PERSON_ORGANIZATION ( #185, #350, #221 ) ;
#58 = APPLICATION_PROTOCOL_DEFINITION ( 'international standard', 'config_control_design', 1994, #287 ) ;
#59 = EDGE_LOOP ( 'NONE', ( #274, #294 ) ) ;
#60 = CYLINDRICAL_SURFACE ( 'NONE', #278, 6.000000000000000888 ) ;
#61 = ORIENTED_EDGE ( 'NONE', *, *, #205, .T. ) ;
#62 = CARTESIAN_POINT ( 'NONE',  ( -3.500000000000000444, 4.286263797015737088E-16, 5.000000000000002665 ) ) ;
#63 = AXIS2_PLACEMENT_3D ( 'NONE', #22, #380, #377 ) ;
#64 = APPLICATION_PROTOCOL_DEFINITION ( 'international standard', 'config_control_design', 1994, #207 ) ;
#65 = LINE ( 'NONE', #253, #172 ) ;
#66 = PERSON_AND_ORGANIZATION ( #179, #273 ) ;
#67 = ORIENTED_EDGE ( 'NONE', *, *, #226, .T. ) ;
#68 = DESIGN_CONTEXT ( 'detailed design', #207, 'design' ) ;
#69 = PRODUCT ( '915b', '915b', '', ( #340 ) ) ;
#70 = PERSON_AND_ORGANIZATION ( #179, #273 ) ;
#71 = ORIENTED_EDGE ( 'NONE', *, *, #226, .F. ) ;
#72 = PERSON_AND_ORGANIZATION_ROLE ( 'design_supplier' ) ;
#73 = LINE ( 'NONE', #222, #121 ) ;
#74 = EDGE_CURVE ( 'NONE', #142, #325, #73, .T. ) ;
#75 = CARTESIAN_POINT ( 'NONE',  ( 0.000000000000000000, 0.000000000000000000, 80.00000000000000000 ) ) ;
#76 = DIRECTION ( 'NONE',  ( -1.000000000000000000, 0.000000000000000000, 0.000000000000000000 ) ) ;
#77 = CIRCLE ( 'NONE', #88, 3.500000000000000444 ) ;
#78 = DIRECTION ( 'NONE',  ( -0.000000000000000000, -0.000000000000000000, -1.000000000000000000 ) ) ;
#79 = DIRECTION ( 'NONE',  ( 1.000000000000000000, 0.000000000000000000, 0.000000000000000000 ) ) ;
#80 = DIRECTION ( 'NONE',  ( 1.224646799147353207E-16, 1.000000000000000000, -0.000000000000000000 ) ) ;
#81 = AXIS2_PLACEMENT_3D ( 'NONE', #75, #303, #189 ) ;
#82 = EDGE_CURVE ( 'NONE', #290, #325, #129, .T. ) ;
#83 = LINE ( 'NONE', #379, #183 ) ;
#84 = AXIS2_PLACEMENT_3D ( 'NONE', #375, #225, #25 ) ;
#85 = CARTESIAN_POINT ( 'NONE',  ( 3.000000000000000444, 3.673940397442060361E-16, 5.500000000000005329 ) ) ;
#86 = CARTESIAN_POINT ( 'NONE',  ( 6.000000000000000888, 7.347880794884120722E-16, 0.000000000000000000 ) ) ;
#87 = ORIENTED_EDGE ( 'NONE', *, *, #252, .T. ) ;
#88 = AXIS2_PLACEMENT_3D ( 'NONE', #39, #332, #128 ) ;
#89 = CARTESIAN_POINT ( 'NONE',  ( 6.000000000000000888, 7.347880794884120722E-16, 5.000000000000000000 ) ) ;
#90 = ORIENTED_EDGE ( 'NONE', *, *, #154, .F. ) ;
#91 = TOROIDAL_SURFACE ( 'NONE', #288, 3.500000000000000444, 0.5000000000000000000 ) ;
#92 = CARTESIAN_POINT ( 'NONE',  ( 3.500000000000000444, 0.000000000000000000, 5.000000000000002665 ) ) ;
#93 = CARTESIAN_POINT ( 'NONE',  ( 0.000000000000000000, 0.000000000000000000, 80.00000000000000000 ) ) ;
#94 = EDGE_LOOP ( 'NONE', ( #28, #37, #71, #157 ) ) ;
#95 = CALENDAR_DATE ( 2022, 10, 7 ) ;
#96 = LOCAL_TIME ( 11, 14, 42.00000000000000000, #268 ) ;
#97 = CC_DESIGN_DATE_AND_TIME_ASSIGNMENT ( #366, #100, ( #209 ) ) ;
#98 = DATE_AND_TIME ( #151, #118 ) ;
#99 = ORIENTED_EDGE ( 'NONE', *, *, #203, .F. ) ;
#100 = DATE_TIME_ROLE ( 'classification_date' ) ;
#101 = VERTEX_POINT ( 'NONE', #250 ) ;
#102 = COORDINATED_UNIVERSAL_TIME_OFFSET ( 1, 0, .AHEAD. ) ;
#103 = CARTESIAN_POINT ( 'NONE',  ( 0.000000000000000000, 0.000000000000000000, 5.000000000000000000 ) ) ;
#104 = CC_DESIGN_PERSON_AND_ORGANIZATION_ASSIGNMENT ( #333, #125, ( #69 ) ) ;
#105 = CIRCLE ( 'NONE', #304, 6.000000000000000888 ) ;
#106 = CARTESIAN_POINT ( 'NONE',  ( -6.000000000000000888, 0.000000000000000000, 5.000000000000000000 ) ) ;
#107 = CARTESIAN_POINT ( 'NONE',  ( 0.000000000000000000, 0.000000000000000000, 0.000000000000000000 ) ) ;
#108 = PLANE ( 'NONE',  #254 ) ;
#109 = DIRECTION ( 'NONE',  ( -0.000000000000000000, -0.000000000000000000, -1.000000000000000000 ) ) ;
#110 = DIRECTION ( 'NONE',  ( -0.000000000000000000, -0.000000000000000000, -1.000000000000000000 ) ) ;
#111 = CARTESIAN_POINT ( 'NONE',  ( 0.000000000000000000, 0.000000000000000000, 0.000000000000000000 ) ) ;
#112 = AXIS2_PLACEMENT_3D ( 'NONE', #103, #131, #220 ) ;
#113 = APPROVAL ( #38, 'NEURÈENÝ' ) ;
#114 = DIRECTION ( 'NONE',  ( 1.000000000000000000, 0.000000000000000000, 0.000000000000000000 ) ) ;
#115 = EDGE_CURVE ( 'NONE', #56, #206, #43, .T. ) ;
#116 = CARTESIAN_POINT ( 'NONE',  ( 0.000000000000000000, 0.000000000000000000, 5.000000000000000000 ) ) ;
#117 = ORIENTED_EDGE ( 'NONE', *, *, #115, .F. ) ;
#118 = LOCAL_TIME ( 11, 14, 42.00000000000000000, #219 ) ;
#119 = ORIENTED_EDGE ( 'NONE', *, *, #238, .T. ) ;
#120 = PERSON_AND_ORGANIZATION_ROLE ( 'creator' ) ;
#121 = VECTOR ( 'NONE', #307, 1000.000000000000000 ) ;
#122 = PERSON_AND_ORGANIZATION ( #179, #273 ) ;
#123 = ORIENTED_EDGE ( 'NONE', *, *, #300, .T. ) ;
#124 = CIRCLE ( 'NONE', #249, 2.000000000000000000 ) ;
#125 = PERSON_AND_ORGANIZATION_ROLE ( 'design_owner' ) ;
#126 = ORIENTED_EDGE ( 'NONE', *, *, #47, .F. ) ;
#127 = APPROVAL_STATUS ( 'not_yet_approved' ) ;
#128 = DIRECTION ( 'NONE',  ( 1.000000000000000000, 0.000000000000000000, 0.000000000000000000 ) ) ;
#129 = CIRCLE ( 'NONE', #351, 3.000000000000000444 ) ;
#130 = VECTOR ( 'NONE', #155, 1000.000000000000000 ) ;
#131 = DIRECTION ( 'NONE',  ( 0.000000000000000000, 0.000000000000000000, 1.000000000000000000 ) ) ;
#132 = CIRCLE ( 'NONE', #296, 3.000000000000000444 ) ;
#133 = EDGE_LOOP ( 'NONE', ( #42, #99 ) ) ;
#134 = DIRECTION ( 'NONE',  ( 1.000000000000000000, 0.000000000000000000, 0.000000000000000000 ) ) ;
#135 = DIRECTION ( 'NONE',  ( 0.000000000000000000, 0.000000000000000000, -1.000000000000000000 ) ) ;
#136 = DIRECTION ( 'NONE',  ( 0.000000000000000000, 0.000000000000000000, -1.000000000000000000 ) ) ;
#137 = ADVANCED_FACE ( 'NONE', ( #21 ), #229, .F. ) ;
#138 = CARTESIAN_POINT ( 'NONE',  ( 0.000000000000000000, 0.000000000000000000, 0.000000000000000000 ) ) ;
#139 = DIRECTION ( 'NONE',  ( -0.000000000000000000, -0.000000000000000000, -1.000000000000000000 ) ) ;
#140 = EDGE_CURVE ( 'NONE', #15, #290, #65, .T. ) ;
#141 =( NAMED_UNIT ( * ) SI_UNIT ( $, .STERADIAN. ) SOLID_ANGLE_UNIT ( ) );
#142 = VERTEX_POINT ( 'NONE', #164 ) ;
#143 = ADVANCED_FACE ( 'NONE', ( #23 ), #283, .F. ) ;
#144 = CARTESIAN_POINT ( 'NONE',  ( 0.000000000000000000, 0.000000000000000000, 5.000000000000000000 ) ) ;
#145 = ORIENTED_EDGE ( 'NONE', *, *, #213, .T. ) ;
#146 = CIRCLE ( 'NONE', #190, 6.000000000000000888 ) ;
#147 = DATE_AND_TIME ( #95, #96 ) ;
#148 = EDGE_CURVE ( 'NONE', #269, #212, #49, .T. ) ;
#149 = ORIENTED_EDGE ( 'NONE', *, *, #203, .T. ) ;
#150 = EDGE_LOOP ( 'NONE', ( #67, #31 ) ) ;
#151 = CALENDAR_DATE ( 2022, 10, 7 ) ;
#152 = EDGE_LOOP ( 'NONE', ( #90, #336, #262, #126 ) ) ;
#153 = LOCAL_TIME ( 11, 14, 42.00000000000000000, #11 ) ;
#154 = EDGE_CURVE ( 'NONE', #290, #363, #224, .T. ) ;
#155 = DIRECTION ( 'NONE',  ( 0.000000000000000000, 0.000000000000000000, -1.000000000000000000 ) ) ;
#156 = APPROVAL_ROLE ( '' ) ;
#157 = ORIENTED_EDGE ( 'NONE', *, *, #257, .F. ) ;
#158 = ADVANCED_FACE ( 'NONE', ( #161, #51 ), #202, .F. ) ;
#159 = CARTESIAN_POINT ( 'NONE',  ( -6.000000000000000888, 0.000000000000000000, 5.000000000000000000 ) ) ;
#160 = CIRCLE ( 'NONE', #84, 3.500000000000000444 ) ;
#161 = FACE_BOUND ( 'NONE', #188, .T. ) ;
#162 = CC_DESIGN_PERSON_AND_ORGANIZATION_ASSIGNMENT ( #122, #187, ( #8 ) ) ;
#163 = CARTESIAN_POINT ( 'NONE',  ( 2.000000000000000000, 2.449293598294706414E-16, 0.000000000000000000 ) ) ;
#164 = CARTESIAN_POINT ( 'NONE',  ( 3.000000000000000444, 3.673940397442060361E-16, 80.00000000000000000 ) ) ;
#165 = CLOSED_SHELL ( 'NONE', ( #143, #137, #166, #291, #263, #50, #158, #342, #171, #355, #320 ) ) ;
#166 = ADVANCED_FACE ( 'NONE', ( #26 ), #312, .T. ) ;
#167 = AXIS2_PLACEMENT_3D ( 'NONE', #356, #362, #33 ) ;
#168 = DIRECTION ( 'NONE',  ( 0.000000000000000000, 0.000000000000000000, -1.000000000000000000 ) ) ;
#169 = DIRECTION ( 'NONE',  ( 0.000000000000000000, 0.000000000000000000, 1.000000000000000000 ) ) ;
#170 = CARTESIAN_POINT ( 'NONE',  ( 0.000000000000000000, 0.000000000000000000, 0.000000000000000000 ) ) ;
#171 = ADVANCED_FACE ( 'NONE', ( #256, #313 ), #108, .T. ) ;
#172 = VECTOR ( 'NONE', #228, 1000.000000000000000 ) ;
#173 = ORIENTED_EDGE ( 'NONE', *, *, #252, .F. ) ;
#174 = FACE_OUTER_BOUND ( 'NONE', #364, .T. ) ;
#175 = LOCAL_TIME ( 11, 14, 42.00000000000000000, #270 ) ;
#176 = ORIENTED_EDGE ( 'NONE', *, *, #180, .T. ) ;
#177 = DIRECTION ( 'NONE',  ( 1.000000000000000000, 0.000000000000000000, 0.000000000000000000 ) ) ;
#178 = ORIENTED_EDGE ( 'NONE', *, *, #148, .T. ) ;
#179 = PERSON ( 'NEURÈENÝ', 'NEURÈENÝ', 'NEURÈENÝ', ('NEURÈENÝ'), ('NEURÈENÝ'), ('NEURÈENÝ') ) ;
#180 = EDGE_CURVE ( 'NONE', #101, #212, #124, .T. ) ;
#181 = DIRECTION ( 'NONE',  ( -1.000000000000000000, 0.000000000000000000, 0.000000000000000000 ) ) ;
#182 = CC_DESIGN_PERSON_AND_ORGANIZATION_ASSIGNMENT ( #70, #192, ( #209 ) ) ;
#183 = VECTOR ( 'NONE', #110, 1000.000000000000000 ) ;
#184 = ORIENTED_EDGE ( 'NONE', *, *, #326, .T. ) ;
#185 = PERSON_AND_ORGANIZATION ( #179, #273 ) ;
#186 = LINE ( 'NONE', #41, #130 ) ;
#187 = PERSON_AND_ORGANIZATION_ROLE ( 'creator' ) ;
#188 = EDGE_LOOP ( 'NONE', ( #357, #298 ) ) ;
#189 = DIRECTION ( 'NONE',  ( 1.000000000000000000, 0.000000000000000000, 0.000000000000000000 ) ) ;
#190 = AXIS2_PLACEMENT_3D ( 'NONE', #116, #261, #114 ) ;
#191 = MANIFOLD_SOLID_BREP ( 'Odebrat vysunutím3', #165 ) ;
#192 = PERSON_AND_ORGANIZATION_ROLE ( 'classification_officer' ) ;
#193 = EDGE_LOOP ( 'NONE', ( #301, #123 ) ) ;
#194 = DIRECTION ( 'NONE',  ( 0.000000000000000000, 0.000000000000000000, 1.000000000000000000 ) ) ;
#195 = DIRECTION ( 'NONE',  ( 0.000000000000000000, 0.000000000000000000, 1.000000000000000000 ) ) ;
#196 = CIRCLE ( 'NONE', #29, 2.000000000000000000 ) ;
#197 = CC_DESIGN_SECURITY_CLASSIFICATION ( #209, ( #14 ) ) ;
#198 = CARTESIAN_POINT ( 'NONE',  ( 0.000000000000000000, 0.000000000000000000, 80.00000000000000000 ) ) ;
#199 = CARTESIAN_POINT ( 'NONE',  ( 0.000000000000000000, 0.000000000000000000, 5.500000000000005329 ) ) ;
#200 = CARTESIAN_POINT ( 'NONE',  ( 3.500000000000000444, 0.000000000000000000, 5.500000000000005329 ) ) ;
#201 = APPROVAL_PERSON_ORGANIZATION ( #242, #113, #214 ) ;
#202 = PLANE ( 'NONE',  #376 ) ;
#203 = EDGE_CURVE ( 'NONE', #329, #206, #35, .T. ) ;
#204 = DIRECTION ( 'NONE',  ( 0.000000000000000000, 0.000000000000000000, 1.000000000000000000 ) ) ;
#205 = EDGE_CURVE ( 'NONE', #217, #269, #44, .T. ) ;
#206 = VERTEX_POINT ( 'NONE', #251 ) ;
#207 = APPLICATION_CONTEXT ( 'configuration controlled 3d designs of mechanical parts and assemblies' ) ;
#208 = DIRECTION ( 'NONE',  ( 0.000000000000000000, 0.000000000000000000, 1.000000000000000000 ) ) ;
#209 = SECURITY_CLASSIFICATION ( '', '', #306 ) ;
#210 = EDGE_LOOP ( 'NONE', ( #13, #18 ) ) ;
#211 = FACE_OUTER_BOUND ( 'NONE', #152, .T. ) ;
#212 = VERTEX_POINT ( 'NONE', #163 ) ;
#213 = EDGE_CURVE ( 'NONE', #212, #101, #378, .T. ) ;
#214 = APPROVAL_ROLE ( '' ) ;
#215 = ORIENTED_EDGE ( 'NONE', *, *, #260, .T. ) ;
#216 = CALENDAR_DATE ( 2022, 10, 7 ) ;
#217 = VERTEX_POINT ( 'NONE', #227 ) ;
#218 = ORIENTED_EDGE ( 'NONE', *, *, #140, .T. ) ;
#219 = COORDINATED_UNIVERSAL_TIME_OFFSET ( 1, 0, .AHEAD. ) ;
#220 = DIRECTION ( 'NONE',  ( 1.000000000000000000, 0.000000000000000000, -0.000000000000000000 ) ) ;
#221 = APPROVAL_ROLE ( '' ) ;
#222 = CARTESIAN_POINT ( 'NONE',  ( 3.000000000000000444, 3.673940397442060361E-16, 80.00000000000000000 ) ) ;
#223 = CARTESIAN_POINT ( 'NONE',  ( 0.000000000000000000, 0.000000000000000000, 80.00000000000000000 ) ) ;
#224 = CIRCLE ( 'NONE', #328, 0.4999999999999995559 ) ;
#225 = DIRECTION ( 'NONE',  ( -0.000000000000000000, -0.000000000000000000, -1.000000000000000000 ) ) ;
#226 = EDGE_CURVE ( 'NONE', #324, #363, #160, .T. ) ;
#227 = CARTESIAN_POINT ( 'NONE',  ( -2.000000000000000000, 0.000000000000000000, 80.00000000000000000 ) ) ;
#228 = DIRECTION ( 'NONE',  ( -0.000000000000000000, -0.000000000000000000, -1.000000000000000000 ) ) ;
#229 = TOROIDAL_SURFACE ( 'NONE', #344, 3.500000000000000444, 0.5000000000000000000 ) ;
#230 = DIRECTION ( 'NONE',  ( 1.000000000000000000, 0.000000000000000000, 0.000000000000000000 ) ) ;
#231 = EDGE_CURVE ( 'NONE', #142, #15, #132, .T. ) ;
#232 = AXIS2_PLACEMENT_3D ( 'NONE', #239, #265, #181 ) ;
#233 = CYLINDRICAL_SURFACE ( 'NONE', #232, 6.000000000000000888 ) ;
#234 = CARTESIAN_POINT ( 'NONE',  ( 2.000000000000000000, 2.449293598294706414E-16, 80.00000000000000000 ) ) ;
#235 = CARTESIAN_POINT ( 'NONE',  ( 0.000000000000000000, 0.000000000000000000, 80.00000000000000000 ) ) ;
#236 = DIRECTION ( 'NONE',  ( 1.000000000000000000, 0.000000000000000000, 0.000000000000000000 ) ) ;
#237 = AXIS2_PLACEMENT_3D ( 'NONE', #107, #195, #310 ) ;
#238 = EDGE_CURVE ( 'NONE', #325, #290, #311, .T. ) ;
#239 = CARTESIAN_POINT ( 'NONE',  ( 0.000000000000000000, 0.000000000000000000, 5.000000000000000000 ) ) ;
#240 = ORIENTED_EDGE ( 'NONE', *, *, #74, .F. ) ;
#241 = DATE_TIME_ROLE ( 'creation_date' ) ;
#242 = PERSON_AND_ORGANIZATION ( #179, #273 ) ;
#243 = APPROVAL_STATUS ( 'not_yet_approved' ) ;
#244 = CALENDAR_DATE ( 2022, 10, 7 ) ;
#245 = FACE_BOUND ( 'NONE', #150, .T. ) ;
#246 = SHAPE_DEFINITION_REPRESENTATION ( #327, #295 ) ;
#247 = ORIENTED_EDGE ( 'NONE', *, *, #4, .F. ) ;
#248 = CC_DESIGN_PERSON_AND_ORGANIZATION_ASSIGNMENT ( #369, #72, ( #14 ) ) ;
#249 = AXIS2_PLACEMENT_3D ( 'NONE', #352, #139, #230 ) ;
#250 = CARTESIAN_POINT ( 'NONE',  ( -2.000000000000000000, 0.000000000000000000, 0.000000000000000000 ) ) ;
#251 = CARTESIAN_POINT ( 'NONE',  ( -6.000000000000000888, 0.000000000000000000, 0.000000000000000000 ) ) ;
#252 = EDGE_CURVE ( 'NONE', #267, #329, #83, .T. ) ;
#253 = CARTESIAN_POINT ( 'NONE',  ( -3.000000000000000444, 0.000000000000000000, 80.00000000000000000 ) ) ;
#254 = AXIS2_PLACEMENT_3D ( 'NONE', #223, #343, #317 ) ;
#255 = DIRECTION ( 'NONE',  ( 1.000000000000000000, 0.000000000000000000, 0.000000000000000000 ) ) ;
#256 = FACE_BOUND ( 'NONE', #210, .T. ) ;
#257 = EDGE_CURVE ( 'NONE', #325, #324, #353, .T. ) ;
#258 = AXIS2_PLACEMENT_3D ( 'NONE', #198, #136, #346 ) ;
#259 = CYLINDRICAL_SURFACE ( 'NONE', #1, 2.000000000000000000 ) ;
#260 = EDGE_CURVE ( 'NONE', #206, #329, #105, .T. ) ;
#261 = DIRECTION ( 'NONE',  ( 0.000000000000000000, 0.000000000000000000, 1.000000000000000000 ) ) ;
#262 = ORIENTED_EDGE ( 'NONE', *, *, #257, .T. ) ;
#263 = ADVANCED_FACE ( 'NONE', ( #354 ), #233, .T. ) ;
#264 = ORIENTED_EDGE ( 'NONE', *, *, #231, .F. ) ;
#265 = DIRECTION ( 'NONE',  ( -0.000000000000000000, -0.000000000000000000, -1.000000000000000000 ) ) ;
#266 = AXIS2_PLACEMENT_3D ( 'NONE', #279, #78, #76 ) ;
#267 = VERTEX_POINT ( 'NONE', #89 ) ;
#268 = COORDINATED_UNIVERSAL_TIME_OFFSET ( 1, 0, .AHEAD. ) ;
#269 = VERTEX_POINT ( 'NONE', #234 ) ;
#270 = COORDINATED_UNIVERSAL_TIME_OFFSET ( 1, 0, .AHEAD. ) ;
#271 = ORIENTED_EDGE ( 'NONE', *, *, #74, .T. ) ;
#272 = CIRCLE ( 'NONE', #81, 3.000000000000000444 ) ;
#273 = ORGANIZATION ( 'NEURÈENÝ', 'NEURÈENÝ', '' ) ;
#274 = ORIENTED_EDGE ( 'NONE', *, *, #2, .T. ) ;
#275 = ORIENTED_EDGE ( 'NONE', *, *, #368, .F. ) ;
#276 = ORIENTED_EDGE ( 'NONE', *, *, #115, .T. ) ;
#277 = DIRECTION ( 'NONE',  ( -0.000000000000000000, -0.000000000000000000, -1.000000000000000000 ) ) ;
#278 = AXIS2_PLACEMENT_3D ( 'NONE', #144, #55, #293 ) ;
#279 = CARTESIAN_POINT ( 'NONE',  ( 0.000000000000000000, 0.000000000000000000, 80.00000000000000000 ) ) ;
#280 = DIRECTION ( 'NONE',  ( -1.000000000000000000, 1.224646799147354440E-16, 0.000000000000000000 ) ) ;
#281 = DIRECTION ( 'NONE',  ( 0.000000000000000000, 0.000000000000000000, 1.000000000000000000 ) ) ;
#282 = CC_DESIGN_APPROVAL ( #350, ( #14 ) ) ;
#283 = CYLINDRICAL_SURFACE ( 'NONE', #258, 2.000000000000000000 ) ;
#284 = CC_DESIGN_DATE_AND_TIME_ASSIGNMENT ( #335, #241, ( #8 ) ) ;
#285 = CARTESIAN_POINT ( 'NONE',  ( 2.000000000000000000, 2.449293598294706414E-16, 80.00000000000000000 ) ) ;
#286 = CARTESIAN_POINT ( 'NONE',  ( 0.000000000000000000, 0.000000000000000000, 80.00000000000000000 ) ) ;
#287 = APPLICATION_CONTEXT ( 'configuration controlled 3d designs of mechanical parts and assemblies' ) ;
#288 = AXIS2_PLACEMENT_3D ( 'NONE', #30, #208, #177 ) ;
#289 = DIRECTION ( 'NONE',  ( 0.000000000000000000, 0.000000000000000000, 1.000000000000000000 ) ) ;
#290 = VERTEX_POINT ( 'NONE', #361 ) ;
#291 = ADVANCED_FACE ( 'NONE', ( #319 ), #60, .T. ) ;
#292 = ORIENTED_EDGE ( 'NONE', *, *, #2, .F. ) ;
#293 = DIRECTION ( 'NONE',  ( -1.000000000000000000, 0.000000000000000000, 0.000000000000000000 ) ) ;
#294 = ORIENTED_EDGE ( 'NONE', *, *, #231, .T. ) ;
#295 = ADVANCED_BREP_SHAPE_REPRESENTATION ( '915b', ( #191, #347 ), #6 ) ;
#296 = AXIS2_PLACEMENT_3D ( 'NONE', #46, #348, #79 ) ;
#297 =( NAMED_UNIT ( * ) PLANE_ANGLE_UNIT ( ) SI_UNIT ( $, .RADIAN. ) );
#298 = ORIENTED_EDGE ( 'NONE', *, *, #213, .F. ) ;
#299 = APPROVAL_DATE_TIME ( #147, #345 ) ;
#300 = EDGE_CURVE ( 'NONE', #267, #56, #330, .T. ) ;
#301 = ORIENTED_EDGE ( 'NONE', *, *, #368, .T. ) ;
#302 = CALENDAR_DATE ( 2022, 10, 7 ) ;
#303 = DIRECTION ( 'NONE',  ( 0.000000000000000000, 0.000000000000000000, 1.000000000000000000 ) ) ;
#304 = AXIS2_PLACEMENT_3D ( 'NONE', #170, #204, #236 ) ;
#305 = EDGE_LOOP ( 'NONE', ( #61, #178, #145, #247 ) ) ;
#306 = SECURITY_CLASSIFICATION_LEVEL ( 'unclassified' ) ;
#307 = DIRECTION ( 'NONE',  ( -0.000000000000000000, -0.000000000000000000, -1.000000000000000000 ) ) ;
#308 = DATE_AND_TIME ( #216, #153 ) ;
#309 = DIRECTION ( 'NONE',  ( 1.000000000000000000, 0.000000000000000000, 0.000000000000000000 ) ) ;
#310 = DIRECTION ( 'NONE',  ( 1.000000000000000000, 0.000000000000000000, 0.000000000000000000 ) ) ;
#311 = CIRCLE ( 'NONE', #365, 3.000000000000000444 ) ;
#312 = CYLINDRICAL_SURFACE ( 'NONE', #266, 3.000000000000000444 ) ;
#313 = FACE_OUTER_BOUND ( 'NONE', #59, .T. ) ;
#314 = DIRECTION ( 'NONE',  ( 0.000000000000000000, -1.000000000000000000, 0.000000000000000000 ) ) ;
#315 = AXIS2_PLACEMENT_3D ( 'NONE', #93, #358, #27 ) ;
#316 = CC_DESIGN_PERSON_AND_ORGANIZATION_ASSIGNMENT ( #9, #120, ( #14 ) ) ;
#317 = DIRECTION ( 'NONE',  ( 1.000000000000000000, 0.000000000000000000, -0.000000000000000000 ) ) ;
#318 = DIRECTION ( 'NONE',  ( -1.000000000000000000, 0.000000000000000000, 0.000000000000000000 ) ) ;
#319 = FACE_OUTER_BOUND ( 'NONE', #367, .T. ) ;
#320 = ADVANCED_FACE ( 'NONE', ( #7 ), #259, .F. ) ;
#321 = UNCERTAINTY_MEASURE_WITH_UNIT (LENGTH_MEASURE( 1.000000000000000082E-05 ), #3, 'distance_accuracy_value', 'NONE');
#322 = AXIS2_PLACEMENT_3D ( 'NONE', #111, #109, #349 ) ;
#323 = DIRECTION ( 'NONE',  ( 1.000000000000000000, 0.000000000000000000, 0.000000000000000000 ) ) ;
#324 = VERTEX_POINT ( 'NONE', #92 ) ;
#325 = VERTEX_POINT ( 'NONE', #85 ) ;
#326 = EDGE_CURVE ( 'NONE', #269, #217, #196, .T. ) ;
#327 = PRODUCT_DEFINITION_SHAPE ( 'NONE', 'NONE',  #8 ) ;
#328 = AXIS2_PLACEMENT_3D ( 'NONE', #374, #80, #280 ) ;
#329 = VERTEX_POINT ( 'NONE', #86 ) ;
#330 = CIRCLE ( 'NONE', #167, 6.000000000000000888 ) ;
#331 = DIRECTION ( 'NONE',  ( 1.000000000000000000, 0.000000000000000000, 0.000000000000000000 ) ) ;
#332 = DIRECTION ( 'NONE',  ( -0.000000000000000000, -0.000000000000000000, -1.000000000000000000 ) ) ;
#333 = PERSON_AND_ORGANIZATION ( #179, #273 ) ;
#334 = ORIENTED_EDGE ( 'NONE', *, *, #300, .F. ) ;
#335 = DATE_AND_TIME ( #302, #175 ) ;
#336 = ORIENTED_EDGE ( 'NONE', *, *, #238, .F. ) ;
#337 = APPROVAL_DATE_TIME ( #308, #350 ) ;
#338 = CC_DESIGN_APPROVAL ( #113, ( #209 ) ) ;
#339 = ORIENTED_EDGE ( 'NONE', *, *, #148, .F. ) ;
#340 = MECHANICAL_CONTEXT ( 'NONE', #287, 'mechanical' ) ;
#341 = CARTESIAN_POINT ( 'NONE',  ( 0.000000000000000000, 0.000000000000000000, 5.500000000000005329 ) ) ;
#342 = ADVANCED_FACE ( 'NONE', ( #174 ), #53, .T. ) ;
#343 = DIRECTION ( 'NONE',  ( 0.000000000000000000, 0.000000000000000000, 1.000000000000000000 ) ) ;
#344 = AXIS2_PLACEMENT_3D ( 'NONE', #24, #169, #134 ) ;
#345 = APPROVAL ( #127, 'NEURÈENÝ' ) ;
#346 = DIRECTION ( 'NONE',  ( -1.000000000000000000, 0.000000000000000000, 0.000000000000000000 ) ) ;
#347 = AXIS2_PLACEMENT_3D ( 'NONE', #5, #16, #331 ) ;
#348 = DIRECTION ( 'NONE',  ( 0.000000000000000000, 0.000000000000000000, 1.000000000000000000 ) ) ;
#349 = DIRECTION ( 'NONE',  ( 1.000000000000000000, 0.000000000000000000, 0.000000000000000000 ) ) ;
#350 = APPROVAL ( #243, 'NEURÈENÝ' ) ;
#351 = AXIS2_PLACEMENT_3D ( 'NONE', #341, #194, #309 ) ;
#352 = CARTESIAN_POINT ( 'NONE',  ( 0.000000000000000000, 0.000000000000000000, 0.000000000000000000 ) ) ;
#353 = CIRCLE ( 'NONE', #20, 0.5000000000000004441 ) ;
#354 = FACE_OUTER_BOUND ( 'NONE', #34, .T. ) ;
#355 = ADVANCED_FACE ( 'NONE', ( #211 ), #91, .F. ) ;
#356 = CARTESIAN_POINT ( 'NONE',  ( 0.000000000000000000, 0.000000000000000000, 5.000000000000000000 ) ) ;
#357 = ORIENTED_EDGE ( 'NONE', *, *, #180, .F. ) ;
#358 = DIRECTION ( 'NONE',  ( -0.000000000000000000, -0.000000000000000000, -1.000000000000000000 ) ) ;
#359 = ORIENTED_EDGE ( 'NONE', *, *, #140, .F. ) ;
#360 = CC_DESIGN_APPROVAL ( #345, ( #8 ) ) ;
#361 = CARTESIAN_POINT ( 'NONE',  ( -3.000000000000000444, 0.000000000000000000, 5.500000000000005329 ) ) ;
#362 = DIRECTION ( 'NONE',  ( 0.000000000000000000, 0.000000000000000000, 1.000000000000000000 ) ) ;
#363 = VERTEX_POINT ( 'NONE', #62 ) ;
#364 = EDGE_LOOP ( 'NONE', ( #240, #292, #218, #32 ) ) ;
#365 = AXIS2_PLACEMENT_3D ( 'NONE', #199, #48, #255 ) ;
#366 = DATE_AND_TIME ( #244, #40 ) ;
#367 = EDGE_LOOP ( 'NONE', ( #334, #87, #149, #117 ) ) ;
#368 = EDGE_CURVE ( 'NONE', #56, #267, #146, .T. ) ;
#369 = PERSON_AND_ORGANIZATION ( #179, #273 ) ;
#370 = EDGE_LOOP ( 'NONE', ( #264, #271, #119, #359 ) ) ;
#371 = PLANE ( 'NONE',  #112 ) ;
#372 = APPROVAL_PERSON_ORGANIZATION ( #66, #345, #156 ) ;
#373 = FACE_OUTER_BOUND ( 'NONE', #193, .T. ) ;
#374 = CARTESIAN_POINT ( 'NONE',  ( -3.500000000000000444, 4.286263797015737088E-16, 5.500000000000005329 ) ) ;
#375 = CARTESIAN_POINT ( 'NONE',  ( 0.000000000000000000, 0.000000000000000000, 5.000000000000000000 ) ) ;
#376 = AXIS2_PLACEMENT_3D ( 'NONE', #138, #281, #45 ) ;
#377 = DIRECTION ( 'NONE',  ( 1.000000000000000000, 0.000000000000000000, 0.000000000000000000 ) ) ;
#378 = CIRCLE ( 'NONE', #322, 2.000000000000000000 ) ;
#379 = CARTESIAN_POINT ( 'NONE',  ( 6.000000000000000888, 7.347880794884120722E-16, 5.000000000000000000 ) ) ;
#380 = DIRECTION ( 'NONE',  ( 0.000000000000000000, 0.000000000000000000, 1.000000000000000000 ) ) ;
#381 = DIRECTION ( 'NONE',  ( 0.000000000000000000, 0.000000000000000000, -1.000000000000000000 ) ) ;
ENDSEC;
END-ISO-10303-21;
