ISO-10303-21;
HEADER;
FILE_DESCRIPTION (( 'STEP AP203' ),
    '1' );
FILE_NAME ('ed6f.STEP',
    '2022-07-10T09:18:47',
    ( '' ),
    ( '' ),
    'SwSTEP 2.0',
    'SolidWorks 2019',
    '' );
FILE_SCHEMA (( 'CONFIG_CONTROL_DESIGN' ));
ENDSEC;

DATA;
#1 = CARTESIAN_POINT ( 'NONE',  ( 2.799999999999999822, 0.000000000000000000, 2.999999999999998668 ) ) ;
#2 = VERTEX_POINT ( 'NONE', #108 ) ;
#3 = CARTESIAN_POINT ( 'NONE',  ( -1.250000000000000000, 0.000000000000000000, 0.000000000000000000 ) ) ;
#4 = EDGE_LOOP ( 'NONE', ( #215, #244 ) ) ;
#5 = CALENDAR_DATE ( 2022, 10, 7 ) ;
#6 = CYLINDRICAL_SURFACE ( 'NONE', #348, 5.000000000000000000 ) ;
#7 = VERTEX_POINT ( 'NONE', #339 ) ;
#8 = CIRCLE ( 'NONE', #222, 2.500000000000000000 ) ;
#9 = DIRECTION ( 'NONE',  ( -0.000000000000000000, -0.000000000000000000, -1.000000000000000000 ) ) ;
#10 = ORIENTED_EDGE ( 'NONE', *, *, #47, .T. ) ;
#11 = CC_DESIGN_DATE_AND_TIME_ASSIGNMENT ( #56, #313, ( #17 ) ) ;
#12 = DIRECTION ( 'NONE',  ( -1.000000000000000000, 0.000000000000000000, 0.000000000000000000 ) ) ;
#13 = ORIENTED_EDGE ( 'NONE', *, *, #187, .F. ) ;
#14 = EDGE_CURVE ( 'NONE', #269, #225, #192, .T. ) ;
#15 = CARTESIAN_POINT ( 'NONE',  ( 0.000000000000000000, 0.000000000000000000, 103.0000000000000142 ) ) ;
#16 = DIRECTION ( 'NONE',  ( 1.000000000000000000, 0.000000000000000000, 0.000000000000000000 ) ) ;
#17 = PRODUCT_DEFINITION ( 'NEZNÁMÝ', '', #236, #328 ) ;
#18 = AXIS2_PLACEMENT_3D ( 'NONE', #343, #307, #230 ) ;
#19 = AXIS2_PLACEMENT_3D ( 'NONE', #243, #242, #134 ) ;
#20 = EDGE_CURVE ( 'NONE', #7, #2, #270, .T. ) ;
#21 = CARTESIAN_POINT ( 'NONE',  ( 1.250000000000000000, 1.530808498934191571E-16, 103.0000000000000142 ) ) ;
#22 = DIRECTION ( 'NONE',  ( 1.000000000000000000, 0.000000000000000000, -0.000000000000000000 ) ) ;
#23 = LINE ( 'NONE', #21, #228 ) ;
#24 = ORIENTED_EDGE ( 'NONE', *, *, #106, .F. ) ;
#25 = DIRECTION ( 'NONE',  ( 1.000000000000000000, 0.000000000000000000, 0.000000000000000000 ) ) ;
#26 = DIRECTION ( 'NONE',  ( -1.000000000000000000, 0.000000000000000000, 0.000000000000000000 ) ) ;
#27 = DATE_AND_TIME ( #283, #233 ) ;
#28 = FACE_OUTER_BOUND ( 'NONE', #122, .T. ) ;
#29 =( GEOMETRIC_REPRESENTATION_CONTEXT ( 3 ) GLOBAL_UNCERTAINTY_ASSIGNED_CONTEXT ( ( #264 ) ) GLOBAL_UNIT_ASSIGNED_CONTEXT ( ( #164, #163, #271 ) ) REPRESENTATION_CONTEXT ( 'NONE', 'WORKASPACE' ) );
#30 = ADVANCED_FACE ( 'NONE', ( #211 ), #64, .F. ) ;
#31 = APPROVAL_PERSON_ORGANIZATION ( #86, #268, #201 ) ;
#32 = APPROVAL_DATE_TIME ( #27, #268 ) ;
#33 = CARTESIAN_POINT ( 'NONE',  ( 0.000000000000000000, 0.000000000000000000, 3.299999999999997158 ) ) ;
#34 = APPROVAL_STATUS ( 'not_yet_approved' ) ;
#35 = DIRECTION ( 'NONE',  ( 0.000000000000000000, 0.000000000000000000, 1.000000000000000000 ) ) ;
#36 = ORIENTED_EDGE ( 'NONE', *, *, #117, .F. ) ;
#37 = CIRCLE ( 'NONE', #289, 2.500000000000000000 ) ;
#38 = CARTESIAN_POINT ( 'NONE',  ( -2.799999999999999822, 3.429011037612588783E-16, 3.299999999999997158 ) ) ;
#39 = FACE_OUTER_BOUND ( 'NONE', #217, .T. ) ;
#40 = CARTESIAN_POINT ( 'NONE',  ( 0.000000000000000000, 0.000000000000000000, 3.000000000000000000 ) ) ;
#41 = ORIENTED_EDGE ( 'NONE', *, *, #44, .T. ) ;
#42 = APPROVAL_DATE_TIME ( #260, #318 ) ;
#43 = CARTESIAN_POINT ( 'NONE',  ( -2.500000000000000000, 0.000000000000000000, 3.299999999999997158 ) ) ;
#44 = EDGE_CURVE ( 'NONE', #292, #290, #172, .T. ) ;
#45 = CYLINDRICAL_SURFACE ( 'NONE', #366, 2.500000000000000000 ) ;
#46 = ORIENTED_EDGE ( 'NONE', *, *, #346, .F. ) ;
#47 = EDGE_CURVE ( 'NONE', #290, #199, #8, .T. ) ;
#48 = PERSON ( 'NEURÈENÝ', 'NEURÈENÝ', 'NEURÈENÝ', ('NEURÈENÝ'), ('NEURÈENÝ'), ('NEURÈENÝ') ) ;
#49 = APPROVAL_PERSON_ORGANIZATION ( #356, #318, #120 ) ;
#50 = CC_DESIGN_PERSON_AND_ORGANIZATION_ASSIGNMENT ( #247, #375, ( #17 ) ) ;
#51 = LINE ( 'NONE', #131, #143 ) ;
#52 = ORIENTED_EDGE ( 'NONE', *, *, #315, .T. ) ;
#53 = APPLICATION_PROTOCOL_DEFINITION ( 'international standard', 'config_control_design', 1994, #58 ) ;
#54 = CIRCLE ( 'NONE', #224, 2.799999999999999822 ) ;
#55 = EDGE_CURVE ( 'NONE', #254, #97, #261, .T. ) ;
#56 = DATE_AND_TIME ( #113, #302 ) ;
#57 = FACE_OUTER_BOUND ( 'NONE', #320, .T. ) ;
#58 = APPLICATION_CONTEXT ( 'configuration controlled 3d designs of mechanical parts and assemblies' ) ;
#59 = EDGE_CURVE ( 'NONE', #151, #199, #347, .T. ) ;
#60 = CARTESIAN_POINT ( 'NONE',  ( 1.250000000000000000, 1.530808498934191571E-16, 0.000000000000000000 ) ) ;
#61 = CLOSED_SHELL ( 'NONE', ( #96, #352, #141, #281, #294, #373, #272, #238, #213, #301, #30 ) ) ;
#62 = PRODUCT ( 'ed6f', 'ed6f', '', ( #91 ) ) ;
#63 = COORDINATED_UNIVERSAL_TIME_OFFSET ( 1, 0, .AHEAD. ) ;
#64 = CYLINDRICAL_SURFACE ( 'NONE', #170, 1.250000000000000000 ) ;
#65 = ORIENTED_EDGE ( 'NONE', *, *, #20, .F. ) ;
#66 = CARTESIAN_POINT ( 'NONE',  ( 0.000000000000000000, 0.000000000000000000, 0.000000000000000000 ) ) ;
#67 = EDGE_LOOP ( 'NONE', ( #115, #157, #297, #350 ) ) ;
#68 = DATE_TIME_ROLE ( 'classification_date' ) ;
#69 = CARTESIAN_POINT ( 'NONE',  ( 0.000000000000000000, 0.000000000000000000, 3.000000000000000000 ) ) ;
#70 = FACE_OUTER_BOUND ( 'NONE', #212, .T. ) ;
#71 = EDGE_LOOP ( 'NONE', ( #287, #220, #41, #10 ) ) ;
#72 = AXIS2_PLACEMENT_3D ( 'NONE', #140, #249, #112 ) ;
#73 = FACE_OUTER_BOUND ( 'NONE', #267, .T. ) ;
#74 = DIRECTION ( 'NONE',  ( -1.000000000000000000, 1.224646799147353207E-16, 0.000000000000000000 ) ) ;
#75 = ORIENTED_EDGE ( 'NONE', *, *, #333, .F. ) ;
#76 = VECTOR ( 'NONE', #314, 1000.000000000000000 ) ;
#77 = ORIENTED_EDGE ( 'NONE', *, *, #55, .T. ) ;
#78 = CARTESIAN_POINT ( 'NONE',  ( 0.000000000000000000, 0.000000000000000000, 3.000000000000000000 ) ) ;
#79 = EDGE_LOOP ( 'NONE', ( #329, #46 ) ) ;
#80 = EDGE_CURVE ( 'NONE', #292, #151, #37, .T. ) ;
#81 = FACE_BOUND ( 'NONE', #94, .T. ) ;
#82 = VECTOR ( 'NONE', #144, 1000.000000000000000 ) ;
#83 = CIRCLE ( 'NONE', #214, 5.000000000000000000 ) ;
#84 = CARTESIAN_POINT ( 'NONE',  ( 0.000000000000000000, 0.000000000000000000, 0.000000000000000000 ) ) ;
#85 = VERTEX_POINT ( 'NONE', #280 ) ;
#86 = PERSON_AND_ORGANIZATION ( #48, #250 ) ;
#87 = CARTESIAN_POINT ( 'NONE',  ( -5.000000000000000000, 0.000000000000000000, 3.000000000000000000 ) ) ;
#88 = EDGE_CURVE ( 'NONE', #199, #290, #165, .T. ) ;
#89 = DIRECTION ( 'NONE',  ( -0.000000000000000000, -0.000000000000000000, -1.000000000000000000 ) ) ;
#90 = LINE ( 'NONE', #204, #195 ) ;
#91 = MECHANICAL_CONTEXT ( 'NONE', #206, 'mechanical' ) ;
#92 = DIRECTION ( 'NONE',  ( 1.000000000000000000, 0.000000000000000000, 0.000000000000000000 ) ) ;
#93 = AXIS2_PLACEMENT_3D ( 'NONE', #183, #180, #291 ) ;
#94 = EDGE_LOOP ( 'NONE', ( #52, #246 ) ) ;
#95 = PLANE ( 'NONE',  #93 ) ;
#96 = ADVANCED_FACE ( 'NONE', ( #28 ), #279, .F. ) ;
#97 = VERTEX_POINT ( 'NONE', #60 ) ;
#98 = COORDINATED_UNIVERSAL_TIME_OFFSET ( 1, 0, .AHEAD. ) ;
#99 = AXIS2_PLACEMENT_3D ( 'NONE', #138, #146, #166 ) ;
#100 = CARTESIAN_POINT ( 'NONE',  ( -2.500000000000000000, 0.000000000000000000, 103.0000000000000142 ) ) ;
#101 = TOROIDAL_SURFACE ( 'NONE', #171, 2.799999999999999822, 0.2999999999999999889 ) ;
#102 = DIRECTION ( 'NONE',  ( 1.000000000000000000, 0.000000000000000000, -0.000000000000000000 ) ) ;
#103 = ORIENTED_EDGE ( 'NONE', *, *, #235, .F. ) ;
#104 = DIRECTION ( 'NONE',  ( 0.000000000000000000, 0.000000000000000000, 1.000000000000000000 ) ) ;
#105 = DIRECTION ( 'NONE',  ( 1.000000000000000000, 0.000000000000000000, 0.000000000000000000 ) ) ;
#106 = EDGE_CURVE ( 'NONE', #358, #85, #155, .T. ) ;
#107 = VERTEX_POINT ( 'NONE', #1 ) ;
#108 = CARTESIAN_POINT ( 'NONE',  ( 5.000000000000000000, 6.123233995736766282E-16, 3.000000000000000000 ) ) ;
#109 = AXIS2_PLACEMENT_3D ( 'NONE', #349, #344, #376 ) ;
#110 = EDGE_CURVE ( 'NONE', #207, #107, #54, .T. ) ;
#111 = APPROVAL_STATUS ( 'not_yet_approved' ) ;
#112 = DIRECTION ( 'NONE',  ( -1.000000000000000000, 0.000000000000000000, 0.000000000000000000 ) ) ;
#113 = CALENDAR_DATE ( 2022, 10, 7 ) ;
#114 = DIRECTION ( 'NONE',  ( 1.000000000000000000, 0.000000000000000000, 0.000000000000000000 ) ) ;
#115 = ORIENTED_EDGE ( 'NONE', *, *, #47, .F. ) ;
#116 = CARTESIAN_POINT ( 'NONE',  ( 2.500000000000000000, 3.061616997868383141E-16, 103.0000000000000142 ) ) ;
#117 = EDGE_CURVE ( 'NONE', #7, #358, #232, .T. ) ;
#118 = CARTESIAN_POINT ( 'NONE',  ( 0.000000000000000000, 0.000000000000000000, 103.0000000000000142 ) ) ;
#119 = LOCAL_TIME ( 11, 18, 47.00000000000000000, #262 ) ;
#120 = APPROVAL_ROLE ( '' ) ;
#121 = PLANE ( 'NONE',  #335 ) ;
#122 = EDGE_LOOP ( 'NONE', ( #316, #148, #299, #311 ) ) ;
#123 = CALENDAR_DATE ( 2022, 10, 7 ) ;
#124 = DIRECTION ( 'NONE',  ( -1.000000000000000000, 0.000000000000000000, 0.000000000000000000 ) ) ;
#125 = ORIENTED_EDGE ( 'NONE', *, *, #88, .F. ) ;
#126 = VECTOR ( 'NONE', #284, 1000.000000000000000 ) ;
#127 = AXIS2_PLACEMENT_3D ( 'NONE', #69, #239, #216 ) ;
#128 = AXIS2_PLACEMENT_3D ( 'NONE', #167, #229, #25 ) ;
#129 = FACE_OUTER_BOUND ( 'NONE', #181, .T. ) ;
#130 = DIRECTION ( 'NONE',  ( 1.000000000000000000, 0.000000000000000000, 0.000000000000000000 ) ) ;
#131 = CARTESIAN_POINT ( 'NONE',  ( 5.000000000000000000, 6.123233995736766282E-16, 3.000000000000000000 ) ) ;
#132 = EDGE_CURVE ( 'NONE', #225, #254, #90, .T. ) ;
#133 = DIRECTION ( 'NONE',  ( 0.000000000000000000, 0.000000000000000000, 1.000000000000000000 ) ) ;
#134 = DIRECTION ( 'NONE',  ( 1.000000000000000000, 0.000000000000000000, 0.000000000000000000 ) ) ;
#135 = ORIENTED_EDGE ( 'NONE', *, *, #44, .F. ) ;
#136 = DATE_AND_TIME ( #174, #334 ) ;
#137 = CC_DESIGN_PERSON_AND_ORGANIZATION_ASSIGNMENT ( #139, #285, ( #173 ) ) ;
#138 = CARTESIAN_POINT ( 'NONE',  ( 0.000000000000000000, 0.000000000000000000, 0.000000000000000000 ) ) ;
#139 = PERSON_AND_ORGANIZATION ( #48, #250 ) ;
#140 = CARTESIAN_POINT ( 'NONE',  ( 0.000000000000000000, 0.000000000000000000, 103.0000000000000142 ) ) ;
#141 = ADVANCED_FACE ( 'NONE', ( #57 ), #168, .T. ) ;
#142 = PERSON_AND_ORGANIZATION ( #48, #250 ) ;
#143 = VECTOR ( 'NONE', #275, 1000.000000000000000 ) ;
#144 = DIRECTION ( 'NONE',  ( -0.000000000000000000, -0.000000000000000000, -1.000000000000000000 ) ) ;
#145 = TOROIDAL_SURFACE ( 'NONE', #208, 2.799999999999999822, 0.2999999999999999889 ) ;
#146 = DIRECTION ( 'NONE',  ( -0.000000000000000000, -0.000000000000000000, -1.000000000000000000 ) ) ;
#147 = DIRECTION ( 'NONE',  ( 1.000000000000000000, 0.000000000000000000, 0.000000000000000000 ) ) ;
#148 = ORIENTED_EDGE ( 'NONE', *, *, #363, .T. ) ;
#149 = DATE_AND_TIME ( #5, #282 ) ;
#150 = FACE_OUTER_BOUND ( 'NONE', #71, .T. ) ;
#151 = VERTEX_POINT ( 'NONE', #359 ) ;
#152 = EDGE_LOOP ( 'NONE', ( #295, #380 ) ) ;
#153 = DIRECTION ( 'NONE',  ( -0.000000000000000000, -0.000000000000000000, -1.000000000000000000 ) ) ;
#154 = DIRECTION ( 'NONE',  ( 0.000000000000000000, 0.000000000000000000, 1.000000000000000000 ) ) ;
#155 = CIRCLE ( 'NONE', #354, 5.000000000000000000 ) ;
#156 = ADVANCED_BREP_SHAPE_REPRESENTATION ( 'ed6f', ( #197, #128 ), #29 ) ;
#157 = ORIENTED_EDGE ( 'NONE', *, *, #235, .T. ) ;
#158 = CIRCLE ( 'NONE', #210, 0.2999999999999999334 ) ;
#159 = CARTESIAN_POINT ( 'NONE',  ( -2.799999999999999822, 3.429011037612589276E-16, 2.999999999999998668 ) ) ;
#160 = CARTESIAN_POINT ( 'NONE',  ( 0.000000000000000000, 0.000000000000000000, 0.000000000000000000 ) ) ;
#161 = ORIENTED_EDGE ( 'NONE', *, *, #110, .F. ) ;
#162 = APPROVAL_PERSON_ORGANIZATION ( #169, #368, #338 ) ;
#163 =( NAMED_UNIT ( * ) PLANE_ANGLE_UNIT ( ) SI_UNIT ( $, .RADIAN. ) );
#164 =( LENGTH_UNIT ( ) NAMED_UNIT ( * ) SI_UNIT ( .MILLI., .METRE. ) );
#165 = CIRCLE ( 'NONE', #177, 2.500000000000000000 ) ;
#166 = DIRECTION ( 'NONE',  ( 1.000000000000000000, 0.000000000000000000, 0.000000000000000000 ) ) ;
#167 = CARTESIAN_POINT ( 'NONE',  ( 0.000000000000000000, 0.000000000000000000, 0.000000000000000000 ) ) ;
#168 = CYLINDRICAL_SURFACE ( 'NONE', #72, 2.500000000000000000 ) ;
#169 = PERSON_AND_ORGANIZATION ( #48, #250 ) ;
#170 = AXIS2_PLACEMENT_3D ( 'NONE', #372, #227, #26 ) ;
#171 = AXIS2_PLACEMENT_3D ( 'NONE', #189, #133, #105 ) ;
#172 = LINE ( 'NONE', #278, #126 ) ;
#173 = SECURITY_CLASSIFICATION ( '', '', #345 ) ;
#174 = CALENDAR_DATE ( 2022, 10, 7 ) ;
#175 = ORIENTED_EDGE ( 'NONE', *, *, #363, .F. ) ;
#176 = FACE_BOUND ( 'NONE', #369, .T. ) ;
#177 = AXIS2_PLACEMENT_3D ( 'NONE', #253, #248, #202 ) ;
#178 = ORIENTED_EDGE ( 'NONE', *, *, #117, .T. ) ;
#179 = PRODUCT_DEFINITION_SHAPE ( 'NONE', 'NONE',  #17 ) ;
#180 = DIRECTION ( 'NONE',  ( 0.000000000000000000, 0.000000000000000000, 1.000000000000000000 ) ) ;
#181 = EDGE_LOOP ( 'NONE', ( #103, #125, #305, #161 ) ) ;
#182 = APPROVAL_STATUS ( 'not_yet_approved' ) ;
#183 = CARTESIAN_POINT ( 'NONE',  ( 0.000000000000000000, 0.000000000000000000, 0.000000000000000000 ) ) ;
#184 = EDGE_LOOP ( 'NONE', ( #175, #306, #360, #77 ) ) ;
#185 = CARTESIAN_POINT ( 'NONE',  ( -1.250000000000000000, 0.000000000000000000, 103.0000000000000142 ) ) ;
#186 = CC_DESIGN_SECURITY_CLASSIFICATION ( #173, ( #236 ) ) ;
#187 = EDGE_CURVE ( 'NONE', #151, #292, #274, .T. ) ;
#188 = ORIENTED_EDGE ( 'NONE', *, *, #59, .T. ) ;
#189 = CARTESIAN_POINT ( 'NONE',  ( 0.000000000000000000, 0.000000000000000000, 3.299999999999997158 ) ) ;
#190 = ORIENTED_EDGE ( 'NONE', *, *, #377, .F. ) ;
#191 = PRODUCT_RELATED_PRODUCT_CATEGORY ( 'detail', '', ( #62 ) ) ;
#192 = CIRCLE ( 'NONE', #256, 1.250000000000000000 ) ;
#193 = EDGE_CURVE ( 'NONE', #2, #7, #237, .T. ) ;
#194 = AXIS2_PLACEMENT_3D ( 'NONE', #40, #153, #12 ) ;
#195 = VECTOR ( 'NONE', #209, 1000.000000000000000 ) ;
#196 = AXIS2_PLACEMENT_3D ( 'NONE', #78, #332, #22 ) ;
#197 = MANIFOLD_SOLID_BREP ( 'Odebrat vysunutím3', #61 ) ;
#198 = FACE_OUTER_BOUND ( 'NONE', #67, .T. ) ;
#199 = VERTEX_POINT ( 'NONE', #357 ) ;
#200 = CARTESIAN_POINT ( 'NONE',  ( 0.000000000000000000, 0.000000000000000000, 103.0000000000000142 ) ) ;
#201 = APPROVAL_ROLE ( '' ) ;
#202 = DIRECTION ( 'NONE',  ( 1.000000000000000000, 0.000000000000000000, 0.000000000000000000 ) ) ;
#203 = CC_DESIGN_DATE_AND_TIME_ASSIGNMENT ( #149, #68, ( #173 ) ) ;
#204 = CARTESIAN_POINT ( 'NONE',  ( -1.250000000000000000, 0.000000000000000000, 103.0000000000000142 ) ) ;
#205 = APPLICATION_PROTOCOL_DEFINITION ( 'international standard', 'config_control_design', 1994, #206 ) ;
#206 = APPLICATION_CONTEXT ( 'configuration controlled 3d designs of mechanical parts and assemblies' ) ;
#207 = VERTEX_POINT ( 'NONE', #159 ) ;
#208 = AXIS2_PLACEMENT_3D ( 'NONE', #221, #276, #130 ) ;
#209 = DIRECTION ( 'NONE',  ( 0.000000000000000000, 0.000000000000000000, -1.000000000000000000 ) ) ;
#210 = AXIS2_PLACEMENT_3D ( 'NONE', #263, #234, #353 ) ;
#211 = FACE_OUTER_BOUND ( 'NONE', #184, .T. ) ;
#212 = EDGE_LOOP ( 'NONE', ( #24, #190 ) ) ;
#213 = ADVANCED_FACE ( 'NONE', ( #176, #325 ), #121, .T. ) ;
#214 = AXIS2_PLACEMENT_3D ( 'NONE', #160, #104, #16 ) ;
#215 = ORIENTED_EDGE ( 'NONE', *, *, #20, .T. ) ;
#216 = DIRECTION ( 'NONE',  ( 1.000000000000000000, 0.000000000000000000, 0.000000000000000000 ) ) ;
#217 = EDGE_LOOP ( 'NONE', ( #257, #277, #226, #36 ) ) ;
#218 = PLANE ( 'NONE',  #196 ) ;
#219 = CC_DESIGN_PERSON_AND_ORGANIZATION_ASSIGNMENT ( #378, #231, ( #236 ) ) ;
#220 = ORIENTED_EDGE ( 'NONE', *, *, #80, .F. ) ;
#221 = CARTESIAN_POINT ( 'NONE',  ( 0.000000000000000000, 0.000000000000000000, 3.299999999999997158 ) ) ;
#222 = AXIS2_PLACEMENT_3D ( 'NONE', #33, #286, #147 ) ;
#223 = CARTESIAN_POINT ( 'NONE',  ( 0.000000000000000000, 0.000000000000000000, 3.000000000000000000 ) ) ;
#224 = AXIS2_PLACEMENT_3D ( 'NONE', #340, #89, #379 ) ;
#225 = VERTEX_POINT ( 'NONE', #185 ) ;
#226 = ORIENTED_EDGE ( 'NONE', *, *, #377, .T. ) ;
#227 = DIRECTION ( 'NONE',  ( 0.000000000000000000, 0.000000000000000000, -1.000000000000000000 ) ) ;
#228 = VECTOR ( 'NONE', #367, 1000.000000000000000 ) ;
#229 = DIRECTION ( 'NONE',  ( 0.000000000000000000, 0.000000000000000000, 1.000000000000000000 ) ) ;
#230 = DIRECTION ( 'NONE',  ( -1.000000000000000000, 0.000000000000000000, 0.000000000000000000 ) ) ;
#231 = PERSON_AND_ORGANIZATION_ROLE ( 'design_supplier' ) ;
#232 = LINE ( 'NONE', #87, #82 ) ;
#233 = LOCAL_TIME ( 11, 18, 47.00000000000000000, #342 ) ;
#234 = DIRECTION ( 'NONE',  ( 0.000000000000000000, -1.000000000000000000, 0.000000000000000000 ) ) ;
#235 = EDGE_CURVE ( 'NONE', #290, #207, #265, .T. ) ;
#236 = PRODUCT_DEFINITION_FORMATION_WITH_SPECIFIED_SOURCE ( 'LIBOVOLNÝ', '', #62, .NOT_KNOWN. ) ;
#237 = CIRCLE ( 'NONE', #127, 5.000000000000000000 ) ;
#238 = ADVANCED_FACE ( 'NONE', ( #150 ), #45, .T. ) ;
#239 = DIRECTION ( 'NONE',  ( 0.000000000000000000, 0.000000000000000000, 1.000000000000000000 ) ) ;
#240 = DIRECTION ( 'NONE',  ( 0.000000000000000000, 0.000000000000000000, 1.000000000000000000 ) ) ;
#241 = AXIS2_PLACEMENT_3D ( 'NONE', #38, #298, #74 ) ;
#242 = DIRECTION ( 'NONE',  ( 0.000000000000000000, 0.000000000000000000, 1.000000000000000000 ) ) ;
#243 = CARTESIAN_POINT ( 'NONE',  ( 0.000000000000000000, 0.000000000000000000, 103.0000000000000142 ) ) ;
#244 = ORIENTED_EDGE ( 'NONE', *, *, #193, .T. ) ;
#245 = EDGE_CURVE ( 'NONE', #199, #107, #158, .T. ) ;
#246 = ORIENTED_EDGE ( 'NONE', *, *, #110, .T. ) ;
#247 = PERSON_AND_ORGANIZATION ( #48, #250 ) ;
#248 = DIRECTION ( 'NONE',  ( 0.000000000000000000, 0.000000000000000000, 1.000000000000000000 ) ) ;
#249 = DIRECTION ( 'NONE',  ( -0.000000000000000000, -0.000000000000000000, -1.000000000000000000 ) ) ;
#250 = ORGANIZATION ( 'NEURÈENÝ', 'NEURÈENÝ', '' ) ;
#251 = APPROVAL_DATE_TIME ( #136, #368 ) ;
#252 = PERSON_AND_ORGANIZATION_ROLE ( 'creator' ) ;
#253 = CARTESIAN_POINT ( 'NONE',  ( 0.000000000000000000, 0.000000000000000000, 3.299999999999997158 ) ) ;
#254 = VERTEX_POINT ( 'NONE', #3 ) ;
#255 = CC_DESIGN_PERSON_AND_ORGANIZATION_ASSIGNMENT ( #142, #371, ( #62 ) ) ;
#256 = AXIS2_PLACEMENT_3D ( 'NONE', #200, #154, #310 ) ;
#257 = ORIENTED_EDGE ( 'NONE', *, *, #193, .F. ) ;
#258 = DIRECTION ( 'NONE',  ( -1.000000000000000000, 0.000000000000000000, 0.000000000000000000 ) ) ;
#259 = DIRECTION ( 'NONE',  ( 0.000000000000000000, 0.000000000000000000, 1.000000000000000000 ) ) ;
#260 = DATE_AND_TIME ( #123, #119 ) ;
#261 = CIRCLE ( 'NONE', #99, 1.250000000000000000 ) ;
#262 = COORDINATED_UNIVERSAL_TIME_OFFSET ( 1, 0, .AHEAD. ) ;
#263 = CARTESIAN_POINT ( 'NONE',  ( 2.799999999999999822, 0.000000000000000000, 3.299999999999997158 ) ) ;
#264 = UNCERTAINTY_MEASURE_WITH_UNIT (LENGTH_MEASURE( 1.000000000000000082E-05 ), #164, 'distance_accuracy_value', 'NONE');
#265 = CIRCLE ( 'NONE', #241, 0.2999999999999999334 ) ;
#266 = ORIENTED_EDGE ( 'NONE', *, *, #341, .F. ) ;
#267 = EDGE_LOOP ( 'NONE', ( #75, #65, #178, #324 ) ) ;
#268 = APPROVAL ( #34, 'NEURÈENÝ' ) ;
#269 = VERTEX_POINT ( 'NONE', #319 ) ;
#270 = CIRCLE ( 'NONE', #109, 5.000000000000000000 ) ;
#271 =( NAMED_UNIT ( * ) SI_UNIT ( $, .STERADIAN. ) SOLID_ANGLE_UNIT ( ) );
#272 = ADVANCED_FACE ( 'NONE', ( #322, #70 ), #95, .F. ) ;
#273 = AXIS2_PLACEMENT_3D ( 'NONE', #84, #364, #300 ) ;
#274 = CIRCLE ( 'NONE', #361, 2.500000000000000000 ) ;
#275 = DIRECTION ( 'NONE',  ( -0.000000000000000000, -0.000000000000000000, -1.000000000000000000 ) ) ;
#276 = DIRECTION ( 'NONE',  ( 0.000000000000000000, 0.000000000000000000, 1.000000000000000000 ) ) ;
#277 = ORIENTED_EDGE ( 'NONE', *, *, #333, .T. ) ;
#278 = CARTESIAN_POINT ( 'NONE',  ( -2.500000000000000000, 0.000000000000000000, 103.0000000000000142 ) ) ;
#279 = CYLINDRICAL_SURFACE ( 'NONE', #18, 1.250000000000000000 ) ;
#280 = CARTESIAN_POINT ( 'NONE',  ( 5.000000000000000000, 6.123233995736766282E-16, 0.000000000000000000 ) ) ;
#281 = ADVANCED_FACE ( 'NONE', ( #39 ), #6, .T. ) ;
#282 = LOCAL_TIME ( 11, 18, 47.00000000000000000, #98 ) ;
#283 = CALENDAR_DATE ( 2022, 10, 7 ) ;
#284 = DIRECTION ( 'NONE',  ( -0.000000000000000000, -0.000000000000000000, -1.000000000000000000 ) ) ;
#285 = PERSON_AND_ORGANIZATION_ROLE ( 'classification_officer' ) ;
#286 = DIRECTION ( 'NONE',  ( 0.000000000000000000, 0.000000000000000000, 1.000000000000000000 ) ) ;
#287 = ORIENTED_EDGE ( 'NONE', *, *, #59, .F. ) ;
#288 = DIRECTION ( 'NONE',  ( 1.000000000000000000, 0.000000000000000000, 0.000000000000000000 ) ) ;
#289 = AXIS2_PLACEMENT_3D ( 'NONE', #118, #35, #114 ) ;
#290 = VERTEX_POINT ( 'NONE', #43 ) ;
#291 = DIRECTION ( 'NONE',  ( 1.000000000000000000, 0.000000000000000000, -0.000000000000000000 ) ) ;
#292 = VERTEX_POINT ( 'NONE', #100 ) ;
#293 = CYLINDRICAL_SURFACE ( 'NONE', #194, 5.000000000000000000 ) ;
#294 = ADVANCED_FACE ( 'NONE', ( #73 ), #293, .T. ) ;
#295 = ORIENTED_EDGE ( 'NONE', *, *, #80, .T. ) ;
#296 = CARTESIAN_POINT ( 'NONE',  ( 0.000000000000000000, 0.000000000000000000, 3.000000000000000000 ) ) ;
#297 = ORIENTED_EDGE ( 'NONE', *, *, #315, .F. ) ;
#298 = DIRECTION ( 'NONE',  ( 1.224646799147353207E-16, 1.000000000000000000, -0.000000000000000000 ) ) ;
#299 = ORIENTED_EDGE ( 'NONE', *, *, #346, .T. ) ;
#300 = DIRECTION ( 'NONE',  ( 1.000000000000000000, 0.000000000000000000, 0.000000000000000000 ) ) ;
#301 = ADVANCED_FACE ( 'NONE', ( #129 ), #101, .F. ) ;
#302 = LOCAL_TIME ( 11, 18, 47.00000000000000000, #370 ) ;
#303 = AXIS2_PLACEMENT_3D ( 'NONE', #223, #304, #365 ) ;
#304 = DIRECTION ( 'NONE',  ( -0.000000000000000000, -0.000000000000000000, -1.000000000000000000 ) ) ;
#305 = ORIENTED_EDGE ( 'NONE', *, *, #245, .T. ) ;
#306 = ORIENTED_EDGE ( 'NONE', *, *, #14, .T. ) ;
#307 = DIRECTION ( 'NONE',  ( 0.000000000000000000, 0.000000000000000000, -1.000000000000000000 ) ) ;
#308 = PERSON_AND_ORGANIZATION ( #48, #250 ) ;
#309 = DIRECTION ( 'NONE',  ( 0.000000000000000000, 0.000000000000000000, 1.000000000000000000 ) ) ;
#310 = DIRECTION ( 'NONE',  ( 1.000000000000000000, 0.000000000000000000, 0.000000000000000000 ) ) ;
#311 = ORIENTED_EDGE ( 'NONE', *, *, #132, .F. ) ;
#312 = CC_DESIGN_APPROVAL ( #318, ( #173 ) ) ;
#313 = DATE_TIME_ROLE ( 'creation_date' ) ;
#314 = DIRECTION ( 'NONE',  ( -0.000000000000000000, -0.000000000000000000, -1.000000000000000000 ) ) ;
#315 = EDGE_CURVE ( 'NONE', #107, #207, #374, .T. ) ;
#316 = ORIENTED_EDGE ( 'NONE', *, *, #341, .T. ) ;
#317 = DIRECTION ( 'NONE',  ( -0.000000000000000000, -0.000000000000000000, -1.000000000000000000 ) ) ;
#318 = APPROVAL ( #182, 'NEURÈENÝ' ) ;
#319 = CARTESIAN_POINT ( 'NONE',  ( 1.250000000000000000, 1.530808498934191571E-16, 103.0000000000000142 ) ) ;
#320 = EDGE_LOOP ( 'NONE', ( #13, #188, #337, #135 ) ) ;
#321 = CC_DESIGN_APPROVAL ( #268, ( #236 ) ) ;
#322 = FACE_BOUND ( 'NONE', #79, .T. ) ;
#323 = CARTESIAN_POINT ( 'NONE',  ( 0.000000000000000000, 0.000000000000000000, 103.0000000000000142 ) ) ;
#324 = ORIENTED_EDGE ( 'NONE', *, *, #106, .T. ) ;
#325 = FACE_OUTER_BOUND ( 'NONE', #152, .T. ) ;
#326 = ORIENTED_EDGE ( 'NONE', *, *, #14, .F. ) ;
#327 = CIRCLE ( 'NONE', #273, 1.250000000000000000 ) ;
#328 = DESIGN_CONTEXT ( 'detailed design', #58, 'design' ) ;
#329 = ORIENTED_EDGE ( 'NONE', *, *, #55, .F. ) ;
#330 = CARTESIAN_POINT ( 'NONE',  ( -5.000000000000000000, 0.000000000000000000, 0.000000000000000000 ) ) ;
#331 = CC_DESIGN_PERSON_AND_ORGANIZATION_ASSIGNMENT ( #308, #252, ( #236 ) ) ;
#332 = DIRECTION ( 'NONE',  ( 0.000000000000000000, 0.000000000000000000, 1.000000000000000000 ) ) ;
#333 = EDGE_CURVE ( 'NONE', #2, #85, #51, .T. ) ;
#334 = LOCAL_TIME ( 11, 18, 47.00000000000000000, #63 ) ;
#335 = AXIS2_PLACEMENT_3D ( 'NONE', #351, #240, #102 ) ;
#336 = CC_DESIGN_APPROVAL ( #368, ( #17 ) ) ;
#337 = ORIENTED_EDGE ( 'NONE', *, *, #88, .T. ) ;
#338 = APPROVAL_ROLE ( '' ) ;
#339 = CARTESIAN_POINT ( 'NONE',  ( -5.000000000000000000, 0.000000000000000000, 3.000000000000000000 ) ) ;
#340 = CARTESIAN_POINT ( 'NONE',  ( 0.000000000000000000, 0.000000000000000000, 3.000000000000000000 ) ) ;
#341 = EDGE_CURVE ( 'NONE', #225, #269, #355, .T. ) ;
#342 = COORDINATED_UNIVERSAL_TIME_OFFSET ( 1, 0, .AHEAD. ) ;
#343 = CARTESIAN_POINT ( 'NONE',  ( 0.000000000000000000, 0.000000000000000000, 103.0000000000000142 ) ) ;
#344 = DIRECTION ( 'NONE',  ( 0.000000000000000000, 0.000000000000000000, 1.000000000000000000 ) ) ;
#345 = SECURITY_CLASSIFICATION_LEVEL ( 'unclassified' ) ;
#346 = EDGE_CURVE ( 'NONE', #97, #254, #327, .T. ) ;
#347 = LINE ( 'NONE', #116, #76 ) ;
#348 = AXIS2_PLACEMENT_3D ( 'NONE', #296, #9, #124 ) ;
#349 = CARTESIAN_POINT ( 'NONE',  ( 0.000000000000000000, 0.000000000000000000, 3.000000000000000000 ) ) ;
#350 = ORIENTED_EDGE ( 'NONE', *, *, #245, .F. ) ;
#351 = CARTESIAN_POINT ( 'NONE',  ( 0.000000000000000000, 0.000000000000000000, 103.0000000000000142 ) ) ;
#352 = ADVANCED_FACE ( 'NONE', ( #198 ), #145, .F. ) ;
#353 = DIRECTION ( 'NONE',  ( 0.000000000000000000, 0.000000000000000000, -1.000000000000000000 ) ) ;
#354 = AXIS2_PLACEMENT_3D ( 'NONE', #66, #309, #92 ) ;
#355 = CIRCLE ( 'NONE', #19, 1.250000000000000000 ) ;
#356 = PERSON_AND_ORGANIZATION ( #48, #250 ) ;
#357 = CARTESIAN_POINT ( 'NONE',  ( 2.500000000000000000, 3.061616997868383141E-16, 3.299999999999997158 ) ) ;
#358 = VERTEX_POINT ( 'NONE', #330 ) ;
#359 = CARTESIAN_POINT ( 'NONE',  ( 2.500000000000000000, 3.061616997868383141E-16, 103.0000000000000142 ) ) ;
#360 = ORIENTED_EDGE ( 'NONE', *, *, #132, .T. ) ;
#361 = AXIS2_PLACEMENT_3D ( 'NONE', #323, #259, #288 ) ;
#362 = FACE_OUTER_BOUND ( 'NONE', #4, .T. ) ;
#363 = EDGE_CURVE ( 'NONE', #269, #97, #23, .T. ) ;
#364 = DIRECTION ( 'NONE',  ( -0.000000000000000000, -0.000000000000000000, -1.000000000000000000 ) ) ;
#365 = DIRECTION ( 'NONE',  ( 1.000000000000000000, 0.000000000000000000, 0.000000000000000000 ) ) ;
#366 = AXIS2_PLACEMENT_3D ( 'NONE', #15, #317, #258 ) ;
#367 = DIRECTION ( 'NONE',  ( 0.000000000000000000, 0.000000000000000000, -1.000000000000000000 ) ) ;
#368 = APPROVAL ( #111, 'NEURÈENÝ' ) ;
#369 = EDGE_LOOP ( 'NONE', ( #266, #326 ) ) ;
#370 = COORDINATED_UNIVERSAL_TIME_OFFSET ( 1, 0, .AHEAD. ) ;
#371 = PERSON_AND_ORGANIZATION_ROLE ( 'design_owner' ) ;
#372 = CARTESIAN_POINT ( 'NONE',  ( 0.000000000000000000, 0.000000000000000000, 103.0000000000000142 ) ) ;
#373 = ADVANCED_FACE ( 'NONE', ( #81, #362 ), #218, .T. ) ;
#374 = CIRCLE ( 'NONE', #303, 2.799999999999999822 ) ;
#375 = PERSON_AND_ORGANIZATION_ROLE ( 'creator' ) ;
#376 = DIRECTION ( 'NONE',  ( 1.000000000000000000, 0.000000000000000000, 0.000000000000000000 ) ) ;
#377 = EDGE_CURVE ( 'NONE', #85, #358, #83, .T. ) ;
#378 = PERSON_AND_ORGANIZATION ( #48, #250 ) ;
#379 = DIRECTION ( 'NONE',  ( 1.000000000000000000, 0.000000000000000000, 0.000000000000000000 ) ) ;
#380 = ORIENTED_EDGE ( 'NONE', *, *, #187, .T. ) ;
#381 = SHAPE_DEFINITION_REPRESENTATION ( #179, #156 ) ;
ENDSEC;
END-ISO-10303-21;
