ISO-10303-21;
HEADER;
FILE_DESCRIPTION (( 'STEP AP203' ),
    '1' );
FILE_NAME ('a22e.STEP',
    '2022-07-10T09:03:34',
    ( '' ),
    ( '' ),
    'SwSTEP 2.0',
    'SolidWorks 2019',
    '' );
FILE_SCHEMA (( 'CONFIG_CONTROL_DESIGN' ));
ENDSEC;

DATA;
#1 = DIRECTION ( 'NONE',  ( -0.000000000000000000, -0.000000000000000000, -1.000000000000000000 ) ) ;
#2 = ADVANCED_BREP_SHAPE_REPRESENTATION ( 'a22e', ( #305, #381 ), #162 ) ;
#3 = LINE ( 'NONE', #217, #14 ) ;
#4 = CIRCLE ( 'NONE', #129, 4.000000000000000000 ) ;
#5 = ADVANCED_FACE ( 'NONE', ( #72 ), #202, .F. ) ;
#6 = CARTESIAN_POINT ( 'NONE',  ( 0.000000000000000000, 0.000000000000000000, 207.0000000000000284 ) ) ;
#7 = CARTESIAN_POINT ( 'NONE',  ( 6.000000000000000888, 7.347880794884120722E-16, 207.0000000000000284 ) ) ;
#8 = PERSON_AND_ORGANIZATION ( #163, #209 ) ;
#9 = ORIENTED_EDGE ( 'NONE', *, *, #104, .F. ) ;
#10 = ADVANCED_FACE ( 'NONE', ( #131 ), #241, .F. ) ;
#11 = AXIS2_PLACEMENT_3D ( 'NONE', #58, #282, #91 ) ;
#12 = DIRECTION ( 'NONE',  ( 0.000000000000000000, 0.000000000000000000, 1.000000000000000000 ) ) ;
#13 = VERTEX_POINT ( 'NONE', #161 ) ;
#14 = VECTOR ( 'NONE', #240, 1000.000000000000000 ) ;
#15 = COORDINATED_UNIVERSAL_TIME_OFFSET ( 1, 0, .AHEAD. ) ;
#16 = ORIENTED_EDGE ( 'NONE', *, *, #343, .F. ) ;
#17 = ORIENTED_EDGE ( 'NONE', *, *, #289, .F. ) ;
#18 = CLOSED_SHELL ( 'NONE', ( #298, #10, #244, #265, #288, #378, #356, #207, #59, #219, #5 ) ) ;
#19 = FACE_OUTER_BOUND ( 'NONE', #100, .T. ) ;
#20 = EDGE_CURVE ( 'NONE', #262, #327, #338, .T. ) ;
#21 = CALENDAR_DATE ( 2022, 10, 7 ) ;
#22 = VECTOR ( 'NONE', #55, 1000.000000000000000 ) ;
#23 = PLANE ( 'NONE',  #61 ) ;
#24 = PERSON_AND_ORGANIZATION ( #163, #209 ) ;
#25 = DIRECTION ( 'NONE',  ( 0.000000000000000000, 0.000000000000000000, -1.000000000000000000 ) ) ;
#26 = CARTESIAN_POINT ( 'NONE',  ( 10.00000000000000000, 1.224646799147353256E-15, 0.000000000000000000 ) ) ;
#27 = VECTOR ( 'NONE', #114, 1000.000000000000000 ) ;
#28 = CIRCLE ( 'NONE', #251, 6.700000000000001066 ) ;
#29 = DIRECTION ( 'NONE',  ( -0.000000000000000000, -0.000000000000000000, -1.000000000000000000 ) ) ;
#30 = AXIS2_PLACEMENT_3D ( 'NONE', #154, #126, #281 ) ;
#31 = DIRECTION ( 'NONE',  ( 1.000000000000000000, 0.000000000000000000, 0.000000000000000000 ) ) ;
#32 = DIRECTION ( 'NONE',  ( -1.000000000000000000, 0.000000000000000000, 0.000000000000000000 ) ) ;
#33 = EDGE_CURVE ( 'NONE', #73, #221, #152, .T. ) ;
#34 = EDGE_CURVE ( 'NONE', #153, #57, #355, .T. ) ;
#35 = DIRECTION ( 'NONE',  ( 0.000000000000000000, 0.000000000000000000, 1.000000000000000000 ) ) ;
#36 = CC_DESIGN_APPROVAL ( #206, ( #81 ) ) ;
#37 = DIRECTION ( 'NONE',  ( -1.000000000000000000, 0.000000000000000000, 0.000000000000000000 ) ) ;
#38 = ORIENTED_EDGE ( 'NONE', *, *, #313, .T. ) ;
#39 = PERSON_AND_ORGANIZATION ( #163, #209 ) ;
#40 = ORIENTED_EDGE ( 'NONE', *, *, #313, .F. ) ;
#41 = UNCERTAINTY_MEASURE_WITH_UNIT (LENGTH_MEASURE( 1.000000000000000082E-05 ), #99, 'distance_accuracy_value', 'NONE');
#42 = PERSON_AND_ORGANIZATION ( #163, #209 ) ;
#43 = AXIS2_PLACEMENT_3D ( 'NONE', #63, #360, #32 ) ;
#44 = SECURITY_CLASSIFICATION_LEVEL ( 'unclassified' ) ;
#45 = ORIENTED_EDGE ( 'NONE', *, *, #323, .F. ) ;
#46 = VERTEX_POINT ( 'NONE', #26 ) ;
#47 = PRODUCT ( 'a22e', 'a22e', '', ( #164 ) ) ;
#48 = CC_DESIGN_PERSON_AND_ORGANIZATION_ASSIGNMENT ( #286, #253, ( #81 ) ) ;
#49 = DATE_AND_TIME ( #141, #147 ) ;
#50 = CARTESIAN_POINT ( 'NONE',  ( 0.000000000000000000, 0.000000000000000000, 0.000000000000000000 ) ) ;
#51 = DIRECTION ( 'NONE',  ( 1.000000000000000000, 0.000000000000000000, -0.000000000000000000 ) ) ;
#52 = CIRCLE ( 'NONE', #216, 6.700000000000001066 ) ;
#53 = DIRECTION ( 'NONE',  ( 1.000000000000000000, 0.000000000000000000, 0.000000000000000000 ) ) ;
#54 = DIRECTION ( 'NONE',  ( 1.000000000000000000, 0.000000000000000000, 0.000000000000000000 ) ) ;
#55 = DIRECTION ( 'NONE',  ( -0.000000000000000000, -0.000000000000000000, -1.000000000000000000 ) ) ;
#56 = DIRECTION ( 'NONE',  ( 0.000000000000000000, 0.000000000000000000, -1.000000000000000000 ) ) ;
#57 = VERTEX_POINT ( 'NONE', #320 ) ;
#58 = CARTESIAN_POINT ( 'NONE',  ( 0.000000000000000000, 0.000000000000000000, 207.0000000000000284 ) ) ;
#59 = ADVANCED_FACE ( 'NONE', ( #297, #263 ), #23, .T. ) ;
#60 = CARTESIAN_POINT ( 'NONE',  ( 0.000000000000000000, 0.000000000000000000, 207.0000000000000284 ) ) ;
#61 = AXIS2_PLACEMENT_3D ( 'NONE', #177, #146, #51 ) ;
#62 = AXIS2_PLACEMENT_3D ( 'NONE', #179, #358, #295 ) ;
#63 = CARTESIAN_POINT ( 'NONE',  ( 0.000000000000000000, 0.000000000000000000, 7.000000000000000000 ) ) ;
#64 = ORIENTED_EDGE ( 'NONE', *, *, #104, .T. ) ;
#65 = LOCAL_TIME ( 11, 3, 34.00000000000000000, #339 ) ;
#66 = CARTESIAN_POINT ( 'NONE',  ( 0.000000000000000000, 0.000000000000000000, 0.000000000000000000 ) ) ;
#67 = ORIENTED_EDGE ( 'NONE', *, *, #277, .T. ) ;
#68 = DATE_AND_TIME ( #137, #311 ) ;
#69 = ORIENTED_EDGE ( 'NONE', *, *, #74, .F. ) ;
#70 = AXIS2_PLACEMENT_3D ( 'NONE', #309, #316, #165 ) ;
#71 = APPROVAL_DATE_TIME ( #135, #322 ) ;
#72 = FACE_OUTER_BOUND ( 'NONE', #292, .T. ) ;
#73 = VERTEX_POINT ( 'NONE', #142 ) ;
#74 = EDGE_CURVE ( 'NONE', #95, #158, #290, .T. ) ;
#75 = EDGE_CURVE ( 'NONE', #183, #153, #113, .T. ) ;
#76 =( NAMED_UNIT ( * ) PLANE_ANGLE_UNIT ( ) SI_UNIT ( $, .RADIAN. ) );
#77 = ORIENTED_EDGE ( 'NONE', *, *, #34, .T. ) ;
#78 = ORIENTED_EDGE ( 'NONE', *, *, #258, .F. ) ;
#79 = AXIS2_PLACEMENT_3D ( 'NONE', #212, #232, #54 ) ;
#80 = AXIS2_PLACEMENT_3D ( 'NONE', #248, #220, #332 ) ;
#81 = PRODUCT_DEFINITION_FORMATION_WITH_SPECIFIED_SOURCE ( 'LIBOVOLNÝ', '', #47, .NOT_KNOWN. ) ;
#82 = DIRECTION ( 'NONE',  ( -0.000000000000000000, -0.000000000000000000, -1.000000000000000000 ) ) ;
#83 = CYLINDRICAL_SURFACE ( 'NONE', #180, 6.000000000000000888 ) ;
#84 = LINE ( 'NONE', #236, #22 ) ;
#85 = CARTESIAN_POINT ( 'NONE',  ( 6.000000000000000888, 7.347880794884120722E-16, 7.700000000000012612 ) ) ;
#86 = DATE_AND_TIME ( #21, #300 ) ;
#87 = DIRECTION ( 'NONE',  ( 0.000000000000000000, -1.000000000000000000, 0.000000000000000000 ) ) ;
#88 = DIRECTION ( 'NONE',  ( 1.224646799147353207E-16, 1.000000000000000000, -0.000000000000000000 ) ) ;
#89 = EDGE_LOOP ( 'NONE', ( #329, #38, #249, #97 ) ) ;
#90 = EDGE_CURVE ( 'NONE', #221, #13, #111, .T. ) ;
#91 = DIRECTION ( 'NONE',  ( 1.000000000000000000, 0.000000000000000000, 0.000000000000000000 ) ) ;
#92 = CC_DESIGN_SECURITY_CLASSIFICATION ( #359, ( #81 ) ) ;
#93 = EDGE_LOOP ( 'NONE', ( #167, #347 ) ) ;
#94 = CARTESIAN_POINT ( 'NONE',  ( 4.000000000000000000, 4.898587196589411843E-16, 207.0000000000000284 ) ) ;
#95 = VERTEX_POINT ( 'NONE', #376 ) ;
#96 = DIRECTION ( 'NONE',  ( -1.000000000000000000, 0.000000000000000000, 0.000000000000000000 ) ) ;
#97 = ORIENTED_EDGE ( 'NONE', *, *, #75, .F. ) ;
#98 = FACE_OUTER_BOUND ( 'NONE', #218, .T. ) ;
#99 =( LENGTH_UNIT ( ) NAMED_UNIT ( * ) SI_UNIT ( .MILLI., .METRE. ) );
#100 = EDGE_LOOP ( 'NONE', ( #373, #127, #336, #16 ) ) ;
#101 = PERSON_AND_ORGANIZATION_ROLE ( 'creator' ) ;
#102 = ORIENTED_EDGE ( 'NONE', *, *, #354, .T. ) ;
#103 = PLANE ( 'NONE',  #372 ) ;
#104 = EDGE_CURVE ( 'NONE', #46, #13, #340, .T. ) ;
#105 = EDGE_LOOP ( 'NONE', ( #349, #78, #133, #139 ) ) ;
#106 = EDGE_CURVE ( 'NONE', #327, #95, #235, .T. ) ;
#107 = APPROVAL_PERSON_ORGANIZATION ( #168, #322, #255 ) ;
#108 = ORIENTED_EDGE ( 'NONE', *, *, #143, .F. ) ;
#109 = APPROVAL_STATUS ( 'not_yet_approved' ) ;
#110 = EDGE_LOOP ( 'NONE', ( #346, #185, #102, #124 ) ) ;
#111 = LINE ( 'NONE', #205, #27 ) ;
#112 = CIRCLE ( 'NONE', #215, 10.00000000000000000 ) ;
#113 = LINE ( 'NONE', #118, #145 ) ;
#114 = DIRECTION ( 'NONE',  ( -0.000000000000000000, -0.000000000000000000, -1.000000000000000000 ) ) ;
#115 = APPROVAL_DATE_TIME ( #86, #363 ) ;
#116 = DIRECTION ( 'NONE',  ( -1.000000000000000000, 0.000000000000000000, 0.000000000000000000 ) ) ;
#117 = CC_DESIGN_PERSON_AND_ORGANIZATION_ASSIGNMENT ( #8, #308, ( #47 ) ) ;
#118 = CARTESIAN_POINT ( 'NONE',  ( -4.000000000000000000, 0.000000000000000000, 207.0000000000000284 ) ) ;
#119 = CARTESIAN_POINT ( 'NONE',  ( -6.700000000000001066, 8.205133554287267548E-16, 7.700000000000012612 ) ) ;
#120 = CARTESIAN_POINT ( 'NONE',  ( 0.000000000000000000, 0.000000000000000000, 207.0000000000000284 ) ) ;
#121 = EDGE_LOOP ( 'NONE', ( #333, #256 ) ) ;
#122 = CARTESIAN_POINT ( 'NONE',  ( -6.700000000000001066, 8.205133554287267548E-16, 7.000000000000006217 ) ) ;
#123 = CIRCLE ( 'NONE', #191, 0.7000000000000000666 ) ;
#124 = ORIENTED_EDGE ( 'NONE', *, *, #106, .F. ) ;
#125 = CARTESIAN_POINT ( 'NONE',  ( -6.000000000000000888, 0.000000000000000000, 207.0000000000000284 ) ) ;
#126 = DIRECTION ( 'NONE',  ( 0.000000000000000000, 0.000000000000000000, 1.000000000000000000 ) ) ;
#127 = ORIENTED_EDGE ( 'NONE', *, *, #354, .F. ) ;
#128 = FACE_BOUND ( 'NONE', #214, .T. ) ;
#129 = AXIS2_PLACEMENT_3D ( 'NONE', #380, #203, #171 ) ;
#130 = CC_DESIGN_APPROVAL ( #322, ( #261 ) ) ;
#131 = FACE_OUTER_BOUND ( 'NONE', #337, .T. ) ;
#132 = DIRECTION ( 'NONE',  ( 0.000000000000000000, 0.000000000000000000, 1.000000000000000000 ) ) ;
#133 = ORIENTED_EDGE ( 'NONE', *, *, #106, .T. ) ;
#134 = AXIS2_PLACEMENT_3D ( 'NONE', #321, #211, #270 ) ;
#135 = DATE_AND_TIME ( #370, #175 ) ;
#136 = ORIENTED_EDGE ( 'NONE', *, *, #33, .F. ) ;
#137 = CALENDAR_DATE ( 2022, 10, 7 ) ;
#138 = EDGE_LOOP ( 'NONE', ( #170, #17, #225, #150 ) ) ;
#139 = ORIENTED_EDGE ( 'NONE', *, *, #74, .T. ) ;
#140 = APPROVAL_ROLE ( '' ) ;
#141 = CALENDAR_DATE ( 2022, 10, 7 ) ;
#142 = CARTESIAN_POINT ( 'NONE',  ( 10.00000000000000000, 1.224646799147353256E-15, 7.000000000000000000 ) ) ;
#143 = EDGE_CURVE ( 'NONE', #276, #259, #28, .T. ) ;
#144 = CARTESIAN_POINT ( 'NONE',  ( -4.000000000000000000, 0.000000000000000000, 207.0000000000000284 ) ) ;
#145 = VECTOR ( 'NONE', #173, 1000.000000000000000 ) ;
#146 = DIRECTION ( 'NONE',  ( 0.000000000000000000, 0.000000000000000000, 1.000000000000000000 ) ) ;
#147 = LOCAL_TIME ( 11, 3, 34.00000000000000000, #210 ) ;
#148 = DIRECTION ( 'NONE',  ( 1.000000000000000000, 0.000000000000000000, 0.000000000000000000 ) ) ;
#149 = CARTESIAN_POINT ( 'NONE',  ( 4.000000000000000000, 4.898587196589411843E-16, 207.0000000000000284 ) ) ;
#150 = ORIENTED_EDGE ( 'NONE', *, *, #325, .T. ) ;
#151 = CARTESIAN_POINT ( 'NONE',  ( 0.000000000000000000, 0.000000000000000000, 207.0000000000000284 ) ) ;
#152 = CIRCLE ( 'NONE', #134, 10.00000000000000000 ) ;
#153 = VERTEX_POINT ( 'NONE', #318 ) ;
#154 = CARTESIAN_POINT ( 'NONE',  ( 0.000000000000000000, 0.000000000000000000, 0.000000000000000000 ) ) ;
#155 = AXIS2_PLACEMENT_3D ( 'NONE', #60, #35, #301 ) ;
#156 = DIRECTION ( 'NONE',  ( -1.000000000000000000, 0.000000000000000000, 0.000000000000000000 ) ) ;
#157 = ORIENTED_EDGE ( 'NONE', *, *, #325, .F. ) ;
#158 = VERTEX_POINT ( 'NONE', #85 ) ;
#159 = PERSON_AND_ORGANIZATION_ROLE ( 'creator' ) ;
#160 = AXIS2_PLACEMENT_3D ( 'NONE', #120, #184, #148 ) ;
#161 = CARTESIAN_POINT ( 'NONE',  ( -10.00000000000000000, 0.000000000000000000, 0.000000000000000000 ) ) ;
#162 =( GEOMETRIC_REPRESENTATION_CONTEXT ( 3 ) GLOBAL_UNCERTAINTY_ASSIGNED_CONTEXT ( ( #41 ) ) GLOBAL_UNIT_ASSIGNED_CONTEXT ( ( #99, #76, #198 ) ) REPRESENTATION_CONTEXT ( 'NONE', 'WORKASPACE' ) );
#163 = PERSON ( 'NEURÈENÝ', 'NEURÈENÝ', 'NEURÈENÝ', ('NEURÈENÝ'), ('NEURÈENÝ'), ('NEURÈENÝ') ) ;
#164 = MECHANICAL_CONTEXT ( 'NONE', #201, 'mechanical' ) ;
#165 = DIRECTION ( 'NONE',  ( -1.000000000000000000, 0.000000000000000000, 0.000000000000000000 ) ) ;
#166 = DIRECTION ( 'NONE',  ( 1.000000000000000000, 0.000000000000000000, -0.000000000000000000 ) ) ;
#167 = ORIENTED_EDGE ( 'NONE', *, *, #258, .T. ) ;
#168 = PERSON_AND_ORGANIZATION ( #163, #209 ) ;
#169 = AXIS2_PLACEMENT_3D ( 'NONE', #379, #82, #116 ) ;
#170 = ORIENTED_EDGE ( 'NONE', *, *, #246, .F. ) ;
#171 = DIRECTION ( 'NONE',  ( 1.000000000000000000, 0.000000000000000000, 0.000000000000000000 ) ) ;
#172 = AXIS2_PLACEMENT_3D ( 'NONE', #342, #12, #377 ) ;
#173 = DIRECTION ( 'NONE',  ( 0.000000000000000000, 0.000000000000000000, -1.000000000000000000 ) ) ;
#174 = EDGE_CURVE ( 'NONE', #262, #158, #84, .T. ) ;
#175 = LOCAL_TIME ( 11, 3, 34.00000000000000000, #348 ) ;
#176 = EDGE_CURVE ( 'NONE', #158, #276, #123, .T. ) ;
#177 = CARTESIAN_POINT ( 'NONE',  ( 0.000000000000000000, 0.000000000000000000, 207.0000000000000284 ) ) ;
#178 = CARTESIAN_POINT ( 'NONE',  ( 0.000000000000000000, 0.000000000000000000, 7.700000000000012612 ) ) ;
#179 = CARTESIAN_POINT ( 'NONE',  ( 0.000000000000000000, 0.000000000000000000, 0.000000000000000000 ) ) ;
#180 = AXIS2_PLACEMENT_3D ( 'NONE', #6, #1, #156 ) ;
#181 = CIRCLE ( 'NONE', #155, 4.000000000000000000 ) ;
#182 = CYLINDRICAL_SURFACE ( 'NONE', #43, 10.00000000000000000 ) ;
#183 = VERTEX_POINT ( 'NONE', #144 ) ;
#184 = DIRECTION ( 'NONE',  ( 0.000000000000000000, 0.000000000000000000, 1.000000000000000000 ) ) ;
#185 = ORIENTED_EDGE ( 'NONE', *, *, #174, .T. ) ;
#186 = CARTESIAN_POINT ( 'NONE',  ( 6.700000000000001066, 0.000000000000000000, 7.000000000000006217 ) ) ;
#187 = AXIS2_PLACEMENT_3D ( 'NONE', #50, #29, #53 ) ;
#188 = CC_DESIGN_PERSON_AND_ORGANIZATION_ASSIGNMENT ( #42, #159, ( #81 ) ) ;
#189 = CC_DESIGN_PERSON_AND_ORGANIZATION_ASSIGNMENT ( #271, #269, ( #359 ) ) ;
#190 = FACE_BOUND ( 'NONE', #366, .T. ) ;
#191 = AXIS2_PLACEMENT_3D ( 'NONE', #324, #87, #25 ) ;
#192 = ORIENTED_EDGE ( 'NONE', *, *, #90, .F. ) ;
#193 = DIRECTION ( 'NONE',  ( 0.000000000000000000, 0.000000000000000000, 1.000000000000000000 ) ) ;
#194 = DIRECTION ( 'NONE',  ( 0.000000000000000000, 0.000000000000000000, 1.000000000000000000 ) ) ;
#195 = APPROVAL_DATE_TIME ( #68, #206 ) ;
#196 = ORIENTED_EDGE ( 'NONE', *, *, #368, .T. ) ;
#197 = CC_DESIGN_APPROVAL ( #363, ( #359 ) ) ;
#198 =( NAMED_UNIT ( * ) SI_UNIT ( $, .STERADIAN. ) SOLID_ANGLE_UNIT ( ) );
#199 = DATE_TIME_ROLE ( 'creation_date' ) ;
#200 = DIRECTION ( 'NONE',  ( 1.000000000000000000, 0.000000000000000000, 0.000000000000000000 ) ) ;
#201 = APPLICATION_CONTEXT ( 'configuration controlled 3d designs of mechanical parts and assemblies' ) ;
#202 = CYLINDRICAL_SURFACE ( 'NONE', #70, 4.000000000000000000 ) ;
#203 = DIRECTION ( 'NONE',  ( -0.000000000000000000, -0.000000000000000000, -1.000000000000000000 ) ) ;
#204 = APPROVAL_STATUS ( 'not_yet_approved' ) ;
#205 = CARTESIAN_POINT ( 'NONE',  ( -10.00000000000000000, 0.000000000000000000, 7.000000000000000000 ) ) ;
#206 = APPROVAL ( #310, 'NEURÈENÝ' ) ;
#207 = ADVANCED_FACE ( 'NONE', ( #350 ), #272, .T. ) ;
#208 = CARTESIAN_POINT ( 'NONE',  ( 0.000000000000000000, 0.000000000000000000, 7.000000000000000000 ) ) ;
#209 = ORGANIZATION ( 'NEURÈENÝ', 'NEURÈENÝ', '' ) ;
#210 = COORDINATED_UNIVERSAL_TIME_OFFSET ( 1, 0, .AHEAD. ) ;
#211 = DIRECTION ( 'NONE',  ( 0.000000000000000000, 0.000000000000000000, 1.000000000000000000 ) ) ;
#212 = CARTESIAN_POINT ( 'NONE',  ( 0.000000000000000000, 0.000000000000000000, 7.700000000000012612 ) ) ;
#213 = DIRECTION ( 'NONE',  ( -1.000000000000000000, 1.224646799147353454E-16, 0.000000000000000000 ) ) ;
#214 = EDGE_LOOP ( 'NONE', ( #371, #231 ) ) ;
#215 = AXIS2_PLACEMENT_3D ( 'NONE', #326, #307, #330 ) ;
#216 = AXIS2_PLACEMENT_3D ( 'NONE', #242, #365, #31 ) ;
#217 = CARTESIAN_POINT ( 'NONE',  ( 10.00000000000000000, 1.224646799147353256E-15, 7.000000000000000000 ) ) ;
#218 = EDGE_LOOP ( 'NONE', ( #157, #9 ) ) ;
#219 = ADVANCED_FACE ( 'NONE', ( #19 ), #344, .F. ) ;
#220 = DIRECTION ( 'NONE',  ( 0.000000000000000000, 0.000000000000000000, 1.000000000000000000 ) ) ;
#221 = VERTEX_POINT ( 'NONE', #357 ) ;
#222 = FACE_OUTER_BOUND ( 'NONE', #279, .T. ) ;
#223 = ORIENTED_EDGE ( 'NONE', *, *, #176, .F. ) ;
#224 = APPLICATION_PROTOCOL_DEFINITION ( 'international standard', 'config_control_design', 1994, #201 ) ;
#225 = ORIENTED_EDGE ( 'NONE', *, *, #90, .T. ) ;
#226 = APPLICATION_PROTOCOL_DEFINITION ( 'international standard', 'config_control_design', 1994, #283 ) ;
#227 = DIRECTION ( 'NONE',  ( 1.000000000000000000, 0.000000000000000000, 0.000000000000000000 ) ) ;
#228 = CIRCLE ( 'NONE', #345, 0.7000000000000000666 ) ;
#229 = CALENDAR_DATE ( 2022, 10, 7 ) ;
#230 = CARTESIAN_POINT ( 'NONE',  ( 0.000000000000000000, 0.000000000000000000, 7.000000000000000000 ) ) ;
#231 = ORIENTED_EDGE ( 'NONE', *, *, #343, .T. ) ;
#232 = DIRECTION ( 'NONE',  ( 0.000000000000000000, 0.000000000000000000, 1.000000000000000000 ) ) ;
#233 = CIRCLE ( 'NONE', #160, 4.000000000000000000 ) ;
#234 = EDGE_CURVE ( 'NONE', #57, #153, #4, .T. ) ;
#235 = LINE ( 'NONE', #299, #264 ) ;
#236 = CARTESIAN_POINT ( 'NONE',  ( 6.000000000000000888, 7.347880794884120722E-16, 207.0000000000000284 ) ) ;
#237 = CIRCLE ( 'NONE', #11, 6.000000000000000888 ) ;
#238 = AXIS2_PLACEMENT_3D ( 'NONE', #151, #278, #96 ) ;
#239 = DIRECTION ( 'NONE',  ( 0.000000000000000000, 0.000000000000000000, 1.000000000000000000 ) ) ;
#240 = DIRECTION ( 'NONE',  ( -0.000000000000000000, -0.000000000000000000, -1.000000000000000000 ) ) ;
#241 = TOROIDAL_SURFACE ( 'NONE', #294, 6.700000000000001066, 0.6999999999999999556 ) ;
#242 = CARTESIAN_POINT ( 'NONE',  ( 0.000000000000000000, 0.000000000000000000, 7.000000000000000000 ) ) ;
#243 = ORIENTED_EDGE ( 'NONE', *, *, #246, .T. ) ;
#244 = ADVANCED_FACE ( 'NONE', ( #352 ), #83, .T. ) ;
#245 = LINE ( 'NONE', #94, #287 ) ;
#246 = EDGE_CURVE ( 'NONE', #73, #46, #3, .T. ) ;
#247 = ORIENTED_EDGE ( 'NONE', *, *, #34, .F. ) ;
#248 = CARTESIAN_POINT ( 'NONE',  ( 0.000000000000000000, 0.000000000000000000, 7.700000000000012612 ) ) ;
#249 = ORIENTED_EDGE ( 'NONE', *, *, #234, .T. ) ;
#250 = DIRECTION ( 'NONE',  ( -0.000000000000000000, -0.000000000000000000, -1.000000000000000000 ) ) ;
#251 = AXIS2_PLACEMENT_3D ( 'NONE', #208, #353, #293 ) ;
#252 = DATE_AND_TIME ( #229, #65 ) ;
#253 = PERSON_AND_ORGANIZATION_ROLE ( 'design_supplier' ) ;
#254 = CARTESIAN_POINT ( 'NONE',  ( 0.000000000000000000, 0.000000000000000000, 7.700000000000012612 ) ) ;
#255 = APPROVAL_ROLE ( '' ) ;
#256 = ORIENTED_EDGE ( 'NONE', *, *, #33, .T. ) ;
#257 = CARTESIAN_POINT ( 'NONE',  ( 0.000000000000000000, 0.000000000000000000, 0.000000000000000000 ) ) ;
#258 = EDGE_CURVE ( 'NONE', #327, #262, #237, .T. ) ;
#259 = VERTEX_POINT ( 'NONE', #122 ) ;
#260 = APPROVAL_PERSON_ORGANIZATION ( #24, #363, #140 ) ;
#261 = PRODUCT_DEFINITION ( 'NEZNÁMÝ', '', #81, #285 ) ;
#262 = VERTEX_POINT ( 'NONE', #7 ) ;
#263 = FACE_OUTER_BOUND ( 'NONE', #93, .T. ) ;
#264 = VECTOR ( 'NONE', #267, 1000.000000000000000 ) ;
#265 = ADVANCED_FACE ( 'NONE', ( #222 ), #182, .T. ) ;
#266 = DATE_TIME_ROLE ( 'classification_date' ) ;
#267 = DIRECTION ( 'NONE',  ( -0.000000000000000000, -0.000000000000000000, -1.000000000000000000 ) ) ;
#268 = AXIS2_PLACEMENT_3D ( 'NONE', #362, #250, #37 ) ;
#269 = PERSON_AND_ORGANIZATION_ROLE ( 'classification_officer' ) ;
#270 = DIRECTION ( 'NONE',  ( 1.000000000000000000, 0.000000000000000000, 0.000000000000000000 ) ) ;
#271 = PERSON_AND_ORGANIZATION ( #163, #209 ) ;
#272 = CYLINDRICAL_SURFACE ( 'NONE', #169, 6.000000000000000888 ) ;
#273 = DIRECTION ( 'NONE',  ( 1.000000000000000000, 0.000000000000000000, 0.000000000000000000 ) ) ;
#274 = DIRECTION ( 'NONE',  ( 1.000000000000000000, 0.000000000000000000, -0.000000000000000000 ) ) ;
#275 = FACE_OUTER_BOUND ( 'NONE', #89, .T. ) ;
#276 = VERTEX_POINT ( 'NONE', #186 ) ;
#277 = EDGE_CURVE ( 'NONE', #375, #183, #233, .T. ) ;
#278 = DIRECTION ( 'NONE',  ( 0.000000000000000000, 0.000000000000000000, -1.000000000000000000 ) ) ;
#279 = EDGE_LOOP ( 'NONE', ( #136, #243, #64, #192 ) ) ;
#280 = APPROVAL_PERSON_ORGANIZATION ( #314, #206, #291 ) ;
#281 = DIRECTION ( 'NONE',  ( 1.000000000000000000, 0.000000000000000000, 0.000000000000000000 ) ) ;
#282 = DIRECTION ( 'NONE',  ( 0.000000000000000000, 0.000000000000000000, 1.000000000000000000 ) ) ;
#283 = APPLICATION_CONTEXT ( 'configuration controlled 3d designs of mechanical parts and assemblies' ) ;
#284 = ORIENTED_EDGE ( 'NONE', *, *, #234, .F. ) ;
#285 = DESIGN_CONTEXT ( 'detailed design', #283, 'design' ) ;
#286 = PERSON_AND_ORGANIZATION ( #163, #209 ) ;
#287 = VECTOR ( 'NONE', #56, 1000.000000000000000 ) ;
#288 = ADVANCED_FACE ( 'NONE', ( #304 ), #306, .T. ) ;
#289 = EDGE_CURVE ( 'NONE', #221, #73, #112, .T. ) ;
#290 = CIRCLE ( 'NONE', #315, 6.000000000000000888 ) ;
#291 = APPROVAL_ROLE ( '' ) ;
#292 = EDGE_LOOP ( 'NONE', ( #40, #67, #331, #77 ) ) ;
#293 = DIRECTION ( 'NONE',  ( 1.000000000000000000, 0.000000000000000000, 0.000000000000000000 ) ) ;
#294 = AXIS2_PLACEMENT_3D ( 'NONE', #254, #369, #227 ) ;
#295 = DIRECTION ( 'NONE',  ( 1.000000000000000000, 0.000000000000000000, 0.000000000000000000 ) ) ;
#296 = PRODUCT_RELATED_PRODUCT_CATEGORY ( 'detail', '', ( #47 ) ) ;
#297 = FACE_BOUND ( 'NONE', #312, .T. ) ;
#298 = ADVANCED_FACE ( 'NONE', ( #275 ), #303, .F. ) ;
#299 = CARTESIAN_POINT ( 'NONE',  ( -6.000000000000000888, 0.000000000000000000, 207.0000000000000284 ) ) ;
#300 = LOCAL_TIME ( 11, 3, 34.00000000000000000, #319 ) ;
#301 = DIRECTION ( 'NONE',  ( 1.000000000000000000, 0.000000000000000000, 0.000000000000000000 ) ) ;
#302 = CC_DESIGN_DATE_AND_TIME_ASSIGNMENT ( #252, #199, ( #261 ) ) ;
#303 = CYLINDRICAL_SURFACE ( 'NONE', #238, 4.000000000000000000 ) ;
#304 = FACE_OUTER_BOUND ( 'NONE', #138, .T. ) ;
#305 = MANIFOLD_SOLID_BREP ( 'Odebrat vysunutím3', #18 ) ;
#306 = CYLINDRICAL_SURFACE ( 'NONE', #268, 10.00000000000000000 ) ;
#307 = DIRECTION ( 'NONE',  ( 0.000000000000000000, 0.000000000000000000, 1.000000000000000000 ) ) ;
#308 = PERSON_AND_ORGANIZATION_ROLE ( 'design_owner' ) ;
#309 = CARTESIAN_POINT ( 'NONE',  ( 0.000000000000000000, 0.000000000000000000, 207.0000000000000284 ) ) ;
#310 = APPROVAL_STATUS ( 'not_yet_approved' ) ;
#311 = LOCAL_TIME ( 11, 3, 34.00000000000000000, #15 ) ;
#312 = EDGE_LOOP ( 'NONE', ( #45, #361 ) ) ;
#313 = EDGE_CURVE ( 'NONE', #375, #57, #245, .T. ) ;
#314 = PERSON_AND_ORGANIZATION ( #163, #209 ) ;
#315 = AXIS2_PLACEMENT_3D ( 'NONE', #178, #239, #273 ) ;
#316 = DIRECTION ( 'NONE',  ( 0.000000000000000000, 0.000000000000000000, -1.000000000000000000 ) ) ;
#317 = AXIS2_PLACEMENT_3D ( 'NONE', #66, #193, #274 ) ;
#318 = CARTESIAN_POINT ( 'NONE',  ( -4.000000000000000000, 0.000000000000000000, 0.000000000000000000 ) ) ;
#319 = COORDINATED_UNIVERSAL_TIME_OFFSET ( 1, 0, .AHEAD. ) ;
#320 = CARTESIAN_POINT ( 'NONE',  ( 4.000000000000000000, 4.898587196589411843E-16, 0.000000000000000000 ) ) ;
#321 = CARTESIAN_POINT ( 'NONE',  ( 0.000000000000000000, 0.000000000000000000, 7.000000000000000000 ) ) ;
#322 = APPROVAL ( #109, 'NEURÈENÝ' ) ;
#323 = EDGE_CURVE ( 'NONE', #183, #375, #181, .T. ) ;
#324 = CARTESIAN_POINT ( 'NONE',  ( 6.700000000000001066, 0.000000000000000000, 7.700000000000012612 ) ) ;
#325 = EDGE_CURVE ( 'NONE', #13, #46, #334, .T. ) ;
#326 = CARTESIAN_POINT ( 'NONE',  ( 0.000000000000000000, 0.000000000000000000, 7.000000000000000000 ) ) ;
#327 = VERTEX_POINT ( 'NONE', #125 ) ;
#328 = CIRCLE ( 'NONE', #80, 6.000000000000000888 ) ;
#329 = ORIENTED_EDGE ( 'NONE', *, *, #323, .T. ) ;
#330 = DIRECTION ( 'NONE',  ( 1.000000000000000000, 0.000000000000000000, 0.000000000000000000 ) ) ;
#331 = ORIENTED_EDGE ( 'NONE', *, *, #75, .T. ) ;
#332 = DIRECTION ( 'NONE',  ( 1.000000000000000000, 0.000000000000000000, 0.000000000000000000 ) ) ;
#333 = ORIENTED_EDGE ( 'NONE', *, *, #289, .T. ) ;
#334 = CIRCLE ( 'NONE', #30, 10.00000000000000000 ) ;
#335 = PLANE ( 'NONE',  #317 ) ;
#336 = ORIENTED_EDGE ( 'NONE', *, *, #176, .T. ) ;
#337 = EDGE_LOOP ( 'NONE', ( #69, #196, #108, #223 ) ) ;
#338 = CIRCLE ( 'NONE', #172, 6.000000000000000888 ) ;
#339 = COORDINATED_UNIVERSAL_TIME_OFFSET ( 1, 0, .AHEAD. ) ;
#340 = CIRCLE ( 'NONE', #62, 10.00000000000000000 ) ;
#341 = CC_DESIGN_PERSON_AND_ORGANIZATION_ASSIGNMENT ( #39, #101, ( #261 ) ) ;
#342 = CARTESIAN_POINT ( 'NONE',  ( 0.000000000000000000, 0.000000000000000000, 207.0000000000000284 ) ) ;
#343 = EDGE_CURVE ( 'NONE', #259, #276, #52, .T. ) ;
#344 = TOROIDAL_SURFACE ( 'NONE', #79, 6.700000000000001066, 0.6999999999999999556 ) ;
#345 = AXIS2_PLACEMENT_3D ( 'NONE', #119, #88, #213 ) ;
#346 = ORIENTED_EDGE ( 'NONE', *, *, #20, .F. ) ;
#347 = ORIENTED_EDGE ( 'NONE', *, *, #20, .T. ) ;
#348 = COORDINATED_UNIVERSAL_TIME_OFFSET ( 1, 0, .AHEAD. ) ;
#349 = ORIENTED_EDGE ( 'NONE', *, *, #174, .F. ) ;
#350 = FACE_OUTER_BOUND ( 'NONE', #105, .T. ) ;
#351 = SHAPE_DEFINITION_REPRESENTATION ( #374, #2 ) ;
#352 = FACE_OUTER_BOUND ( 'NONE', #110, .T. ) ;
#353 = DIRECTION ( 'NONE',  ( -0.000000000000000000, -0.000000000000000000, -1.000000000000000000 ) ) ;
#354 = EDGE_CURVE ( 'NONE', #158, #95, #328, .T. ) ;
#355 = CIRCLE ( 'NONE', #187, 4.000000000000000000 ) ;
#356 = ADVANCED_FACE ( 'NONE', ( #190, #98 ), #335, .F. ) ;
#357 = CARTESIAN_POINT ( 'NONE',  ( -10.00000000000000000, 0.000000000000000000, 7.000000000000000000 ) ) ;
#358 = DIRECTION ( 'NONE',  ( 0.000000000000000000, 0.000000000000000000, 1.000000000000000000 ) ) ;
#359 = SECURITY_CLASSIFICATION ( '', '', #44 ) ;
#360 = DIRECTION ( 'NONE',  ( -0.000000000000000000, -0.000000000000000000, -1.000000000000000000 ) ) ;
#361 = ORIENTED_EDGE ( 'NONE', *, *, #277, .F. ) ;
#362 = CARTESIAN_POINT ( 'NONE',  ( 0.000000000000000000, 0.000000000000000000, 7.000000000000000000 ) ) ;
#363 = APPROVAL ( #204, 'NEURÈENÝ' ) ;
#364 = CC_DESIGN_DATE_AND_TIME_ASSIGNMENT ( #49, #266, ( #359 ) ) ;
#365 = DIRECTION ( 'NONE',  ( -0.000000000000000000, -0.000000000000000000, -1.000000000000000000 ) ) ;
#366 = EDGE_LOOP ( 'NONE', ( #247, #284 ) ) ;
#367 = FACE_OUTER_BOUND ( 'NONE', #121, .T. ) ;
#368 = EDGE_CURVE ( 'NONE', #95, #259, #228, .T. ) ;
#369 = DIRECTION ( 'NONE',  ( 0.000000000000000000, 0.000000000000000000, 1.000000000000000000 ) ) ;
#370 = CALENDAR_DATE ( 2022, 10, 7 ) ;
#371 = ORIENTED_EDGE ( 'NONE', *, *, #143, .T. ) ;
#372 = AXIS2_PLACEMENT_3D ( 'NONE', #230, #194, #166 ) ;
#373 = ORIENTED_EDGE ( 'NONE', *, *, #368, .F. ) ;
#374 = PRODUCT_DEFINITION_SHAPE ( 'NONE', 'NONE',  #261 ) ;
#375 = VERTEX_POINT ( 'NONE', #149 ) ;
#376 = CARTESIAN_POINT ( 'NONE',  ( -6.000000000000000888, 0.000000000000000000, 7.700000000000012612 ) ) ;
#377 = DIRECTION ( 'NONE',  ( 1.000000000000000000, 0.000000000000000000, 0.000000000000000000 ) ) ;
#378 = ADVANCED_FACE ( 'NONE', ( #128, #367 ), #103, .T. ) ;
#379 = CARTESIAN_POINT ( 'NONE',  ( 0.000000000000000000, 0.000000000000000000, 207.0000000000000284 ) ) ;
#380 = CARTESIAN_POINT ( 'NONE',  ( 0.000000000000000000, 0.000000000000000000, 0.000000000000000000 ) ) ;
#381 = AXIS2_PLACEMENT_3D ( 'NONE', #257, #132, #200 ) ;
ENDSEC;
END-ISO-10303-21;
